  0
SECTION
  2
HEADER
  9
$ACADVER
  1
AC1009
  9
$INSBASE
 10
5147.5364462826873932
 20
573.6143219226786414
 30
0.0
  9
$EXTMIN
 10
5129.6736171075235688
 20
573.5997768299282598
 30
-0.0000000000112498
  9
$EXTMAX
 10
5147.7142993580337134
 20
605.1152301972791747
 30
0.0000000000002956
  9
$LIMMIN
 10
0.0
 20
0.0
  9
$LIMMAX
 10
11.6929133858000007
 20
8.2677165353999982
  9
$ORTHOMODE
 70
     0
  9
$REGENMODE
 70
     1
  9
$FILLMODE
 70
     1
  9
$QTEXTMODE
 70
     0
  9
$MIRRTEXT
 70
     0
  9
$DRAGMODE
 70
     2
  9
$LTSCALE
 40
0.6431102362
  9
$OSMODE
 70
  4095
  9
$ATTMODE
 70
     1
  9
$TEXTSIZE
 40
0.2
  9
$TRACEWID
 40
0.05
  9
$TEXTSTYLE
  7
STANDARD
  9
$CLAYER
  8
0
  9
$CELTYPE
  6
BYLAYER
  9
$CECOLOR
 62
   256
  9
$DIMSCALE
 40
1.0
  9
$DIMASZ
 40
0.1875
  9
$DIMEXO
 40
0.0625
  9
$DIMDLI
 40
0.4443307087
  9
$DIMRND
 40
0.0
  9
$DIMDLE
 40
0.0
  9
$DIMEXE
 40
0.125
  9
$DIMTP
 40
0.01
  9
$DIMTM
 40
0.01
  9
$DIMTXT
 40
2.0
  9
$DIMCEN
 40
0.1052362205
  9
$DIMTSZ
 40
0.0
  9
$DIMTOL
 70
     1
  9
$DIMLIM
 70
     0
  9
$DIMTIH
 70
     1
  9
$DIMTOH
 70
     1
  9
$DIMSE1
 70
     0
  9
$DIMSE2
 70
     0
  9
$DIMTAD
 70
     0
  9
$DIMZIN
 70
     0
  9
$DIMBLK
  1

  9
$DIMASO
 70
     1
  9
$DIMSHO
 70
     1
  9
$DIMPOST
  1
\X
  9
$DIMAPOST
  1

  9
$DIMALT
 70
     1
  9
$DIMALTD
 70
     2
  9
$DIMALTF
 40
25.3999999999999986
  9
$DIMLFAC
 40
1.0
  9
$DIMTOFL
 70
     0
  9
$DIMTVP
 40
0.0
  9
$DIMTIX
 70
     0
  9
$DIMSOXD
 70
     0
  9
$DIMSAH
 70
     0
  9
$DIMBLK1
  1

  9
$DIMBLK2
  1

  9
$DIMSTYLE
  2
STANDARD
  9
$DIMCLRD
 70
     0
  9
$DIMCLRE
 70
     0
  9
$DIMCLRT
 70
     0
  9
$DIMTFAC
 40
1.0
  9
$DIMGAP
 40
0.09
  9
$LUNITS
 70
     2
  9
$LUPREC
 70
     4
  9
$SKETCHINC
 40
0.1
  9
$FILLETRAD
 40
0.0
  9
$AUNITS
 70
     0
  9
$AUPREC
 70
     0
  9
$MENU
  1
.
  9
$ELEVATION
 40
0.0
  9
$PELEVATION
 40
0.0
  9
$THICKNESS
 40
0.0
  9
$LIMCHECK
 70
     0
  9
$BLIPMODE
 70
     0
  9
$CHAMFERA
 40
0.0
  9
$CHAMFERB
 40
0.0
  9
$SKPOLY
 70
     0
  9
$TDCREATE
 40
2458060.468368056230247
  9
$TDUPDATE
 40
2459548.8076504631899297
  9
$TDINDWG
 40
1.6886659028
  9
$TDUSRTIMER
 40
1.6886659028
  9
$USRTIMER
 70
     1
  9
$ANGBASE
 50
0.0
  9
$ANGDIR
 70
     0
  9
$PDMODE
 70
     0
  9
$PDSIZE
 40
0.3125
  9
$PLINEWID
 40
0.0
  9
$COORDS
 70
     1
  9
$SPLFRAME
 70
     0
  9
$SPLINETYPE
 70
     6
  9
$SPLINESEGS
 70
     8
  9
$ATTDIA
 70
     1
  9
$ATTREQ
 70
     1
  9
$HANDLING
 70
     1
  9
$HANDSEED
  5
1F147
  9
$SURFTAB1
 70
     6
  9
$SURFTAB2
 70
     6
  9
$SURFTYPE
 70
     6
  9
$SURFU
 70
     6
  9
$SURFV
 70
     6
  9
$UCSNAME
  2

  9
$UCSORG
 10
0.0
 20
0.0
 30
0.0
  9
$UCSXDIR
 10
1.0
 20
0.0
 30
0.0
  9
$UCSYDIR
 10
0.0
 20
1.0
 30
0.0
  9
$PUCSNAME
  2

  9
$PUCSORG
 10
0.0
 20
0.0
 30
0.0
  9
$PUCSXDIR
 10
1.0
 20
0.0
 30
0.0
  9
$PUCSYDIR
 10
0.0
 20
1.0
 30
0.0
  9
$USERI1
 70
     0
  9
$USERI2
 70
     0
  9
$USERI3
 70
     0
  9
$USERI4
 70
     0
  9
$USERI5
 70
     0
  9
$USERR1
 40
0.0
  9
$USERR2
 40
0.0
  9
$USERR3
 40
0.0
  9
$USERR4
 40
0.0
  9
$USERR5
 40
0.0
  9
$WORLDVIEW
 70
     1
  9
$SHADEDGE
 70
     3
  9
$SHADEDIF
 70
    70
  9
$TILEMODE
 70
     1
  9
$MAXACTVP
 70
    64
  9
$PLIMCHECK
 70
     0
  9
$PEXTMIN
 10
1.0000000000000000E+20
 20
1.0000000000000000E+20
 30
1.0000000000000000E+20
  9
$PEXTMAX
 10
-1.0000000000000000E+20
 20
-1.0000000000000000E+20
 30
-1.0000000000000000E+20
  9
$PLIMMIN
 10
0.0
 20
0.0
  9
$PLIMMAX
 10
12.0
 20
9.0
  9
$UNITMODE
 70
     0
  9
$VISRETAIN
 70
     1
  9
$PLINEGEN
 70
     0
  9
$PSLTSCALE
 70
     1
  0
ENDSEC
  0
SECTION
  2
TABLES
  0
TABLE
  2
VPORT
 70
     1
  0
VPORT
  2
*ACTIVE
 70
     0
 10
0.0
 20
0.0
 11
1.0
 21
1.0
 12
1227.3286017874670506
 22
456.7778984110645979
 13
0.0
 23
0.0
 14
1.0
 24
1.0
 15
0.0
 25
0.0
 16
0.0
 26
0.0
 36
60.4960186965801583
 17
3911.3653564453120453
 27
132.5796051025390057
 37
0.0
 40
31.7652456001173995
 41
2.0410052910052912
 42
50.0
 43
0.0
 44
0.0
 50
0.0
 51
0.0
 71
     0
 72
   100
 73
     1
 74
     1
 75
     0
 76
     0
 77
     0
 78
     0
  0
ENDTAB
  0
TABLE
  2
LTYPE
 70
     2
  0
LTYPE
  2
CONTINUOUS
 70
     0
  3
Solid line
 72
    65
 73
     0
 40
0.0
  0
LTYPE
  2
PHANTOM2
 70
     0
  3
___ _ _ ___ _ _ ___ _ _ ___ _ _
 72
    65
 73
     6
 40
1.25
 49
0.625
 49
-0.125
 49
0.125
 49
-0.125
 49
0.125
 49
-0.125
  0
ENDTAB
  0
TABLE
  2
LAYER
 70
     2
  0
LAYER
  2
0
 70
     0
 62
   255
  6
CONTINUOUS
  0
LAYER
  2
DEFPOINTS
 70
     0
 62
     7
  6
CONTINUOUS
  0
ENDTAB
  0
TABLE
  2
STYLE
 70
     1
  0
STYLE
  2
STANDARD
 70
     0
 40
0.0
 41
0.8
 50
0.0
 71
     0
 42
0.2
  3
txt
  4

  0
ENDTAB
  0
TABLE
  2
VIEW
 70
     0
  0
ENDTAB
  0
TABLE
  2
UCS
 70
     0
  0
ENDTAB
  0
TABLE
  2
APPID
 70
    11
  0
APPID
  2
ACAD
 70
     0
  0
APPID
  2
ACAD_MLEADERVER
 70
     0
  0
APPID
  2
ACAD_EXEMPT_FROM_CAD_STANDARDS
 70
     0
  0
APPID
  2
ACAD_NAV_VCDISPLAY
 70
     0
  0
APPID
  2
ACAECLAYERSTANDARD
 70
     0
  0
APPID
  2
ACCMTRANSPARENCY
 70
     0
  0
APPID
  2
ACAD_DSTYLE_DIMJAG
 70
     0
  0
APPID
  2
ACAD_DSTYLE_DIMTALN
 70
     0
  0
APPID
  2
ACDBATTR
 70
     0
  0
APPID
  2
ACADANNOTATIVE
 70
     0
  0
APPID
  2
DCO15
 70
     0
  0
ENDTAB
  0
TABLE
  2
DIMSTYLE
 70
     1
  0
DIMSTYLE
  2
STANDARD
 70
     0
  3

  4

  5

  6

  7

 40
1.0
 41
0.1875
 42
0.0625
 43
0.38
 44
0.125
 45
0.0
 46
0.0
 47
0.01
 48
0.01
140
0.15625
141
0.09
142
0.0
143
25.3999999999999986
144
1.0
145
0.0
146
1.0
147
0.09
 71
     1
 72
     0
 73
     1
 74
     1
 75
     0
 76
     0
 77
     0
 78
     4
170
     0
171
     2
172
     0
173
     0
174
     0
175
     0
176
     0
177
     0
178
     0
  0
ENDTAB
  0
ENDSEC
  0
SECTION
  2
BLOCKS
  0
BLOCK
  8
0
  2
$MODEL_SPACE
 70
     0
 10
0.0
 20
0.0
 30
0.0
  3
$MODEL_SPACE
  1

  0
ENDBLK
  5
21
  8
0
  0
BLOCK
 67
     1
  8
0
  2
$PAPER_SPACE
 70
     0
 10
0.0
 20
0.0
 30
0.0
  3
$PAPER_SPACE
  1

  0
ENDBLK
  5
1D
 67
     1
  8
0
  0
ENDSEC
  0
SECTION
  2
ENTITIES
  0
ATTDEF
  5
159BF
  8
DEFPOINTS
 10
5147.5324075715279832
 20
573.6187572435261472
 30
0.0
 40
0.001
  1
K-77770K
  3

  2
MODELNUMBER
 70
     0
1001
ACDBATTR
1070
     0
1070
     1
  0
ATTDEF
  5
159C0
  8
DEFPOINTS
 10
5147.5324075715279832
 20
573.6170904031471309
 30
0.0
 40
0.001
  1
FOREFRONT
  3

  2
TRADENAME
 70
     0
1001
ACDBATTR
1070
     0
1070
     1
  0
ATTDEF
  5
159C1
  8
DEFPOINTS
 10
5147.5324075715279832
 20
573.6154239101929306
 30
0.0
 40
0.001
  1
BATHROOM SINK
  3

  2
PRODUCT
 70
     0
1001
ACDBATTR
1070
     0
1070
     1
  0
LINE
  5
1F0A1
  8
0
 10
5147.3396462826876814
 20
605.1104219226785972
 30
0.0
 11
5130.0407347675982237
 21
605.1104219226785972
 31
0.0
  0
LINE
  5
1F0A2
  8
0
 10
5147.4264462826877207
 20
599.401770122678613
 30
0.0
 11
5130.7814632095669367
 21
599.401770122678613
 31
0.0
  0
ARC
  5
1F0A3
  8
0
 10
5157.351973303021623
 20
606.223395889191579
 30
0.0
 40
27.5807427961537002
 50
182.8281099184330003
 51
194.0001087159845099
  0
ARC
  5
1F0A4
  8
0
 10
5130.0407347675982237
 20
604.8742219226785437
 30
0.0
 40
0.2362
 50
90.0
 51
182.8281099184330003
  0
ARC
  5
1F0A5
  8
0
 10
5134.4610389339613903
 20
601.7688987176580895
 30
0.0
 40
3.5100987699064659
 50
222.8916612762506873
 51
237.1795959183677098
  0
ARC
  5
1F0A6
  8
0
 10
5134.5126819754050302
 20
601.9010952974554129
 30
0.0
 40
3.652024593630514
 50
251.3685998184527932
 51
262.2979922818727232
  0
ARC
  5
1F0A7
  8
0
 10
5134.762528572850897
 20
603.7485130335847998
 30
0.0
 40
5.5162605266659428
 50
262.2979922818727232
 51
271.1887781924427827
  0
ARC
  5
1F0A8
  8
0
 10
5136.2337909046227651
 20
567.8871433468076475
 30
0.0
 40
30.3766137825581097
 50
88.1538838018441737
 51
92.560056761923633
  0
ARC
  5
1F0A9
  8
0
 10
5135.2901871190069869
 20
538.0821708460375703
 30
0.0
 40
60.19651698506906
 50
86.7348628638930279
 51
88.1701217811621092
  0
ARC
  5
1F0AA
  8
0
 10
5139.3979547528651892
 20
606.5853747225644383
 30
0.0
 40
8.4318049659502812
 50
265.3798222737750052
 51
277.3020478617528966
  0
ARC
  5
1F0AB
  8
0
 10
5140.5361830763058606
 20
597.8477250525083946
 30
0.0
 40
0.3800980117806905
 50
100.0829829706383975
 51
147.9632362673330022
  0
ARC
  5
1F0AC
  8
0
 10
5139.8903427579443814
 20
598.2669931516583119
 30
0.0
 40
0.3900031079607959
 50
275.2068719249444939
 51
326.0791600758412869
  0
ARC
  5
1F0AD
  8
0
 10
5140.3675406344036674
 20
661.6831389274757385
 30
0.0
 40
63.8060691274239886
 50
267.1612168764331159
 51
269.6032709007047856
  0
ARC
  5
1F0AE
  8
0
 10
5136.2989101824387035
 20
563.9704132761333994
 30
0.0
 40
33.9970998207800434
 50
88.4685735342386863
 51
91.9583967803708049
  0
ARC
  5
1F0AF
  8
0
 10
5135.1437990597905809
 20
598.0574210237861053
 30
0.0
 40
0.1099697415277355
 50
179.9974261736070957
 51
266.5072848548963975
  0
ARC
  5
1F0B0
  8
0
 10
5812.5858248877020742
 20
598.0671708083824569
 30
0.0
 40
677.5519956394051633
 50
179.999467247062114
 51
180.0008240525762062
  0
ARC
  5
1F0B1
  8
0
 10
5134.8738080934563186
 20
598.0734498941483253
 30
0.0
 40
0.160021185507886
 50
0.0075158996920006
 51
88.8669957910520338
  0
LINE
  5
1F0B2
  8
0
 10
5136.4207691605370201
 20
587.4132557654560287
 30
0.0
 11
5147.0303140861096836
 21
586.6528440241917224
 31
0.0
  0
LINE
  5
1F0B3
  8
0
 10
5147.5364462826873932
 20
598.0732619226786255
 30
0.0
 11
5147.5364462826873932
 21
586.6369342902794415
 31
0.0
  0
LINE
  5
1F0B4
  8
0
 10
5135.533655053507573
 20
597.9588992796569755
 30
0.0
 11
5135.9823282020470288
 21
587.8637581286371869
 31
0.0
  0
ARC
  5
1F0B5
  8
0
 10
5136.454562027931388
 20
587.8847463084292713
 30
0.0
 40
0.4727000000000001
 50
182.5448055608054005
 51
265.9004829887053916
  0
LINE
  5
1F0B6
  8
0
 10
5147.5364462826873932
 20
598.0732619226786255
 30
0.0
 11
5140.2302294544069809
 21
598.0732619226786255
 31
0.0
  0
LINE
  5
1F0B7
  8
0
 10
5147.2912748100716271
 20
586.6544435278223091
 30
0.0
 11
5147.5364462826873932
 21
586.6369342902794415
 31
0.0
  0
ARC
  5
1F0B8
  8
0
 10
5147.0699463680975896
 20
587.5971466538749155
 30
0.0
 40
0.945133945111679
 50
267.5967126093265733
 51
273.2137029064551257
  0
ARC
  5
1F0B9
  8
0
 10
5147.2164500814533312
 20
584.9879322524639065
 30
0.0
 40
1.6681902082525999
 50
87.4292020412958948
 51
93.2137029064550831
  0
LINE
  5
1F0BA
  8
0
 10
5147.5364462826873932
 20
599.5117701226786266
 30
0.0
 11
5147.5364462826873932
 21
604.9136219226785443
 31
0.0
  0
ARC
  5
1F0BB
  8
0
 10
5147.4264462826877207
 20
599.5117701226786266
 30
0.0
 40
0.11
 50
270.0
 51
0.0
  0
ARC
  5
1F0BC
  8
0
 10
5147.3396462826876814
 20
604.9136219226785443
 30
0.0
 40
0.1968
 50
0.0
 51
90.0
  0
ARC
  5
1F0BD
  8
0
 10
5141.3989733188182072
 20
599.2016153833310455
 30
0.0
 40
2.167715130871696
 50
328.6324162999366081
 51
5.2979193952125714
  0
ARC
  5
1F0BE
  8
0
 10
5140.4295130623577279
 20
600.0410374006137317
 30
0.0
 40
2.2775689403158861
 50
300.2334889278318997
 51
343.6992268249597942
  0
ARC
  5
1F0BF
  8
0
 10
5130.7814632095669367
 20
599.5985701226785523
 30
0.0
 40
0.1968
 50
194.0001087159845099
 51
270.0
  0
LINE
  5
1F0C1
  8
0
 10
5132.5585248276865968
 20
596.7413832846285686
 30
0.0
 11
5132.5585248276865968
 21
599.401770122678613
 31
0.0
  0
LINE
  5
1F0C2
  8
0
 10
5133.3459264024877484
 20
596.741377903928651
 30
0.0
 11
5133.3459264024877484
 21
599.401770122678613
 31
0.0
  0
LINE
  5
1F0C3
  8
0
 10
5133.3459264024877484
 20
596.741377903928651
 30
0.0
 11
5132.5585248276865968
 21
596.7413832846285686
 31
0.0
  0
LINE
  5
1F0C4
  8
0
 10
5133.3459264024877484
 20
599.3844114558286265
 30
0.0
 11
5132.5585248276865968
 21
599.3844114558286265
 31
0.0
  0
ENDSEC
  0
EOF
