  0
SECTION
  2
HEADER
  9
$ACADVER
  1
AC1009
  9
$INSBASE
 10
3435.661030728319929
 20
209.8279180468283016
 30
0.0
  9
$EXTMIN
 10
3397.4963510572770247
 20
209.8087100605264084
 30
-0.0015258207003583
  9
$EXTMAX
 10
3435.7658867816307975
 20
245.903702178761506
 30
0.0000000349246037
  9
$LIMMIN
 10
0.0
 20
0.0
  9
$LIMMAX
 10
11.6929133858000007
 20
8.2677165353999982
  9
$ORTHOMODE
 70
     0
  9
$REGENMODE
 70
     1
  9
$FILLMODE
 70
     1
  9
$QTEXTMODE
 70
     0
  9
$MIRRTEXT
 70
     0
  9
$DRAGMODE
 70
     2
  9
$LTSCALE
 40
0.6431102362
  9
$OSMODE
 70
  3839
  9
$ATTMODE
 70
     1
  9
$TEXTSIZE
 40
0.2
  9
$TRACEWID
 40
0.05
  9
$TEXTSTYLE
  7
STANDARD
  9
$CLAYER
  8
0
  9
$CELTYPE
  6
BYLAYER
  9
$CECOLOR
 62
   256
  9
$DIMSCALE
 40
1.0
  9
$DIMASZ
 40
0.1875
  9
$DIMEXO
 40
0.0625
  9
$DIMDLI
 40
0.4443307087
  9
$DIMRND
 40
0.0
  9
$DIMDLE
 40
0.0
  9
$DIMEXE
 40
0.125
  9
$DIMTP
 40
0.01
  9
$DIMTM
 40
0.01
  9
$DIMTXT
 40
2.0
  9
$DIMCEN
 40
0.1052362205
  9
$DIMTSZ
 40
0.0
  9
$DIMTOL
 70
     1
  9
$DIMLIM
 70
     0
  9
$DIMTIH
 70
     1
  9
$DIMTOH
 70
     1
  9
$DIMSE1
 70
     0
  9
$DIMSE2
 70
     0
  9
$DIMTAD
 70
     0
  9
$DIMZIN
 70
     0
  9
$DIMBLK
  1

  9
$DIMASO
 70
     1
  9
$DIMSHO
 70
     1
  9
$DIMPOST
  1
\X
  9
$DIMAPOST
  1

  9
$DIMALT
 70
     1
  9
$DIMALTD
 70
     2
  9
$DIMALTF
 40
25.3999999999999986
  9
$DIMLFAC
 40
1.0
  9
$DIMTOFL
 70
     0
  9
$DIMTVP
 40
0.0
  9
$DIMTIX
 70
     0
  9
$DIMSOXD
 70
     0
  9
$DIMSAH
 70
     0
  9
$DIMBLK1
  1

  9
$DIMBLK2
  1

  9
$DIMSTYLE
  2
STANDARD
  9
$DIMCLRD
 70
     0
  9
$DIMCLRE
 70
     0
  9
$DIMCLRT
 70
     0
  9
$DIMTFAC
 40
1.0
  9
$DIMGAP
 40
0.09
  9
$LUNITS
 70
     2
  9
$LUPREC
 70
     4
  9
$SKETCHINC
 40
0.1
  9
$FILLETRAD
 40
0.0
  9
$AUNITS
 70
     0
  9
$AUPREC
 70
     0
  9
$MENU
  1
.
  9
$ELEVATION
 40
0.0
  9
$PELEVATION
 40
0.0
  9
$THICKNESS
 40
0.0
  9
$LIMCHECK
 70
     0
  9
$BLIPMODE
 70
     0
  9
$CHAMFERA
 40
0.0
  9
$CHAMFERB
 40
0.0
  9
$SKPOLY
 70
     0
  9
$TDCREATE
 40
2458060.468368056230247
  9
$TDUPDATE
 40
2459188.9947337969206274
  9
$TDINDWG
 40
0.6190232639
  9
$TDUSRTIMER
 40
0.6190232639
  9
$USRTIMER
 70
     1
  9
$ANGBASE
 50
0.0
  9
$ANGDIR
 70
     0
  9
$PDMODE
 70
     0
  9
$PDSIZE
 40
0.3125
  9
$PLINEWID
 40
0.0
  9
$COORDS
 70
     1
  9
$SPLFRAME
 70
     0
  9
$SPLINETYPE
 70
     6
  9
$SPLINESEGS
 70
     8
  9
$ATTDIA
 70
     1
  9
$ATTREQ
 70
     1
  9
$HANDLING
 70
     1
  9
$HANDSEED
  5
161B8
  9
$SURFTAB1
 70
     6
  9
$SURFTAB2
 70
     6
  9
$SURFTYPE
 70
     6
  9
$SURFU
 70
     6
  9
$SURFV
 70
     6
  9
$UCSNAME
  2

  9
$UCSORG
 10
0.0
 20
0.0
 30
0.0
  9
$UCSXDIR
 10
1.0
 20
0.0
 30
0.0
  9
$UCSYDIR
 10
0.0
 20
1.0
 30
0.0
  9
$PUCSNAME
  2

  9
$PUCSORG
 10
0.0
 20
0.0
 30
0.0
  9
$PUCSXDIR
 10
1.0
 20
0.0
 30
0.0
  9
$PUCSYDIR
 10
0.0
 20
1.0
 30
0.0
  9
$USERI1
 70
     0
  9
$USERI2
 70
     0
  9
$USERI3
 70
     0
  9
$USERI4
 70
     0
  9
$USERI5
 70
     0
  9
$USERR1
 40
0.0
  9
$USERR2
 40
0.0
  9
$USERR3
 40
0.0
  9
$USERR4
 40
0.0
  9
$USERR5
 40
0.0
  9
$WORLDVIEW
 70
     1
  9
$SHADEDGE
 70
     3
  9
$SHADEDIF
 70
    70
  9
$TILEMODE
 70
     1
  9
$MAXACTVP
 70
    64
  9
$PLIMCHECK
 70
     0
  9
$PEXTMIN
 10
1.0000000000000000E+20
 20
1.0000000000000000E+20
 30
1.0000000000000000E+20
  9
$PEXTMAX
 10
-1.0000000000000000E+20
 20
-1.0000000000000000E+20
 30
-1.0000000000000000E+20
  9
$PLIMMIN
 10
0.0
 20
0.0
  9
$PLIMMAX
 10
12.0
 20
9.0
  9
$UNITMODE
 70
     0
  9
$VISRETAIN
 70
     1
  9
$PLINEGEN
 70
     0
  9
$PSLTSCALE
 70
     1
  0
ENDSEC
  0
SECTION
  2
TABLES
  0
TABLE
  2
VPORT
 70
     1
  0
VPORT
  2
*ACTIVE
 70
     0
 10
0.0
 20
0.0
 11
1.0
 21
1.0
 12
-19.0237811746478584
 22
18.0311229740127104
 13
0.0
 23
0.0
 14
1.0
 24
1.0
 15
0.0
 25
0.0
 16
0.0
 26
0.0
 36
0.03537411500283
 17
3435.6549000941017766
 27
209.8250831456311971
 37
0.0
 40
36.4945676767396066
 41
3.0887245841035109
 42
50.0
 43
0.0
 44
0.0
 50
0.0
 51
0.0
 71
     0
 72
   100
 73
     1
 74
     1
 75
     0
 76
     0
 77
     0
 78
     0
  0
ENDTAB
  0
TABLE
  2
LTYPE
 70
     2
  0
LTYPE
  2
CONTINUOUS
 70
     0
  3
Solid line
 72
    65
 73
     0
 40
0.0
  0
LTYPE
  2
PHANTOM2
 70
     0
  3
___ _ _ ___ _ _ ___ _ _ ___ _ _
 72
    65
 73
     6
 40
1.25
 49
0.625
 49
-0.125
 49
0.125
 49
-0.125
 49
0.125
 49
-0.125
  0
ENDTAB
  0
TABLE
  2
LAYER
 70
     2
  0
LAYER
  2
0
 70
     0
 62
   255
  6
CONTINUOUS
  0
LAYER
  2
DEFPOINTS
 70
     0
 62
     7
  6
CONTINUOUS
  0
ENDTAB
  0
TABLE
  2
STYLE
 70
     1
  0
STYLE
  2
STANDARD
 70
     0
 40
0.0
 41
0.8
 50
0.0
 71
     0
 42
0.2
  3
txt
  4

  0
ENDTAB
  0
TABLE
  2
VIEW
 70
     0
  0
ENDTAB
  0
TABLE
  2
UCS
 70
     0
  0
ENDTAB
  0
TABLE
  2
APPID
 70
     9
  0
APPID
  2
ACAD
 70
     0
  0
APPID
  2
ACAD_MLEADERVER
 70
     0
  0
APPID
  2
ACAD_EXEMPT_FROM_CAD_STANDARDS
 70
     0
  0
APPID
  2
ACAD_NAV_VCDISPLAY
 70
     0
  0
APPID
  2
ACAECLAYERSTANDARD
 70
     0
  0
APPID
  2
ACCMTRANSPARENCY
 70
     0
  0
APPID
  2
ACAD_DSTYLE_DIMJAG
 70
     0
  0
APPID
  2
ACAD_DSTYLE_DIMTALN
 70
     0
  0
APPID
  2
ACDBATTR
 70
     0
  0
ENDTAB
  0
TABLE
  2
DIMSTYLE
 70
     1
  0
DIMSTYLE
  2
STANDARD
 70
     0
  3

  4

  5

  6

  7

 40
1.0
 41
0.1875
 42
0.0625
 43
0.38
 44
0.125
 45
0.0
 46
0.0
 47
0.01
 48
0.01
140
0.15625
141
0.09
142
0.0
143
25.3999999999999986
144
1.0
145
0.0
146
1.0
147
0.09
 71
     1
 72
     0
 73
     1
 74
     1
 75
     0
 76
     0
 77
     0
 78
     4
170
     0
171
     2
172
     0
173
     0
174
     0
175
     0
176
     0
177
     0
178
     0
  0
ENDTAB
  0
ENDSEC
  0
SECTION
  2
BLOCKS
  0
BLOCK
  8
0
  2
$MODEL_SPACE
 70
     0
 10
0.0
 20
0.0
 30
0.0
  3
$MODEL_SPACE
  1

  0
ENDBLK
  5
21
  8
0
  0
BLOCK
 67
     1
  8
0
  2
$PAPER_SPACE
 70
     0
 10
0.0
 20
0.0
 30
0.0
  3
$PAPER_SPACE
  1

  0
ENDBLK
  5
1D
 67
     1
  8
0
  0
BLOCK
  8
0
  2
_FILLED
 70
     0
 10
0.0
 20
0.0
 30
0.0
  3
_FILLED
  1

  0
SOLID
  5
13356
  8
0
  6
BYBLOCK
 62
     0
 10
0.0
 20
0.0
 30
0.0
 11
-1.0
 21
0.1666666667
 31
0.0
 12
-1.0
 22
-0.1666666667
 32
0.0
 13
-1.0
 23
-0.1666666667
 33
0.0
  0
ENDBLK
  5
13357
  8
0
  6
BYBLOCK
 62
     0
  0
ENDSEC
  0
SECTION
  2
ENTITIES
  0
ATTDEF
  5
12BEB
  8
DEFPOINTS
 10
3435.6495667606100142
 20
209.8262498122979025
 30
0.0
 40
0.001
  1
K-77780T
  3

  2
MODELNUMBER
 70
     0
1001
ACDBATTR
1070
     0
1070
     1
  0
ATTDEF
  5
12BEC
  8
DEFPOINTS
 10
3435.6495667606100142
 20
209.8245831456312942
 30
0.0
 40
0.001
  1
KARING
  3

  2
TRADENAME
 70
     0
1001
ACDBATTR
1070
     0
1070
     1
  0
ATTDEF
  5
12BED
  8
DEFPOINTS
 10
3435.6495667606100142
 20
209.8229164789646006
 30
0.0
 40
0.001
  1
TOILET
  3

  2
PRODUCT
 70
     0
1001
ACDBATTR
1070
     0
1070
     1
  0
LINE
  5
15F5C
  8
0
 10
3408.0261002696011019
 20
225.2797290704282887
 30
0.0
 11
3435.661030728319929
 21
225.2797290704282887
 31
0.0
  0
LINE
  5
15F5D
  8
0
 10
3433.8254043302317768
 20
209.8279180468283016
 30
0.0
 11
3409.6925221902210978
 21
209.8279180468283016
 31
0.0
  0
LINE
  5
15F5E
  8
0
 10
3402.1343426061589525
 20
245.8961974498147924
 30
0.0
 11
3398.5057761098578339
 21
245.8961974498147924
 31
0.0
  0
LINE
  5
15F5F
  8
0
 10
3407.866026856363078
 20
225.3610730265282882
 30
0.0
 11
3428.2270217762620632
 21
225.3610730265282882
 31
0.0
  0
CIRCLE
  5
15F60
  8
0
 10
3424.3440460425981655
 20
211.0287088857076867
 30
0.0
 40
0.745974275059931
  0
ARC
  5
15F61
  8
0
 10
3377.0917079679229573
 20
209.4975494161641905
 30
0.0
 40
32.6024881165367617
 50
0.5806014592855244
 51
4.8256218295913733
  0
ARC
  5
15F62
  8
0
 10
3370.1289223641952049
 20
208.9097322444193026
 30
0.0
 40
39.590042223009327
 50
4.8256218295913733
 51
11.0556597002665509
  0
ARC
  5
15F63
  8
0
 10
3112.1476260946228649
 20
158.503115123080903
 30
0.0
 40
302.4496554665535086
 50
11.0556597002665509
 51
11.8710586847868704
  0
ARC
  5
15F64
  8
0
 10
3428.2357596012589056
 20
224.2460277788954954
 30
0.0
 40
20.4137902612371711
 50
180.2884924578731045
 51
189.9464491018586898
  0
LINE
  5
15F65
  8
0
 10
3407.8222281114940415
 20
224.1432418548282897
 30
0.0
 11
3407.813130728320175
 21
225.0397260228203038
 31
0.0
  0
ARC
  5
15F66
  8
0
 10
3408.0561104663670449
 20
225.0386071238399097
 30
0.0
 40
0.2429823142463202
 50
97.0945878759624037
 51
179.7361601561659086
  0
ARC
  5
15F67
  8
0
 10
3407.8717592923508164
 20
225.4004778084213001
 30
0.0
 40
0.0398195637645158
 50
172.8574807669347138
 51
261.7229234133625937
  0
ARC
  5
15F68
  8
0
 10
3411.1657419168841443
 20
224.8636994605332973
 30
0.0
 40
3.3772248361233368
 50
159.1694117603919096
 51
170.7694977794172075
  0
ARC
  5
15F69
  8
0
 10
3411.1941788099611585
 20
224.7583982389813002
 30
0.0
 40
3.4423815481296729
 50
105.7044708084217035
 51
157.6994657565660987
  0
ARC
  5
15F6A
  8
0
 10
3431.6257369782201749
 20
143.5912439420987141
 30
0.0
 40
87.1403283155142248
 50
92.7835317969858551
 51
104.1912920337567954
  0
ARC
  5
15F6B
  8
0
 10
3430.6486921670239099
 20
173.5787495550262918
 30
0.0
 40
57.1419809758134321
 50
90.8396050884486357
 51
93.1752370141640682
  0
ARC
  5
15F6C
  8
0
 10
3429.7919041327058949
 20
220.5165189546486033
 30
0.0
 40
10.1980950452683299
 50
71.5607694776559242
 51
89.8906307481822608
  0
ARC
  5
15F6D
  8
0
 10
3431.181855261022065
 20
226.3268136122057115
 30
0.0
 40
4.2780855557554789
 50
12.3349374667405698
 51
64.5900443631342682
  0
ARC
  5
15F6E
  8
0
 10
3428.2557919987521018
 20
225.4806603039534991
 30
0.0
 40
7.3201374022309409
 50
358.4270844655823112
 51
13.9125940558693006
  0
ARC
  5
15F6F
  8
0
 10
3433.1925069175040335
 20
225.1728584829955082
 30
0.0
 40
2.4708361190129091
 50
2.478976410149544
 51
16.1244632178963201
  0
ARC
  5
15F70
  8
0
 10
3435.3404479657788215
 20
225.0392251415894975
 30
0.0
 40
0.2416255163341154
 50
359.4273449614747165
 51
84.4773064013764667
  0
ARC
  5
15F71
  8
0
 10
3400.575810347217157
 20
226.0088005678755962
 30
0.0
 40
35.0197427032014019
 50
351.0426699573832252
 51
358.4095229088259202
  0
ARC
  5
15F72
  8
0
 10
4188.8440936003025854
 20
107.7230217037236031
 30
0.0
 40
762.0749854738911608
 50
171.4854504612166011
 51
171.8061080020140992
  0
ARC
  5
15F73
  8
0
 10
3465.8659215110628793
 20
204.5566310093614106
 30
0.0
 40
33.4593549552438816
 50
159.3862281831227108
 51
170.9356883890546897
  0
LINE
  5
15F74
  8
0
 10
3434.4141689473899532
 20
215.9722209938711899
 30
0.0
 11
3434.5040366256448578
 21
215.9600579444069126
 31
0.0
  0
ARC
  5
15F75
  8
0
 10
3638.9426209694238423
 20
190.2316060243391007
 30
0.0
 40
206.0511781249790033
 50
172.8270762241261878
 51
174.5426885203843881
  0
ARC
  5
15F76
  8
0
 10
3460.3064166819481215
 20
206.460219645395199
 30
0.0
 40
27.4956313671334804
 50
159.7874625299373008
 51
172.9646775887941033
  0
ARC
  5
15F77
  8
0
 10
-346948.0581178278080188
 20
37066.9974127542373026
 30
0.0
 40
352314.9052096488885581
 50
353.9950560629492884
 51
353.9951140042754218
  0
ARC
  5
15F78
  8
0
 10
3434.1530673696138365
 20
210.1682909775063024
 30
0.0
 40
0.465852735756814
 50
147.5686457549414001
 51
178.2832140130136906
  0
ARC
  5
15F79
  8
0
 10
3433.2408128853107883
 20
210.2747689275477114
 30
0.0
 40
0.538490636695512
 50
350.1065660899025147
 51
15.43908918816153
  0
ARC
  5
15F7A
  8
0
 10
7449553.5966011742129922
 20
-779231.5963103871326894
 30
0.0
 40
7486803.7198105845600367
 50
174.0241797115066049
 51
174.024182437971092
  0
ARC
  5
15F7B
  8
0
 10
3427.4843513465639262
 20
230.6212140304330944
 30
0.0
 40
0.0118159150870559
 50
93.6501628830671393
 51
176.6807645748951074
  0
ARC
  5
15F7C
  8
0
 10
3504.0511894581482011
 20
229.2277002963828068
 30
0.0
 40
76.5913246023806522
 50
178.9569828425196931
 51
179.0269261411839068
  0
LINE
  5
15F7D
  8
0
 10
3428.309388928178123
 20
225.2797290704282887
 30
0.0
 11
3428.3161004350308758
 21
227.5045169594451124
 31
0.0
  0
LINE
  5
15F7E
  8
0
 10
3428.3365023410810863
 20
225.2797290704282887
 30
0.0
 11
3428.3381351991279189
 21
227.0447010937976984
 31
0.0
  0
ARC
  5
15F7F
  8
0
 10
3417.7327206896297866
 20
226.766916580815689
 30
0.0
 40
10.6090518499023503
 50
1.5003884999332739
 51
15.1285562754803191
  0
ARC
  5
15F80
  8
0
 10
3423.7768962811210258
 20
228.3648020695326011
 30
0.0
 40
4.3574660549867268
 50
15.5879323799895495
 51
26.9271057134173013
  0
ARC
  5
15F81
  8
0
 10
3426.4268679271608562
 20
229.7166385110421061
 30
0.0
 40
1.382617204666108
 50
26.7108753613063996
 51
40.8608541986349181
  0
ARC
  5
15F82
  8
0
 10
3425.8941216438829542
 20
229.399120228171995
 30
0.0
 40
1.939476258494641
 50
20.3026453038079495
 51
39.3465173507950823
  0
ARC
  5
15F83
  8
0
 10
3419.4456804120600282
 20
227.0134309217920929
 30
0.0
 40
8.8150786166051525
 50
0.6951429272221477
 51
20.3026453038079495
  0
ARC
  5
15F84
  8
0
 10
3357.382493642091049
 20
226.2604103212476048
 30
0.0
 40
70.8828334661959047
 50
359.3048570661171084
 51
0.6951429272221477
  0
ARC
  5
15F85
  8
0
 10
3428.2195584915880318
 20
225.4009351250620057
 30
0.0
 40
0.0405547471651027
 50
280.604576715046619
 51
359.3048570661105146
  0
LINE
  5
15F86
  8
0
 10
3428.2606333054309289
 20
225.4446909696308126
 30
0.0
 11
3428.3098861197181577
 21
225.4445423889044093
 31
0.0
  0
LINE
  5
15F87
  8
0
 10
3428.2612815629017859
 20
225.5031104644378104
 30
0.0
 11
3428.3100623578211525
 21
225.502963307649992
 31
0.0
  0
LINE
  5
15F89
  8
0
 10
3398.4113507207530347
 20
242.8366353324850024
 30
0.0
 11
3402.2287679952642065
 21
242.8366353324850024
 31
0.0
  0
ARC
  5
15F8A
  8
0
 10
3402.1299043290678128
 20
244.4095088757757992
 30
0.0
 40
1.486695198916566
 50
79.2186019623589459
 51
89.8289528858657604
  0
ARC
  5
15F8B
  8
0
 10
3402.320863651621039
 20
245.254875707173511
 30
0.0
 40
0.6212279965949844
 50
39.8092690425499427
 51
81.9359909925277634
  0
ARC
  5
15F8C
  8
0
 10
3401.7516168014640243
 20
244.8464317365944112
 30
0.0
 40
1.320984750974241
 50
8.1251045869270513
 51
37.6100072198185913
  0
ARC
  5
15F8D
  8
0
 10
3400.1114061561020208
 20
244.6146692576780879
 30
0.0
 40
2.9774877808642848
 50
1.845826915711267
 51
8.0792452018479555
  0
ARC
  5
15F8E
  8
0
 10
3356.1692918075200396
 20
244.4491867476230027
 30
0.0
 40
46.9187852739777114
 50
359.5594139482192872
 51
0.3192005774885194
  0
ARC
  5
15F8F
  8
0
 10
3401.3987976616349442
 20
243.9923360040471039
 30
0.0
 40
1.6906237084709721
 50
335.6819842255595177
 51
3.2573936752462989
  0
ARC
  5
15F90
  8
0
 10
3402.2498071295640329
 20
243.5835474949201114
 30
0.0
 40
0.7471076676332521
 50
294.3596774167979788
 51
337.3749193004603057
  0
ARC
  5
15F91
  8
0
 10
3402.1936940625778334
 20
243.8609569497903067
 30
0.0
 40
1.024921926994002
 50
271.9611062070711114
 51
290.8185834494241249
  0
LINE
  5
15F92
  8
0
 10
3400.5568334881108967
 20
245.8759907602282908
 30
0.0
 11
3400.0832852278949758
 21
245.8759907602280919
 31
0.0
  0
LINE
  5
15F93
  8
0
 10
3400.5567754958819933
 20
245.8727645438910088
 30
0.0
 11
3400.0833432201347932
 21
245.8727645438910088
 31
0.0
  0
LINE
  5
15F94
  8
0
 10
3402.1343426071871363
 20
245.8603974786385891
 30
0.0
 11
3398.5057761088291954
 21
245.8603974786385891
 31
0.0
  0
ARC
  5
15F95
  8
0
 10
3402.1299043300950871
 20
244.3737089045995958
 30
0.0
 40
1.486695198916566
 50
79.2186019623589459
 51
89.8289528858657604
  0
ARC
  5
15F96
  8
0
 10
3402.3208636526492228
 20
245.2190757359973929
 30
0.0
 40
0.6212279965949844
 50
39.8092690425499427
 51
81.9359909925277634
  0
ARC
  5
15F97
  8
0
 10
3401.7516168024931176
 20
244.8106317654182931
 30
0.0
 40
1.320984750974241
 50
8.1251045869270513
 51
37.6100072198185913
  0
ARC
  5
15F98
  8
0
 10
3400.0468909184160111
 20
244.5714948742653121
 30
0.0
 40
3.0423996136913951
 50
1.9468414306549411
 51
8.0459886208889237
  0
ARC
  5
15F99
  8
0
 10
3400.546756355980051
 20
245.3746016102109877
 30
0.0
 40
0.5014904070339589
 50
81.2419952117854365
 51
88.8486001016144087
  0
ARC
  5
15F9A
  8
0
 10
3400.6136493568128571
 20
245.7880980449104982
 30
0.0
 40
0.0826901640308179
 50
60.9671260312771395
 51
83.4275560059626571
  0
ARC
  5
15F9B
  8
0
 10
3400.548987851460879
 20
245.390503076145194
 30
0.0
 40
0.4823243417846449
 50
81.1664146780996845
 51
89.0748579154600577
  0
ARC
  5
15F9C
  8
0
 10
3400.6135913645839537
 20
245.7849596263727108
 30
0.0
 40
0.0826901640308179
 50
65.8245046701803602
 51
83.4275560059626571
  0
ARC
  5
15F9D
  8
0
 10
3398.5258278249989417
 20
244.3954814482576126
 30
0.0
 40
1.5008499553952499
 50
90.7655081219491962
 51
100.7563634214343011
  0
ARC
  5
15F9E
  8
0
 10
3398.3328649070081156
 20
245.254875707173511
 30
0.0
 40
0.6212279965949844
 50
98.064009007472265
 51
140.1907309574500005
  0
ARC
  5
15F9F
  8
0
 10
3398.9021117571651303
 20
244.8464317365944112
 30
0.0
 40
1.320984750974241
 50
142.3899927801813874
 51
171.8748954130728919
  0
ARC
  5
15FA0
  8
0
 10
3400.7388137653779268
 20
244.5922093189184068
 30
0.0
 40
3.175190028077604
 50
172.017807017970398
 51
177.8636214393831096
  0
ARC
  5
15FA1
  8
0
 10
-1644.9712371230959889
 20
244.399487338697611
 30
0.0
 40
5042.537077447313095
 50
359.9964652729373142
 51
0.0035347270627729
  0
ARC
  5
15FA2
  8
0
 10
3400.3612573241539394
 20
244.2022480431610916
 30
0.0
 40
2.797743954042144
 50
182.3321700514499071
 51
198.8972819082333956
  0
ARC
  5
15FA3
  8
0
 10
3398.4039214290651216
 20
243.5835474949201114
 30
0.0
 40
0.7471076676332521
 50
202.6250806995396943
 51
245.6403225832019928
  0
ARC
  5
15FA4
  8
0
 10
3398.4666705724312123
 20
243.883941830592704
 30
0.0
 40
1.048766507363919
 50
249.2888359689289075
 51
266.9763854580020848
  0
ARC
  5
15FA5
  8
0
 10
3398.5258278239698484
 20
244.3596814770806134
 30
0.0
 40
1.500849955396071
 50
90.7655081219752162
 51
100.7563634214343011
  0
ARC
  5
15FA6
  8
0
 10
3398.3328649059799318
 20
245.2190757359973929
 30
0.0
 40
0.6212279965949844
 50
98.064009007472265
 51
140.1907309574500005
  0
ARC
  5
15FA7
  8
0
 10
3398.902111756136037
 20
244.8106317654182931
 30
0.0
 40
1.320984750974241
 50
142.3899927801813874
 51
171.8748954130728919
  0
ARC
  5
15FA8
  8
0
 10
3400.739887500380064
 20
244.5562858822991927
 30
0.0
 40
3.176270506156579
 50
172.01829109514631
 51
177.8607238791329905
  0
ARC
  5
15FA9
  8
0
 10
3400.0933623600371902
 20
245.3746016102109877
 30
0.0
 40
0.5014904070339589
 50
91.1513998983855771
 51
98.7580047882145493
  0
ARC
  5
15FAA
  8
0
 10
3400.0264693592030198
 20
245.7880980449104982
 30
0.0
 40
0.0826901640308179
 50
96.5724439940373713
 51
119.0328739687227966
  0
ARC
  5
15FAB
  8
0
 10
3400.0911308645559075
 20
245.390503076145194
 30
0.0
 40
0.4823243417846449
 50
90.9251420845399139
 51
98.8335853219003297
  0
ARC
  5
15FAC
  8
0
 10
3400.0265273514319233
 20
245.7849596263727108
 30
0.0
 40
0.0826901640308179
 50
96.5724439940373713
 51
114.1754953298195971
  0
LINE
  5
15FAD
  8
0
 10
3411.2306290697938493
 20
225.3610730265282882
 30
0.0
 11
3411.288474809393847
 21
225.3032272869282906
 31
0.0
  0
ARC
  5
15FAE
  8
0
 10
3411.3452566882260726
 20
225.360009165759692
 30
0.0
 40
0.080301703140354
 50
224.9999999999918998
 51
268.6980647744550765
  0
ARC
  5
15FAF
  8
0
 10
3429.3533448829221015
 20
225.2836850352952069
 30
0.0
 40
0.6043505185082207
 50
133.5105193348611863
 51
180.3750500785727127
  0
ARC
  5
15FB0
  8
0
 10
3429.3082541204698828
 20
225.3311833165344069
 30
0.0
 40
0.5388580488718075
 50
44.8467622484395392
 51
133.5105193348611863
  0
ARC
  5
15FB1
  8
0
 10
3429.2320355192127863
 20
225.3070051397237137
 30
0.0
 40
0.6110450496654052
 50
357.4415583227416846
 51
41.4120749640463828
  0
LINE
  5
15FB2
  8
0
 10
3412.7687258844848657
 20
225.3610730265282882
 30
0.0
 11
3412.7108801448848681
 21
225.3032272869282906
 31
0.0
  0
ARC
  5
15FB3
  8
0
 10
3412.6540982660530972
 20
225.360009165759692
 30
0.0
 40
0.080301703140354
 50
271.3019352255449235
 51
315.0000000000080149
  0
ARC
  5
15FB4
  8
0
 10
3431.302265145077854
 20
234.7965561447090863
 30
0.0
 40
7.6033607343701268
 50
265.0012292325441763
 51
272.1240394050801115
  0
ARC
  5
15FB5
  8
0
 10
3431.5318444013028056
 20
227.0954693845554004
 30
0.0
 40
0.1154385701917855
 50
319.2162202626491876
 51
63.1024409291471002
  0
ARC
  5
15FB6
  8
0
 10
3431.3280673591998493
 20
234.6478444390781988
 30
0.0
 40
7.6333361111632181
 50
265.06733557437542
 51
272.1861620968127227
  0
ARC
  5
15FB7
  8
0
 10
3430.7140694667109528
 20
227.1428442996788988
 30
0.0
 40
0.1086597887611507
 50
133.153453768580107
 51
247.0588758844610879
  0
ARC
  5
15FB8
  8
0
 10
3431.5162624891831911
 20
227.1728190961846963
 30
0.0
 40
0.064105542047664
 50
298.2316479337169994
 51
23.2212446581059702
  0
ARC
  5
15FB9
  8
0
 10
3431.2644308213311888
 20
234.6185805297587876
 30
0.0
 40
7.5075451342466781
 50
264.9643100911671922
 51
272.1538539491861002
  0
ARC
  5
15FBA
  8
0
 10
3431.3493653884252126
 20
234.4919951094927058
 30
0.0
 40
7.6033607343701268
 50
265.0012292325441763
 51
272.1240394050801115
  0
ARC
  5
15FBB
  8
0
 10
3431.5789446446501643
 20
226.7909083493389915
 30
0.0
 40
0.1154385701917855
 50
319.2162202626491876
 51
63.1024409291471002
  0
ARC
  5
15FBC
  8
0
 10
3431.3751676025481174
 20
234.3432834038617045
 30
0.0
 40
7.6333361111632181
 50
265.06733557437542
 51
272.1861620968127227
  0
ARC
  5
15FBD
  8
0
 10
3430.761169710059221
 20
226.8382832644624045
 30
0.0
 40
0.1086597887611507
 50
133.153453768580107
 51
247.0588758844610879
  0
ARC
  5
15FBE
  8
0
 10
3431.5633627325300949
 20
226.8682580609682873
 30
0.0
 40
0.064105542047664
 50
298.2316479337169994
 51
23.2212446581059702
  0
ARC
  5
15FBF
  8
0
 10
3431.3115310646780927
 20
234.3140194945422934
 30
0.0
 40
7.5075451342466781
 50
264.9643100911671922
 51
272.1538539491861002
  0
ARC
  5
15FC0
  8
0
 10
3431.391483337768932
 20
234.196833358448913
 30
0.0
 40
7.6033607343701268
 50
265.0012292325441763
 51
272.1240394050801115
  0
ARC
  5
15FC1
  8
0
 10
3431.6210625939938836
 20
226.4957465982951987
 30
0.0
 40
0.1154385701917855
 50
319.2162202626491876
 51
63.1024409291471002
  0
ARC
  5
15FC2
  8
0
 10
3431.4172855518909273
 20
234.0481216528179971
 30
0.0
 40
7.6333361111632181
 50
265.06733557437542
 51
272.1861620968127227
  0
ARC
  5
15FC3
  8
0
 10
3430.8032876594029403
 20
226.5431215134186118
 30
0.0
 40
0.1086597887611507
 50
133.153453768580107
 51
247.0588758844610879
  0
ARC
  5
15FC4
  8
0
 10
3431.6054806818738143
 20
226.5730963099244946
 30
0.0
 40
0.064105542047664
 50
298.2316479337169994
 51
23.2212446581059702
  0
ARC
  5
15FC5
  8
0
 10
3431.353649014021812
 20
234.0188577434985859
 30
0.0
 40
7.5075451342466781
 50
264.9643100911671922
 51
272.1538539491861002
  0
ARC
  5
15FC6
  8
0
 10
3431.4268283527289896
 20
233.9111425401553106
 30
0.0
 40
7.6033607343701268
 50
265.0012292325441763
 51
272.1240394050801115
  0
ARC
  5
15FC7
  8
0
 10
3431.6564076089530317
 20
226.2100557800015963
 30
0.0
 40
0.1154385701917855
 50
319.2162202626491876
 51
63.1024409291471002
  0
ARC
  5
15FC8
  8
0
 10
3431.4526305668509849
 20
233.7624308345243094
 30
0.0
 40
7.6333361111632181
 50
265.06733557437542
 51
272.1861620968127227
  0
ARC
  5
15FC9
  8
0
 10
3430.8386326743620884
 20
226.2574306951250094
 30
0.0
 40
0.1086597887611507
 50
133.153453768580107
 51
247.0588758844610879
  0
ARC
  5
15FCA
  8
0
 10
3431.6408256968338719
 20
226.2874054916308069
 30
0.0
 40
0.064105542047664
 50
298.2316479337169994
 51
23.2212446581059702
  0
ARC
  5
15FCB
  8
0
 10
3431.3889940289818696
 20
233.7331669252050119
 30
0.0
 40
7.5075451342466781
 50
264.9643100911671922
 51
272.1538539491861002
  0
ARC
  5
15FCC
  8
0
 10
3431.4556895859441283
 20
233.6345423942069885
 30
0.0
 40
7.6033607343701268
 50
265.0012292325441763
 51
272.1240394050801115
  0
ARC
  5
15FCD
  8
0
 10
3431.68526884216908
 20
225.9334556340533027
 30
0.0
 40
0.1154385701917855
 50
319.2162202626491876
 51
63.1024409291471002
  0
ARC
  5
15FCE
  8
0
 10
3431.4814918000661237
 20
233.4858306885759873
 30
0.0
 40
7.6333361111632181
 50
265.06733557437542
 51
272.1861620968127227
  0
ARC
  5
15FCF
  8
0
 10
3430.8674939075772272
 20
225.9808305491766873
 30
0.0
 40
0.1086597887611507
 50
133.153453768580107
 51
247.0588758844610879
  0
ARC
  5
15FD0
  8
0
 10
3431.6696869300481012
 20
226.0108053456825985
 30
0.0
 40
0.064105542047664
 50
298.2316479337169994
 51
23.2212446581059702
  0
ARC
  5
15FD1
  8
0
 10
3431.4178552621970084
 20
233.4565667792566899
 30
0.0
 40
7.5075451342466781
 50
264.9643100911671922
 51
272.1538539491861002
  0
ARC
  5
15FD2
  8
0
 10
3431.4771023981447797
 20
233.368593443101787
 30
0.0
 40
7.6033607343701268
 50
265.0012292325441763
 51
272.1240394050801115
  0
ARC
  5
15FD3
  8
0
 10
3431.7066816543701862
 20
225.6675066829481011
 30
0.0
 40
0.1154385701917855
 50
319.2162202626491876
 51
63.1024409291471002
  0
ARC
  5
15FD4
  8
0
 10
3431.5029046122681393
 20
233.2198817374708995
 30
0.0
 40
7.6333361111632181
 50
265.06733557437542
 51
272.1861620968127227
  0
ARC
  5
15FD5
  8
0
 10
3430.8889067197787881
 20
225.7148815980715995
 30
0.0
 40
0.1086597887611507
 50
133.153453768580107
 51
247.0588758844610879
  0
ARC
  5
15FD6
  8
0
 10
3431.6910997422501168
 20
225.7448563945773969
 30
0.0
 40
0.064105542047664
 50
298.2316479337169994
 51
23.2212446581059702
  0
ARC
  5
15FD7
  8
0
 10
3431.439268074399024
 20
233.1906178281514883
 30
0.0
 40
7.5075451342466781
 50
264.9643100911671922
 51
272.1538539491861002
  0
LINE
  5
15FD8
  8
0
 10
3425.2353272056939204
 20
225.3610730265282882
 30
0.0
 11
3425.1383852537937855
 21
225.2797290704282887
 31
0.0
  0
LINE
  5
15FD9
  8
0
 10
3424.8004595217939823
 20
225.3610730265282882
 30
0.0
 11
3424.7035175698938474
 21
225.2797290704282887
 31
0.0
  0
LINE
  5
15FDA
  8
0
 10
3424.6116441155941175
 20
225.2797290704282887
 30
0.0
 11
3424.7085860674937976
 21
225.3610730265282882
 31
0.0
  0
LINE
  5
15FDB
  8
0
 10
3423.9862322131939436
 20
225.3610730265282882
 30
0.0
 11
3424.0544878967939439
 21
225.2797290704282887
 31
0.0
  0
LINE
  5
15FDC
  8
0
 10
3422.9282614049961921
 20
225.3610730265282882
 30
0.0
 11
3422.9512970913751815
 21
225.3025935299621949
 31
0.0
  0
ARC
  5
15FDD
  8
0
 10
3422.9696124263768979
 20
225.3098081323063013
 30
0.0
 40
0.0196850700585416
 50
201.5000000609215931
 51
291.4999105087342741
  0
LINE
  5
15FDE
  8
0
 10
3422.9768270000940902
 20
225.2914927860283001
 30
0.0
 11
3423.1534675403058827
 21
225.3610730265282882
 31
0.0
  0
LINE
  5
15FDF
  8
0
 10
3423.1813793517940212
 20
225.2797290704282887
 30
0.0
 11
3423.1813793517940212
 21
225.3610730265282882
 31
0.0
  0
LINE
  5
15FE0
  8
0
 10
3423.2010643910939507
 20
225.2797290704282887
 30
0.0
 11
3423.2010643910939507
 21
225.3610730265282882
 31
0.0
  0
ARC
  5
15FE1
  8
0
 10
3423.5204541548951056
 20
225.6932514763282995
 30
0.0
 40
0.4183070865999874
 50
232.570509405975713
 51
261.325762023081495
  0
LINE
  5
15FE2
  8
0
 10
3423.5446754532949853
 20
225.3610730265282882
 30
0.0
 11
3423.5446754258941837
 21
225.288547968128313
 31
0.0
  0
LINE
  5
15FE3
  8
0
 10
3423.5446754258941837
 20
225.288547968128313
 30
0.0
 11
3423.6627856620939383
 21
225.288547968128313
 31
0.0
  0
LINE
  5
15FE4
  8
0
 10
3423.6627856620939383
 20
225.288547968128313
 30
0.0
 11
3423.6627856620939383
 21
225.3610730265282882
 31
0.0
  0
LINE
  5
15FE5
  8
0
 10
3423.6857103050988371
 20
225.3610730265282882
 30
0.0
 11
3423.7539659887688686
 21
225.2797290704282887
 31
0.0
  0
LINE
  5
15FE6
  8
0
 10
3423.7539659887688686
 20
225.2797290704282887
 30
0.0
 11
3423.8511286270208984
 21
225.3610730265282882
 31
0.0
  0
ENDSEC
  0
EOF
