  0
SECTION
  2
HEADER
  9
$ACADVER
  1
AC1009
  9
$INSBASE
 10
3661.399977288529044
 20
99.8396179701009174
 30
0.0
  9
$EXTMIN
 10
3653.4221677728601207
 20
99.8331684670140618
 30
-0.0015258207003583
  9
$EXTMAX
 10
3669.3447441442099262
 20
130.7606087603934952
 30
0.0000000349246037
  9
$LIMMIN
 10
0.0
 20
0.0
  9
$LIMMAX
 10
11.6929133858000007
 20
8.2677165353999982
  9
$ORTHOMODE
 70
     0
  9
$REGENMODE
 70
     1
  9
$FILLMODE
 70
     1
  9
$QTEXTMODE
 70
     0
  9
$MIRRTEXT
 70
     0
  9
$DRAGMODE
 70
     2
  9
$LTSCALE
 40
0.6431102362
  9
$OSMODE
 70
  4095
  9
$ATTMODE
 70
     1
  9
$TEXTSIZE
 40
0.2
  9
$TRACEWID
 40
0.05
  9
$TEXTSTYLE
  7
STANDARD
  9
$CLAYER
  8
0
  9
$CELTYPE
  6
BYLAYER
  9
$CECOLOR
 62
   256
  9
$DIMSCALE
 40
1.0
  9
$DIMASZ
 40
0.1875
  9
$DIMEXO
 40
0.0625
  9
$DIMDLI
 40
0.4443307087
  9
$DIMRND
 40
0.0
  9
$DIMDLE
 40
0.0
  9
$DIMEXE
 40
0.125
  9
$DIMTP
 40
0.01
  9
$DIMTM
 40
0.01
  9
$DIMTXT
 40
2.0
  9
$DIMCEN
 40
0.1052362205
  9
$DIMTSZ
 40
0.0
  9
$DIMTOL
 70
     1
  9
$DIMLIM
 70
     0
  9
$DIMTIH
 70
     1
  9
$DIMTOH
 70
     1
  9
$DIMSE1
 70
     0
  9
$DIMSE2
 70
     0
  9
$DIMTAD
 70
     0
  9
$DIMZIN
 70
     0
  9
$DIMBLK
  1

  9
$DIMASO
 70
     1
  9
$DIMSHO
 70
     1
  9
$DIMPOST
  1
\X
  9
$DIMAPOST
  1

  9
$DIMALT
 70
     1
  9
$DIMALTD
 70
     2
  9
$DIMALTF
 40
25.3999999999999986
  9
$DIMLFAC
 40
1.0
  9
$DIMTOFL
 70
     0
  9
$DIMTVP
 40
0.0
  9
$DIMTIX
 70
     0
  9
$DIMSOXD
 70
     0
  9
$DIMSAH
 70
     0
  9
$DIMBLK1
  1

  9
$DIMBLK2
  1

  9
$DIMSTYLE
  2
STANDARD
  9
$DIMCLRD
 70
     0
  9
$DIMCLRE
 70
     0
  9
$DIMCLRT
 70
     0
  9
$DIMTFAC
 40
1.0
  9
$DIMGAP
 40
0.09
  9
$LUNITS
 70
     2
  9
$LUPREC
 70
     4
  9
$SKETCHINC
 40
0.1
  9
$FILLETRAD
 40
0.0
  9
$AUNITS
 70
     0
  9
$AUPREC
 70
     0
  9
$MENU
  1
.
  9
$ELEVATION
 40
0.0
  9
$PELEVATION
 40
0.0
  9
$THICKNESS
 40
0.0
  9
$LIMCHECK
 70
     0
  9
$BLIPMODE
 70
     0
  9
$CHAMFERA
 40
0.0
  9
$CHAMFERB
 40
0.0
  9
$SKPOLY
 70
     0
  9
$TDCREATE
 40
2458060.468368056230247
  9
$TDUPDATE
 40
2459426.4548842590302229
  9
$TDINDWG
 40
0.4058056713
  9
$TDUSRTIMER
 40
0.4058056713
  9
$USRTIMER
 70
     1
  9
$ANGBASE
 50
0.0
  9
$ANGDIR
 70
     0
  9
$PDMODE
 70
     0
  9
$PDSIZE
 40
0.3125
  9
$PLINEWID
 40
0.0
  9
$COORDS
 70
     1
  9
$SPLFRAME
 70
     0
  9
$SPLINETYPE
 70
     6
  9
$SPLINESEGS
 70
     8
  9
$ATTDIA
 70
     1
  9
$ATTREQ
 70
     1
  9
$HANDLING
 70
     1
  9
$HANDSEED
  5
16D56
  9
$SURFTAB1
 70
     6
  9
$SURFTAB2
 70
     6
  9
$SURFTYPE
 70
     6
  9
$SURFU
 70
     6
  9
$SURFV
 70
     6
  9
$UCSNAME
  2

  9
$UCSORG
 10
0.0
 20
0.0
 30
0.0
  9
$UCSXDIR
 10
1.0
 20
0.0
 30
0.0
  9
$UCSYDIR
 10
0.0
 20
1.0
 30
0.0
  9
$PUCSNAME
  2

  9
$PUCSORG
 10
0.0
 20
0.0
 30
0.0
  9
$PUCSXDIR
 10
1.0
 20
0.0
 30
0.0
  9
$PUCSYDIR
 10
0.0
 20
1.0
 30
0.0
  9
$USERI1
 70
     0
  9
$USERI2
 70
     0
  9
$USERI3
 70
     0
  9
$USERI4
 70
     0
  9
$USERI5
 70
     0
  9
$USERR1
 40
0.0
  9
$USERR2
 40
0.0
  9
$USERR3
 40
0.0
  9
$USERR4
 40
0.0
  9
$USERR5
 40
0.0
  9
$WORLDVIEW
 70
     1
  9
$SHADEDGE
 70
     3
  9
$SHADEDIF
 70
    70
  9
$TILEMODE
 70
     1
  9
$MAXACTVP
 70
    64
  9
$PLIMCHECK
 70
     0
  9
$PEXTMIN
 10
1.0000000000000000E+20
 20
1.0000000000000000E+20
 30
1.0000000000000000E+20
  9
$PEXTMAX
 10
-1.0000000000000000E+20
 20
-1.0000000000000000E+20
 30
-1.0000000000000000E+20
  9
$PLIMMIN
 10
0.0
 20
0.0
  9
$PLIMMAX
 10
12.0
 20
9.0
  9
$UNITMODE
 70
     0
  9
$VISRETAIN
 70
     1
  9
$PLINEGEN
 70
     0
  9
$PSLTSCALE
 70
     1
  0
ENDSEC
  0
SECTION
  2
TABLES
  0
TABLE
  2
VPORT
 70
     1
  0
VPORT
  2
*ACTIVE
 70
     0
 10
0.0
 20
0.0
 11
1.0
 21
1.0
 12
-603.6228916977152039
 22
10.9928763151197906
 13
0.0
 23
0.0
 14
1.0
 24
1.0
 15
0.0
 25
0.0
 16
0.0
 26
0.0
 36
122.0237731519760018
 17
4265.00634765625
 27
104.3040122985839986
 37
0.0
 40
31.171283449437631
 41
2.5092105263157891
 42
50.0
 43
0.0
 44
0.0
 50
0.0
 51
0.0
 71
     0
 72
   100
 73
     1
 74
     1
 75
     0
 76
     0
 77
     0
 78
     0
  0
ENDTAB
  0
TABLE
  2
LTYPE
 70
     2
  0
LTYPE
  2
CONTINUOUS
 70
     0
  3
Solid line
 72
    65
 73
     0
 40
0.0
  0
LTYPE
  2
PHANTOM2
 70
     0
  3
___ _ _ ___ _ _ ___ _ _ ___ _ _
 72
    65
 73
     6
 40
1.25
 49
0.625
 49
-0.125
 49
0.125
 49
-0.125
 49
0.125
 49
-0.125
  0
ENDTAB
  0
TABLE
  2
LAYER
 70
     2
  0
LAYER
  2
0
 70
     0
 62
   255
  6
CONTINUOUS
  0
LAYER
  2
DEFPOINTS
 70
     0
 62
     7
  6
CONTINUOUS
  0
ENDTAB
  0
TABLE
  2
STYLE
 70
     1
  0
STYLE
  2
STANDARD
 70
     0
 40
0.0
 41
0.8
 50
0.0
 71
     0
 42
0.2
  3
txt
  4

  0
ENDTAB
  0
TABLE
  2
VIEW
 70
     0
  0
ENDTAB
  0
TABLE
  2
UCS
 70
     0
  0
ENDTAB
  0
TABLE
  2
APPID
 70
     9
  0
APPID
  2
ACAD
 70
     0
  0
APPID
  2
ACAD_MLEADERVER
 70
     0
  0
APPID
  2
ACAD_EXEMPT_FROM_CAD_STANDARDS
 70
     0
  0
APPID
  2
ACAD_NAV_VCDISPLAY
 70
     0
  0
APPID
  2
ACAECLAYERSTANDARD
 70
     0
  0
APPID
  2
ACCMTRANSPARENCY
 70
     0
  0
APPID
  2
ACAD_DSTYLE_DIMJAG
 70
     0
  0
APPID
  2
ACAD_DSTYLE_DIMTALN
 70
     0
  0
APPID
  2
ACDBATTR
 70
     0
  0
ENDTAB
  0
TABLE
  2
DIMSTYLE
 70
     1
  0
DIMSTYLE
  2
STANDARD
 70
     0
  3

  4

  5

  6

  7

 40
1.0
 41
0.1875
 42
0.0625
 43
0.38
 44
0.125
 45
0.0
 46
0.0
 47
0.01
 48
0.01
140
0.15625
141
0.09
142
0.0
143
25.3999999999999986
144
1.0
145
0.0
146
1.0
147
0.09
 71
     1
 72
     0
 73
     1
 74
     1
 75
     0
 76
     0
 77
     0
 78
     4
170
     0
171
     2
172
     0
173
     0
174
     0
175
     0
176
     0
177
     0
178
     0
  0
ENDTAB
  0
ENDSEC
  0
SECTION
  2
BLOCKS
  0
BLOCK
  8
0
  2
$MODEL_SPACE
 70
     0
 10
0.0
 20
0.0
 30
0.0
  3
$MODEL_SPACE
  1

  0
ENDBLK
  5
21
  8
0
  0
BLOCK
 67
     1
  8
0
  2
$PAPER_SPACE
 70
     0
 10
0.0
 20
0.0
 30
0.0
  3
$PAPER_SPACE
  1

  0
ENDBLK
  5
1D
 67
     1
  8
0
  0
BLOCK
  8
0
  2
_FILLED
 70
     0
 10
0.0
 20
0.0
 30
0.0
  3
_FILLED
  1

  0
SOLID
  5
10F92
  8
0
  6
BYBLOCK
 62
     0
 10
0.0
 20
0.0
 30
0.0
 11
-1.0
 21
0.1666666667
 31
0.0
 12
-1.0
 22
-0.1666666667
 32
0.0
 13
-1.0
 23
-0.1666666667
 33
0.0
  0
ENDBLK
  5
10F93
  8
0
  6
BYBLOCK
 62
     0
  0
ENDSEC
  0
SECTION
  2
ENTITIES
  0
ATTDEF
  5
16671
  8
DEFPOINTS
 10
3661.4007129877468287
 20
99.8443562721641626
 30
0.0
 40
0.001
  1
K-77787H-TF
  3

  2
MODELNUMBER
 70
     0
1001
ACDBATTR
1070
     0
1070
     1
  0
ATTDEF
  5
16672
  8
DEFPOINTS
 10
3661.4007129877468287
 20
99.8426896054974975
 30
0.0
 40
0.001
  1
MODERNLIFE
  3

  2
TRADENAME
 70
     0
1001
ACDBATTR
1070
     0
1070
     1
  0
ATTDEF
  5
16673
  8
DEFPOINTS
 10
3661.4007129877468287
 20
99.8410229388308323
 30
0.0
 40
0.001
  1
TOILET
  3

  2
PRODUCT
 70
     0
1001
ACDBATTR
1070
     0
1070
     1
  0
LINE
  5
16B2B
  8
0
 10
3656.4411990999678892
 20
99.8396179701009174
 30
0.0
 11
3666.3587554770901988
 21
99.8396179701009174
 31
0.0
  0
LINE
  5
16B2C
  8
0
 10
3653.7548830294981599
 20
130.7569544776009138
 30
0.0
 11
3669.0450715475599281
 21
130.7569544776009138
 31
0.0
  0
LINE
  5
16B2D
  8
0
 10
3653.7531246634362105
 20
130.4616788850009073
 30
0.0
 11
3669.0468299136218775
 21
130.4616788850009073
 31
0.0
  0
LINE
  5
16B2E
  8
0
 10
3653.7777448442088826
 20
130.2253820771501864
 30
0.0
 11
3669.0222097328478412
 21
130.2253820771501864
 31
0.0
  0
LINE
  5
16B2F
  8
0
 10
3654.2681722078018538
 20
117.3747232218411938
 30
0.0
 11
3668.5317823692557795
 21
117.3747232218411938
 31
0.0
  0
LINE
  5
16B30
  8
0
 10
3654.3976255090578888
 20
117.2337930448009047
 30
0.0
 11
3668.4023290680001992
 21
117.2337930448009047
 31
0.0
  0
LINE
  5
16B31
  8
0
 10
3654.3914366440508275
 20
116.5721733448009019
 30
0.0
 11
3655.6147380188740499
 21
116.5721733448009019
 31
0.0
  0
ARC
  5
16B32
  8
0
 10
3653.7621332531739426
 20
130.6374681103839919
 30
0.0
 40
0.1197061305616791
 50
93.472350258721761
 51
155.6508803902997045
  0
ARC
  5
16B33
  8
0
 10
3653.7597331660931559
 20
130.6384665310407058
 30
0.0
 40
0.1171079137473185
 50
155.6117722074446874
 51
179.815202424813009
  0
ARC
  5
16B34
  8
0
 10
3653.7615968483460165
 20
130.5803491484732888
 30
0.0
 40
0.1189723049695504
 50
180.2697040449857866
 51
265.9164307680993034
  0
ARC
  5
16B35
  8
0
 10
3654.020688143516054
 20
130.3822981977710072
 30
0.0
 40
0.0799243605453465
 50
96.6867262925897819
 51
174.6353676457154904
  0
ARC
  5
16B36
  8
0
 10
3658.0505886041501071
 20
130.0038701135536883
 30
0.0
 40
4.1275539801551204
 50
174.6353676457154904
 51
175.4240769471317094
  0
ARC
  5
16B37
  8
0
 10
3653.8192705575547734
 20
130.3425243371048055
 30
0.0
 40
0.1172945559620964
 50
272.8361570866177885
 51
355.4240769471317094
  0
ARC
  5
16B38
  8
0
 10
3653.7802076837551795
 20
130.147148691768507
 30
0.0
 40
0.0782721417038803
 50
91.8031141512428377
 51
182.7696155804495106
  0
ARC
  5
16B39
  8
0
 10
102915.4368580992013449
 20
4189.8300656292831263
 30
0.0
 40
99344.7183184872701531
 50
182.3420238604541908
 51
182.3493614951597124
  0
ARC
  5
16B3A
  8
0
 10
3654.2832997270088526
 20
117.4333897187154037
 30
0.0
 40
0.0605854742728177
 50
181.9217697751662968
 51
255.5408975306727939
  0
ARC
  5
16B3B
  8
0
 10
3654.4611067555861155
 20
117.249548400128603
 30
0.0
 40
0.1261080993045977
 50
96.9749134974023832
 51
147.3618549304235046
  0
ARC
  5
16B3C
  8
0
 10
3654.44540146611007
 20
117.2596070903671972
 30
0.0
 40
0.1074578079701716
 50
147.3618549304235046
 51
180.5815983619235965
  0
ARC
  5
16B3D
  8
0
 10
3685.1969430034491779
 20
115.8714228697776036
 30
0.0
 40
30.8901525922289686
 50
177.4263211139565044
 51
177.5290956586725031
  0
ARC
  5
16B3E
  8
0
 10
3654.3981297355658171
 20
117.1544778156120969
 30
0.0
 40
0.0793168319188478
 50
90.3642385195530551
 51
142.13688081641331
  0
ARC
  5
16B3F
  8
0
 10
3654.3978878191710464
 20
117.1546658924225
 30
0.0
 40
0.0790104066769812
 50
142.1368808164125994
 51
178.7224948559791926
  0
ARC
  5
16B40
  8
0
 10
3683.1694419575737811
 20
116.513049688165907
 30
0.0
 40
28.8577177941289094
 50
178.7224948559791926
 51
179.354092470164602
  0
ARC
  5
16B41
  8
0
 10
3654.3881424558658182
 20
116.8375211548694068
 30
0.0
 40
0.0745893550649374
 50
179.354092470164602
 51
264.0284316390872732
  0
ARC
  5
16B42
  8
0
 10
3655.7130898846780838
 20
784.6207926109926802
 30
0.0
 40
667.8587857678841146
 50
269.885666614663478
 51
269.905264588208297
  0
ARC
  5
16B43
  8
0
 10
3653.4232450903291465
 20
103.7885413951131994
 30
0.0
 40
13.0284338432938291
 50
83.030636534228023
 51
84.778904562369874
  0
ARC
  5
16B44
  8
0
 10
3676.5415963114151054
 20
129.2845316961914932
 30
0.0
 40
24.9341829517455409
 50
210.2569930274470948
 51
210.6033801193916872
  0
ARC
  5
16B45
  8
0
 10
3655.1344091700029821
 20
116.6173104907470019
 30
0.0
 40
0.0601527107938383
 50
206.2200832660913079
 51
228.6229520897782947
  0
ARC
  5
16B46
  8
0
 10
3656.0858233337539787
 20
-223.718838717015899
 30
0.0
 40
340.4783480813380265
 50
89.7661009197267248
 51
90.2372206168790711
  0
ARC
  5
16B47
  8
0
 10
3659.6475683404369192
 20
648.759251846175971
 30
0.0
 40
532.0070125639199432
 50
269.7661009197266822
 51
270.1887302533835964
  0
LINE
  5
16B48
  8
0
 10
3657.6597880692579565
 20
116.7559528462727059
 30
0.0
 11
3657.6598002674641066
 21
116.5721733448009019
 31
0.0
  0
LINE
  5
16B49
  8
0
 10
3657.6429768702978436
 20
116.7560159253550012
 30
0.0
 11
3657.6410957407438218
 21
116.5721733448009019
 31
0.0
  0
LINE
  5
16B4A
  8
0
 10
3657.6597880692579565
 20
116.6422576117008987
 30
0.0
 11
3657.6418128628888553
 21
116.6422576117008987
 31
0.0
  0
ARC
  5
16B4B
  8
0
 10
3655.6150612768678911
 20
116.5993373572026002
 30
0.0
 40
0.0271659357558344
 50
269.3181992333322228
 51
325.1366938041759909
  0
ARC
  5
16B4C
  8
0
 10
3656.7810629109758338
 20
115.8809753717062989
 30
0.0
 40
1.342404832729853
 50
144.5442530372843919
 51
148.4284507049137005
  0
ARC
  5
16B4D
  8
0
 10
3656.2894372797782125
 20
116.2368054225043039
 30
0.0
 40
0.6523556679156006
 50
126.7573026354392027
 51
136.0386436871818887
  0
ARC
  5
16B4E
  8
0
 10
3655.7515542563878626
 20
116.7660865473476974
 30
0.0
 40
0.1025114979128289
 50
280.2817416700713125
 51
311.7886432610565066
  0
ARC
  5
16B4F
  8
0
 10
3655.6989167167839696
 20
117.1040594262452004
 30
0.0
 40
0.4445342879048738
 50
268.5397601692367857
 51
279.1819833590396911
  0
ARC
  5
16B50
  8
0
 10
3654.4112174137549118
 20
116.4784768869023992
 30
0.0
 40
0.0957617098469305
 50
101.9209764341798063
 51
174.812167506879689
  0
ARC
  5
16B51
  8
0
 10
3643.5875855853219036
 20
116.7793510535753967
 30
0.0
 40
10.7334450009393407
 50
358.5143999437083266
 51
0.1370949121299866
  0
LINE
  5
16B52
  8
0
 10
3657.1254270373310646
 20
116.7579222173191056
 30
0.0
 11
3657.1273660607430429
 21
116.5743517290678994
 31
0.0
  0
LINE
  5
16B53
  8
0
 10
3657.1054148570710822
 20
116.7579827339050951
 30
0.0
 11
3657.1075951180578159
 21
116.5764847858009006
 31
0.0
  0
ARC
  5
16B54
  8
0
 10
3657.1595358250178833
 20
116.9652211352277931
 30
0.0
 40
0.3921910075528266
 50
262.3895442922956818
 51
265.2949841534634174
  0
ARC
  5
16B55
  8
0
 10
3657.1994471806501679
 20
117.7652305410812943
 30
0.0
 40
1.193058268798969
 50
266.5362457681441128
 51
269.9231738210503977
  0
LINE
  5
16B56
  8
0
 10
3657.1978474453571835
 20
116.5721733448009019
 30
0.0
 11
3667.1858382005511885
 21
116.5721733448009019
 31
0.0
  0
ARC
  5
16B57
  8
0
 10
3566.6932649433711049
 20
502.610070442559504
 30
0.0
 40
396.0920872490896727
 50
282.9823090013697993
 51
283.0575542516187966
  0
LINE
  5
16B58
  8
0
 10
3657.1067258802568176
 20
116.6422576117008987
 30
0.0
 11
3657.1266487826151206
 21
116.6422576117008987
 31
0.0
  0
ARC
  5
16B59
  8
0
 10
3660.987634183451064
 20
-625.791663032255542
 30
0.0
 40
741.7728746356964393
 50
89.9681523843294144
 51
90.3388382296328842
  0
ARC
  5
16B5A
  8
0
 10
3659.6882063133589327
 20
-406.0677408778739732
 30
0.0
 40
522.0451101640794604
 50
90.3388382296328842
 51
90.5419455424710833
  0
ARC
  5
16B5B
  8
0
 10
3654.7013752603998
 20
121.1362473644273052
 30
0.0
 40
5.1824628084834474
 50
268.905080536516607
 51
270.5419455424711259
  0
ARC
  5
16B5C
  8
0
 10
3720.7313163542039547
 20
115.0465416013429945
 30
0.0
 40
66.4310902906523921
 50
178.7574125936870075
 51
179.6328955890712962
  0
ARC
  5
16B5D
  8
0
 10
3607.9135839071441296
 20
118.6820481308272974
 30
0.0
 40
46.4989286086512408
 50
355.4793437809810257
 51
356.0416597378120969
  0
ARC
  5
16B5E
  8
0
 10
3656.9045446163299857
 20
114.7543212688356959
 30
0.0
 40
2.6497505367652039
 50
174.3091576812504968
 51
204.0267288224058007
  0
ARC
  5
16B5F
  8
0
 10
3654.7994924540012107
 20
115.7694624299844008
 30
0.0
 40
0.500893976072592
 50
139.9587562930217075
 51
171.6435576796642124
  0
ARC
  5
16B60
  8
0
 10
3657.0965363889858963
 20
121.3648664985405929
 30
0.0
 40
5.909120789939962
 50
244.2301560698550134
 51
246.3067546115254913
  0
ARC
  5
16B61
  8
0
 10
3653.8839560874421295
 20
114.7103890365887935
 30
0.0
 40
1.4802460628756999
 50
64.2301560698549707
 51
68.9341276501607325
  0
ARC
  5
16B62
  8
0
 10
3654.5944678360251601
 20
116.5549938812399944
 30
0.0
 40
0.4964668595753938
 50
241.3637110800804919
 51
248.9341276501606899
  0
ARC
  5
16B63
  8
0
 10
3654.3996131969338421
 20
116.1981431466649042
 30
0.0
 40
0.0898825790847173
 50
179.8530081827778133
 51
241.3637110800804919
  0
ARC
  5
16B64
  8
0
 10
3591.3163388532261706
 20
68.1069090236458408
 30
0.0
 40
79.6312864791240855
 50
36.933199115737871
 51
36.9838874588769286
  0
ARC
  5
16B65
  8
0
 10
3655.0125233818512243
 20
116.2201202982058987
 30
0.0
 40
0.2250156406292253
 50
238.2722688792877079
 51
247.4373259111362984
  0
ARC
  5
16B66
  8
0
 10
3654.904911167877799
 20
116.0470884188399054
 30
0.0
 40
0.0212574954607167
 50
182.9187997122554918
 51
239.7162994378784902
  0
ARC
  5
16B67
  8
0
 10
3654.9349938911509525
 20
116.0192516082579033
 30
0.0
 40
0.0578686723741524
 50
113.4663950974615005
 51
152.4625039697303919
  0
ARC
  5
16B68
  8
0
 10
3655.0152167116548299
 20
115.8291750594716945
 30
0.0
 40
0.2641786983283824
 50
94.2598303038746934
 51
113.0103506260947057
  0
ARC
  5
16B69
  8
0
 10
3654.972144752990971
 20
113.7533339004344981
 30
0.0
 40
2.3394075739180571
 50
83.4263186069976115
 51
89.4256905002198437
  0
ARC
  5
16B6A
  8
0
 10
3654.3489067974610407
 20
107.8952529383685999
 30
0.0
 40
8.2304842415644117
 50
81.7156661041480135
 51
83.7848165780953877
  0
ARC
  5
16B6B
  8
0
 10
3655.472149132739105
 20
115.6351041709944951
 30
0.0
 40
0.4095700796978686
 50
66.0251888607294433
 51
81.2008794888478889
  0
ARC
  5
16B6C
  8
0
 10
3655.5527510982010426
 20
115.8973514917720991
 30
0.0
 40
0.1410894247248605
 50
27.2568931544539907
 51
52.5353690854028628
  0
ARC
  5
16B6D
  8
0
 10
3654.9940271801938252
 20
115.6608240906898004
 30
0.0
 40
0.4318027030117195
 50
89.7921482023752731
 51
101.2334731308458942
  0
ARC
  5
16B6E
  8
0
 10
3654.9214554052327912
 20
116.0262178416885064
 30
0.0
 40
0.0592718240367266
 50
101.2334731308458942
 51
129.3089559598188032
  0
LINE
  5
16B6F
  8
0
 10
3654.883906596558063
 20
116.0720788937009047
 30
0.0
 11
3654.8836812497020219
 21
116.0460059736932976
 31
0.0
  0
ARC
  5
16B70
  8
0
 10
3657.2269213065551412
 20
114.9868532874621962
 30
0.0
 40
1.6567488007807769
 50
136.9097919613409999
 51
143.8769407622800998
  0
ARC
  5
16B71
  8
0
 10
3657.6810779391958022
 20
122.1756060158123063
 30
0.0
 40
6.2813731187803166
 50
254.6379503357345868
 51
261.1563635138375048
  0
LINE
  5
16B72
  8
0
 10
3668.4423235677149933
 20
116.1186595367474013
 30
0.0
 11
3654.3575705599378125
 21
116.1186595367474013
 31
0.0
  0
ARC
  5
16B73
  8
0
 10
3654.5912157600992032
 20
115.6341718649101011
 30
0.0
 40
0.3207520791297453
 50
88.0116468313958222
 51
141.0749737349142094
  0
ARC
  5
16B74
  8
0
 10
3654.4795163988419517
 20
115.7243329045366949
 30
0.0
 40
0.1772050217571139
 50
141.062505755026308
 51
177.2691234372132101
  0
ARC
  5
16B75
  8
0
 10
3656.4534780038388817
 20
99.9547932099318075
 30
0.0
 40
0.1158279212899828
 50
177.4377877226989995
 51
263.9146469058342177
  0
ARC
  5
16B76
  8
0
 10
3117.1155596812718613
 20
124.0895576740965964
 30
0.0
 40
539.7618221034721273
 50
357.43778772269809
 51
358.0077356863549767
  0
ARC
  5
16B77
  8
0
 10
3639.0062168730401027
 20
105.9352820539853042
 30
0.0
 40
17.5555067573768184
 50
358.0077356863549767
 51
7.4414398421536188
  0
ARC
  5
16B78
  8
0
 10
3642.4121021183441371
 20
105.2493664200108014
 30
0.0
 40
14.3111326598267503
 50
11.9350379882536792
 51
22.6630451848644583
  0
ARC
  5
16B79
  8
0
 10
3514.6001229277349012
 20
58.0006934018463198
 30
0.0
 40
150.5565773281153952
 50
21.119085087598009
 51
21.7028433079864485
  0
ARC
  5
16B7A
  8
0
 10
5298.9399470836096953
 20
747.2030727675412436
 30
0.0
 40
1762.2603317857578986
 50
201.1190850875979947
 51
201.1708086819681967
  0
ARC
  5
16B7B
  8
0
 10
3654.0717178454801797
 20
113.9309294810789055
 30
0.0
 40
2.260719356678301
 50
68.9226969289713338
 51
75.4011263684471942
  0
LINE
  5
16B7C
  8
0
 10
3653.6426258614651488
 20
130.638844241600907
 30
0.0
 11
3653.6426258614651488
 21
130.5797891213009052
 31
0.0
  0
ARC
  5
16B7D
  8
0
 10
3669.0378213238827811
 20
130.6374681103839919
 30
0.0
 40
0.1197061305616791
 50
24.3491196097002813
 51
86.5276497412782533
  0
ARC
  5
16B7E
  8
0
 10
3669.0402214109649321
 20
130.6384665310407058
 30
0.0
 40
0.1171079137473185
 50
0.1847975751870184
 51
24.3882277925552913
  0
ARC
  5
16B7F
  8
0
 10
3669.0383577287120715
 20
130.5803491484732888
 30
0.0
 40
0.1189723049695504
 50
274.0835692319006966
 51
359.730295955014185
  0
ARC
  5
16B80
  8
0
 10
3668.7792664335411246
 20
130.3822981977710072
 30
0.0
 40
0.0799243605453465
 50
5.3646323542844714
 51
83.3132737074102039
  0
ARC
  5
16B81
  8
0
 10
3664.7493659729079809
 20
130.0038701135536883
 30
0.0
 40
4.1275539801551204
 50
4.5759230528682844
 51
5.3646323542844714
  0
ARC
  5
16B82
  8
0
 10
3668.9806840195042241
 20
130.3425243371048055
 30
0.0
 40
0.1172945559620964
 50
184.5759230528682906
 51
267.1638429133820978
  0
ARC
  5
16B83
  8
0
 10
3669.0197468933029086
 20
130.147148691768507
 30
0.0
 40
0.0782721417038803
 50
357.2303844195504894
 51
88.1968858487571623
  0
ARC
  5
16B84
  8
0
 10
-95592.6369035221432569
 20
4189.8300656292831263
 30
0.0
 40
99344.7183184872701531
 50
357.6506385048393781
 51
357.657976139545724
  0
ARC
  5
16B85
  8
0
 10
3668.5166548500478712
 20
117.4333897187154037
 30
0.0
 40
0.0605854742728177
 50
284.4591024693272061
 51
358.0782302248337032
  0
ARC
  5
16B86
  8
0
 10
3668.3388478214710631
 20
117.249548400128603
 30
0.0
 40
0.1261080993045977
 50
32.6381450695764883
 51
83.025086502597631
  0
ARC
  5
16B87
  8
0
 10
3668.354553110948018
 20
117.2596070903671972
 30
0.0
 40
0.1074578079701716
 50
359.4184016380764888
 51
32.6381450695764883
  0
ARC
  5
16B88
  8
0
 10
3637.6030115736089101
 20
115.8714228697776036
 30
0.0
 40
30.8901525922289686
 50
2.4709043413274618
 51
2.5736788860442918
  0
ARC
  5
16B89
  8
0
 10
3668.4018248414918162
 20
117.1544778156120969
 30
0.0
 40
0.0793168319188478
 50
37.8631191835867114
 51
89.6357614804469165
  0
ARC
  5
16B8A
  8
0
 10
3668.4020667578870416
 20
117.1546658924225
 30
0.0
 40
0.0790104066769812
 50
1.2775051440207981
 51
37.863119183587358
  0
ARC
  5
16B8B
  8
0
 10
3639.6305126194852164
 20
116.513049688165907
 30
0.0
 40
28.8577177941289094
 50
0.6459075298354305
 51
1.2775051440207981
  0
ARC
  5
16B8C
  8
0
 10
3661.812320393607024
 20
-625.791663032255542
 30
0.0
 40
741.7728746356964393
 50
89.6611617703671158
 51
90.0318476156705714
  0
ARC
  5
16B8D
  8
0
 10
3663.1117482636977911
 20
-406.0677408778739732
 30
0.0
 40
522.0451101640794604
 50
89.4580544575289167
 51
89.6611617703671158
  0
ARC
  5
16B8E
  8
0
 10
3668.0985793166578333
 20
121.1362473644273052
 30
0.0
 40
5.1824628084834474
 50
269.4580544575288741
 51
271.0949194634835067
  0
ARC
  5
16B8F
  8
0
 10
3602.0686382228532239
 20
115.0465416013429945
 30
0.0
 40
66.4310902906523921
 50
0.3671044109286292
 51
1.2425874063129381
  0
ARC
  5
16B90
  8
0
 10
3714.8863706699130489
 20
118.6820481308272974
 30
0.0
 40
46.4989286086512408
 50
183.9583402621877894
 51
184.5206562190190027
  0
ARC
  5
16B91
  8
0
 10
3665.8954099607281023
 20
114.7543212688356959
 30
0.0
 40
2.6497505367652039
 50
335.9732711775940857
 51
5.6908423187495281
  0
ARC
  5
16B92
  8
0
 10
3668.0004621230568773
 20
115.7694624299844008
 30
0.0
 40
0.500893976072592
 50
8.3564423203358
 51
40.0412437069782925
  0
ARC
  5
16B93
  8
0
 10
3665.7034181880721917
 20
121.3648664985405929
 30
0.0
 40
5.909120789939962
 50
293.6932453884745087
 51
295.7698439301449866
  0
ARC
  5
16B94
  8
0
 10
3668.9159984896159585
 20
114.7103890365887935
 30
0.0
 40
1.4802460628756999
 50
111.0658723498391964
 51
115.7698439301450009
  0
ARC
  5
16B95
  8
0
 10
3668.2054867410320185
 20
116.5549938812399944
 30
0.0
 40
0.4964668595753938
 50
291.0658723498393101
 51
298.6362889199194228
  0
ARC
  5
16B96
  8
0
 10
3668.4003413801237912
 20
116.1981431466649042
 30
0.0
 40
0.0898825790847173
 50
298.6362889199194228
 51
0.1469918172221474
  0
ARC
  5
16B97
  8
0
 10
3731.4836157238319174
 20
68.1069090236458408
 30
0.0
 40
79.6312864791240855
 50
143.0161125411229932
 51
143.0668008842621077
  0
ARC
  5
16B98
  8
0
 10
3667.7874311952059543
 20
116.2201202982058987
 30
0.0
 40
0.2250156406292253
 50
292.5626740888636164
 51
301.7277311207124058
  0
ARC
  5
16B99
  8
0
 10
3667.8950434091798343
 20
116.0470884188399054
 30
0.0
 40
0.0212574954607167
 50
300.2837005621215098
 51
357.0812002877444797
  0
ARC
  5
16B9A
  8
0
 10
3667.8649606859071355
 20
116.0192516082579033
 30
0.0
 40
0.0578686723741524
 50
27.5374960302695584
 51
66.5336049025384852
  0
ARC
  5
16B9B
  8
0
 10
3667.7847378654018939
 20
115.8291750594716945
 30
0.0
 40
0.2641786983283824
 50
66.9896493739052517
 51
85.7401696961253208
  0
ARC
  5
16B9C
  8
0
 10
3667.8278098240680265
 20
113.7533339004344981
 30
0.0
 40
2.3394075739180571
 50
90.5743094997801421
 51
96.5736813930024027
  0
ARC
  5
16B9D
  8
0
 10
3668.4510477795961378
 20
107.8952529383685999
 30
0.0
 40
8.2304842415644117
 50
96.2151834219046265
 51
98.2843338958520008
  0
ARC
  5
16B9E
  8
0
 10
3667.3278054443180736
 20
115.6351041709944951
 30
0.0
 40
0.4095700796978686
 50
98.7991205111521253
 51
113.9748111392704999
  0
ARC
  5
16B9F
  8
0
 10
3667.2472034788570454
 20
115.8973514917720991
 30
0.0
 40
0.1410894247248605
 50
127.4646309145970946
 51
152.7431068455460093
  0
ARC
  5
16BA0
  8
0
 10
3667.8059273968638081
 20
115.6608240906898004
 30
0.0
 40
0.4318027030117195
 50
78.7665268691540916
 51
90.2078517976247127
  0
ARC
  5
16BA1
  8
0
 10
3667.8784991718248421
 20
116.0262178416885064
 30
0.0
 40
0.0592718240367266
 50
50.6910440401811684
 51
78.7665268691540916
  0
LINE
  5
16BA2
  8
0
 10
3667.916047980500025
 20
116.0720788937009047
 30
0.0
 11
3667.9162733273560661
 21
116.0460059736932976
 31
0.0
  0
ARC
  5
16BA3
  8
0
 10
3665.5730332705029468
 20
114.9868532874621962
 30
0.0
 40
1.6567488007807769
 50
36.1230592377199073
 51
43.0902080386590072
  0
ARC
  5
16BA4
  8
0
 10
3665.1188766378618311
 20
122.1756060158123063
 30
0.0
 40
6.2813731187803166
 50
278.8436364861623815
 51
285.3620496642653848
  0
ARC
  5
16BA5
  8
0
 10
3668.2087388169588849
 20
115.6341718649101011
 30
0.0
 40
0.3207520791297464
 50
38.9250262650857408
 51
91.988353168604192
  0
ARC
  5
16BA6
  8
0
 10
3668.3204381782152268
 20
115.7243329045366949
 30
0.0
 40
0.1772050217571139
 50
2.7308765627868099
 51
38.9374942449736778
  0
ARC
  5
16BA7
  8
0
 10
3666.3464765732192063
 20
99.9547932099318075
 30
0.0
 40
0.1158279212899828
 50
276.0853530941657823
 51
2.5622122773018501
  0
ARC
  5
16BA8
  8
0
 10
4205.6843948957848625
 20
124.0895576740965964
 30
0.0
 40
539.7618221034721273
 50
181.9922643136449096
 51
182.5622122773010005
  0
ARC
  5
16BA9
  8
0
 10
3683.7937377040179854
 20
105.9352820539853042
 30
0.0
 40
17.5555067573768184
 50
172.5585601578463866
 51
181.9922643136449096
  0
ARC
  5
16BAA
  8
0
 10
3680.3878524587130414
 20
105.2493664200108014
 30
0.0
 40
14.3111326598267503
 50
157.3369548151354991
 51
168.064962011746303
  0
ARC
  5
16BAB
  8
0
 10
3808.1998316493218226
 20
58.0006934018463198
 30
0.0
 40
150.5565773281153952
 50
158.2971566920136013
 51
158.8809149124020053
  0
ARC
  5
16BAC
  8
0
 10
2023.8600074934470285
 20
747.2030727675412436
 30
0.0
 40
1762.2603317857578986
 50
338.8291913180318033
 51
338.8809149124019768
  0
ARC
  5
16BAD
  8
0
 10
3668.7282367315779084
 20
113.9309294810789055
 30
0.0
 40
2.260719356678301
 50
104.5988736315528058
 51
111.0773030710285951
  0
LINE
  5
16BAE
  8
0
 10
3669.1573287155920298
 20
130.638844241600907
 30
0.0
 11
3669.1573287155920298
 21
130.5797891213009052
 31
0.0
  0
LINE
  5
16BAF
  8
0
 10
3668.4085179330058963
 20
116.5721733448009019
 30
0.0
 11
3667.1858382005511885
 21
116.5721733448009019
 31
0.0
  0
ARC
  5
16BB0
  8
0
 10
3668.4118121211918151
 20
116.8375211548694068
 30
0.0
 40
0.0745893550649374
 50
275.9715683609127268
 51
0.6459075298354305
  0
ARC
  5
16BB1
  8
0
 10
3667.0868646923790948
 20
784.6207926109926802
 30
0.0
 40
667.8587857678841146
 50
270.094735411791703
 51
270.114333385336522
  0
ARC
  5
16BB2
  8
0
 10
3669.3767094867289416
 20
103.7885413951131994
 30
0.0
 40
13.0284338432938291
 50
95.221095437630126
 51
96.9693634657719628
  0
ARC
  5
16BB3
  8
0
 10
3646.2583582656429826
 20
129.2845316961914932
 30
0.0
 40
24.9341829517455409
 50
329.3966198806082843
 51
329.7430069725530188
  0
ARC
  5
16BB4
  8
0
 10
3667.6655454070541964
 20
116.6173104907470019
 30
0.0
 40
0.0601527107938383
 50
311.3770479102205968
 51
333.7799167339086921
  0
ARC
  5
16BB5
  8
0
 10
3666.7141312433041094
 20
-223.718838717015899
 30
0.0
 40
340.4783480813380265
 50
89.7627793831209431
 51
90.2338990802732752
  0
ARC
  5
16BB6
  8
0
 10
3663.1523862366198045
 20
648.759251846175971
 30
0.0
 40
532.0070125639199432
 50
269.8112697466164036
 51
270.2338990802733178
  0
LINE
  5
16BB7
  8
0
 10
3665.1401665078001315
 20
116.7559528462727059
 30
0.0
 11
3665.140154309593072
 21
116.5721733448009019
 31
0.0
  0
LINE
  5
16BB8
  8
0
 10
3665.1569777067597897
 20
116.7560159253550012
 30
0.0
 11
3665.158858836312902
 21
116.5721733448009019
 31
0.0
  0
LINE
  5
16BB9
  8
0
 10
3665.1401665078001315
 20
116.6422576117008987
 30
0.0
 11
3665.158141714168778
 21
116.6422576117008987
 31
0.0
  0
ARC
  5
16BBA
  8
0
 10
3667.1928467432999241
 20
116.615185916009807
 30
0.0
 40
0.0435798227792577
 50
226.0538977083068914
 51
260.7454573658624781
  0
ARC
  5
16BBB
  8
0
 10
3666.01889166608089
 20
115.8809753717062989
 30
0.0
 40
1.342404832729853
 50
31.5715492950862995
 51
35.4557469627155584
  0
ARC
  5
16BBC
  8
0
 10
3666.510517297278966
 20
116.2368054225043039
 30
0.0
 40
0.6523556679156006
 50
43.9613563128181113
 51
53.2426973645607404
  0
ARC
  5
16BBD
  8
0
 10
3667.0484003206702255
 20
116.7660865473476974
 30
0.0
 40
0.1025114979128289
 50
228.2113567389434934
 51
259.7182583299286875
  0
ARC
  5
16BBE
  8
0
 10
3667.1010378602732089
 20
117.1040594262452004
 30
0.0
 40
0.4445342879048738
 50
260.8180166409603089
 51
271.4602398307632143
  0
ARC
  5
16BBF
  8
0
 10
3668.3887371633031762
 20
116.4784768869023992
 30
0.0
 40
0.0957617098469257
 50
5.1878324931178561
 51
78.0790235658456311
  0
ARC
  5
16BC0
  8
0
 10
3679.2123689917361844
 20
116.7793510535753967
 30
0.0
 40
10.7334450009393407
 50
179.8629050878707858
 51
181.4856000562917018
  0
LINE
  5
16BC1
  8
0
 10
3665.6745275397270234
 20
116.7579222173191056
 30
0.0
 11
3665.6725885163150451
 21
116.5743517290678994
 31
0.0
  0
LINE
  5
16BC2
  8
0
 10
3665.6945397199870058
 20
116.7579827339050951
 30
0.0
 11
3665.6923594589998174
 21
116.5764847858009006
 31
0.0
  0
ARC
  5
16BC3
  8
0
 10
3665.6404187520388405
 20
116.9652211352277931
 30
0.0
 40
0.3921910075528266
 50
274.7050158465365826
 51
277.6104557077042045
  0
ARC
  5
16BC4
  8
0
 10
3665.6005073964070107
 20
117.7652305410812943
 30
0.0
 40
1.193058268798969
 50
270.0768261789494886
 51
273.4637542318560008
  0
ARC
  5
16BC5
  8
0
 10
3756.1066896336869831
 20
502.610070442559504
 30
0.0
 40
396.0920872490896727
 50
256.9424457483812034
 51
257.0176909986302007
  0
LINE
  5
16BC6
  8
0
 10
3665.6932286967999062
 20
116.6422576117008987
 30
0.0
 11
3665.6733057944429675
 21
116.6422576117008987
 31
0.0
  0
ARC
  5
16BC7
  8
0
 10
3667.9845218198979637
 20
101.1527714120319956
 30
0.0
 40
2.10364514406514
 50
169.2864145750201885
 51
200.5643783599539063
  0
ARC
  5
16BC8
  8
0
 10
3664.5640072534770297
 20
100.8580025200579939
 30
0.0
 40
1.517378433196332
 50
342.9795385680947106
 51
26.8712543668834094
  0
ARC
  5
16BC9
  8
0
 10
3654.8154327571601243
 20
101.1527714120319956
 30
0.0
 40
2.10364514406514
 50
339.4356216400461221
 51
10.7135854249798097
  0
ARC
  5
16BCA
  8
0
 10
3658.2359473235810583
 20
100.8580025200579939
 30
0.0
 40
1.517378433196332
 50
153.1287456331166084
 51
197.0204614319052041
  0
ENDSEC
  0
EOF
