  0
SECTION
  2
HEADER
  9
$ACADVER
  1
AC1009
  9
$INSBASE
 10
3160.5006018148042131
 20
122.354888633823407
 30
0.0
  9
$EXTMIN
 10
3152.046844692069044
 20
122.3544098715364044
 30
-0.0000000349181948
  9
$EXTMAX
 10
3184.6057941778090026
 20
157.7992153064776062
 30
0.0000000814935746
  9
$LIMMIN
 10
0.0
 20
0.0
  9
$LIMMAX
 10
11.6929133858000007
 20
8.2677165353999982
  9
$ORTHOMODE
 70
     0
  9
$REGENMODE
 70
     1
  9
$FILLMODE
 70
     1
  9
$QTEXTMODE
 70
     0
  9
$MIRRTEXT
 70
     0
  9
$DRAGMODE
 70
     2
  9
$LTSCALE
 40
0.6431102362
  9
$OSMODE
 70
  4095
  9
$ATTMODE
 70
     1
  9
$TEXTSIZE
 40
0.2
  9
$TRACEWID
 40
0.05
  9
$TEXTSTYLE
  7
STANDARD
  9
$CLAYER
  8
0
  9
$CELTYPE
  6
BYLAYER
  9
$CECOLOR
 62
   256
  9
$DIMSCALE
 40
1.0
  9
$DIMASZ
 40
0.1875
  9
$DIMEXO
 40
0.0625
  9
$DIMDLI
 40
0.4443307087
  9
$DIMRND
 40
0.0
  9
$DIMDLE
 40
0.0
  9
$DIMEXE
 40
0.125
  9
$DIMTP
 40
0.01
  9
$DIMTM
 40
0.01
  9
$DIMTXT
 40
2.0
  9
$DIMCEN
 40
0.1052362205
  9
$DIMTSZ
 40
0.0
  9
$DIMTOL
 70
     1
  9
$DIMLIM
 70
     0
  9
$DIMTIH
 70
     1
  9
$DIMTOH
 70
     1
  9
$DIMSE1
 70
     0
  9
$DIMSE2
 70
     0
  9
$DIMTAD
 70
     0
  9
$DIMZIN
 70
     0
  9
$DIMBLK
  1

  9
$DIMASO
 70
     1
  9
$DIMSHO
 70
     1
  9
$DIMPOST
  1
\X
  9
$DIMAPOST
  1

  9
$DIMALT
 70
     1
  9
$DIMALTD
 70
     2
  9
$DIMALTF
 40
25.3999999999999986
  9
$DIMLFAC
 40
1.0
  9
$DIMTOFL
 70
     0
  9
$DIMTVP
 40
0.0
  9
$DIMTIX
 70
     0
  9
$DIMSOXD
 70
     0
  9
$DIMSAH
 70
     0
  9
$DIMBLK1
  1

  9
$DIMBLK2
  1

  9
$DIMSTYLE
  2
STANDARD
  9
$DIMCLRD
 70
     0
  9
$DIMCLRE
 70
     0
  9
$DIMCLRT
 70
     0
  9
$DIMTFAC
 40
1.0
  9
$DIMGAP
 40
0.09
  9
$LUNITS
 70
     2
  9
$LUPREC
 70
     4
  9
$SKETCHINC
 40
0.1
  9
$FILLETRAD
 40
0.0
  9
$AUNITS
 70
     0
  9
$AUPREC
 70
     0
  9
$MENU
  1
.
  9
$ELEVATION
 40
0.0
  9
$PELEVATION
 40
0.0
  9
$THICKNESS
 40
0.0
  9
$LIMCHECK
 70
     0
  9
$BLIPMODE
 70
     0
  9
$CHAMFERA
 40
0.0
  9
$CHAMFERB
 40
0.0
  9
$SKPOLY
 70
     0
  9
$TDCREATE
 40
2458060.468368056230247
  9
$TDUPDATE
 40
2460164.577314815018326
  9
$TDINDWG
 40
0.7450765046
  9
$TDUSRTIMER
 40
0.7450765046
  9
$USRTIMER
 70
     1
  9
$ANGBASE
 50
0.0
  9
$ANGDIR
 70
     0
  9
$PDMODE
 70
     0
  9
$PDSIZE
 40
0.3125
  9
$PLINEWID
 40
0.0
  9
$COORDS
 70
     1
  9
$SPLFRAME
 70
     0
  9
$SPLINETYPE
 70
     6
  9
$SPLINESEGS
 70
     8
  9
$ATTDIA
 70
     1
  9
$ATTREQ
 70
     1
  9
$HANDLING
 70
     1
  9
$HANDSEED
  5
2C160
  9
$SURFTAB1
 70
     6
  9
$SURFTAB2
 70
     6
  9
$SURFTYPE
 70
     6
  9
$SURFU
 70
     6
  9
$SURFV
 70
     6
  9
$UCSNAME
  2

  9
$UCSORG
 10
0.0
 20
0.0
 30
0.0
  9
$UCSXDIR
 10
1.0
 20
0.0
 30
0.0
  9
$UCSYDIR
 10
0.0
 20
1.0
 30
0.0
  9
$PUCSNAME
  2

  9
$PUCSORG
 10
0.0
 20
0.0
 30
0.0
  9
$PUCSXDIR
 10
1.0
 20
0.0
 30
0.0
  9
$PUCSYDIR
 10
0.0
 20
1.0
 30
0.0
  9
$USERI1
 70
     0
  9
$USERI2
 70
     0
  9
$USERI3
 70
     0
  9
$USERI4
 70
     0
  9
$USERI5
 70
     0
  9
$USERR1
 40
0.0
  9
$USERR2
 40
0.0
  9
$USERR3
 40
0.0
  9
$USERR4
 40
0.0
  9
$USERR5
 40
0.0
  9
$WORLDVIEW
 70
     1
  9
$SHADEDGE
 70
     3
  9
$SHADEDIF
 70
    70
  9
$TILEMODE
 70
     1
  9
$MAXACTVP
 70
    64
  9
$PLIMCHECK
 70
     0
  9
$PEXTMIN
 10
1.0000000000000000E+20
 20
1.0000000000000000E+20
 30
1.0000000000000000E+20
  9
$PEXTMAX
 10
-1.0000000000000000E+20
 20
-1.0000000000000000E+20
 30
-1.0000000000000000E+20
  9
$PLIMMIN
 10
0.0
 20
0.0
  9
$PLIMMAX
 10
12.0
 20
9.0
  9
$UNITMODE
 70
     0
  9
$VISRETAIN
 70
     1
  9
$PLINEGEN
 70
     0
  9
$PSLTSCALE
 70
     1
  0
ENDSEC
  0
SECTION
  2
TABLES
  0
TABLE
  2
VPORT
 70
     1
  0
VPORT
  2
*ACTIVE
 70
     0
 10
0.0
 20
0.0
 11
1.0
 21
1.0
 12
-42.8484852525607494
 22
-6.4089287314120318
 13
0.0
 23
0.0
 14
1.0
 24
1.0
 15
0.0
 25
0.0
 16
0.0
 26
0.0
 36
24.3507166897908292
 17
3211.1748046875
 27
146.4857413204190095
 37
0.0
 40
35.7171086777192386
 41
1.4307692307692299
 42
50.0
 43
0.0
 44
0.0
 50
0.0
 51
0.0
 71
     0
 72
   100
 73
     1
 74
     1
 75
     0
 76
     0
 77
     0
 78
     0
  0
ENDTAB
  0
TABLE
  2
LTYPE
 70
     2
  0
LTYPE
  2
CONTINUOUS
 70
     0
  3
Solid line
 72
    65
 73
     0
 40
0.0
  0
LTYPE
  2
PHANTOM2
 70
     0
  3
___ _ _ ___ _ _ ___ _ _ ___ _ _
 72
    65
 73
     6
 40
1.25
 49
0.625
 49
-0.125
 49
0.125
 49
-0.125
 49
0.125
 49
-0.125
  0
ENDTAB
  0
TABLE
  2
LAYER
 70
     2
  0
LAYER
  2
0
 70
     0
 62
   255
  6
CONTINUOUS
  0
LAYER
  2
DEFPOINTS
 70
     0
 62
     7
  6
CONTINUOUS
  0
ENDTAB
  0
TABLE
  2
STYLE
 70
     1
  0
STYLE
  2
STANDARD
 70
     0
 40
0.0
 41
0.8
 50
0.0
 71
     0
 42
0.2
  3
txt
  4

  0
ENDTAB
  0
TABLE
  2
VIEW
 70
     0
  0
ENDTAB
  0
TABLE
  2
UCS
 70
     0
  0
ENDTAB
  0
TABLE
  2
APPID
 70
     9
  0
APPID
  2
ACAD
 70
     0
  0
APPID
  2
ACAD_MLEADERVER
 70
     0
  0
APPID
  2
ACAD_EXEMPT_FROM_CAD_STANDARDS
 70
     0
  0
APPID
  2
ACAD_NAV_VCDISPLAY
 70
     0
  0
APPID
  2
ACAECLAYERSTANDARD
 70
     0
  0
APPID
  2
ACCMTRANSPARENCY
 70
     0
  0
APPID
  2
ACAD_DSTYLE_DIMJAG
 70
     0
  0
APPID
  2
ACAD_DSTYLE_DIMTALN
 70
     0
  0
APPID
  2
ACDBATTR
 70
     0
  0
ENDTAB
  0
TABLE
  2
DIMSTYLE
 70
     1
  0
DIMSTYLE
  2
STANDARD
 70
     0
  3

  4

  5

  6

  7

 40
1.0
 41
0.1875
 42
0.0625
 43
0.38
 44
0.125
 45
0.0
 46
0.0
 47
0.01
 48
0.01
140
0.15625
141
0.09
142
0.0
143
25.3999999999999986
144
1.0
145
0.0
146
1.0
147
0.09
 71
     1
 72
     0
 73
     1
 74
     1
 75
     0
 76
     0
 77
     0
 78
     4
170
     0
171
     2
172
     0
173
     0
174
     0
175
     0
176
     0
177
     0
178
     0
  0
ENDTAB
  0
ENDSEC
  0
SECTION
  2
BLOCKS
  0
BLOCK
  8
0
  2
$MODEL_SPACE
 70
     0
 10
0.0
 20
0.0
 30
0.0
  3
$MODEL_SPACE
  1

  0
ENDBLK
  5
21
  8
0
  0
BLOCK
 67
     1
  8
0
  2
$PAPER_SPACE
 70
     0
 10
0.0
 20
0.0
 30
0.0
  3
$PAPER_SPACE
  1

  0
ENDBLK
  5
1D
 67
     1
  8
0
  0
ENDSEC
  0
SECTION
  2
ENTITIES
  0
ATTDEF
  5
2B4FA
  8
DEFPOINTS
 10
3160.4969701087547946
 20
122.3590687209395043
 30
0.0
 40
0.001
  1
K-77795MY-SG
  3

  2
MODELNUMBER
 70
     0
1001
ACDBATTR
1070
     0
1070
     1
  0
ATTDEF
  5
2B4FB
  8
DEFPOINTS
 10
3160.4969701087547946
 20
122.3574020542727965
 30
0.0
 40
0.001
  1
EIR
  3

  2
TRADENAME
 70
     0
1001
ACDBATTR
1070
     0
1070
     1
  0
ATTDEF
  5
2B4FC
  8
DEFPOINTS
 10
3160.4969701087547946
 20
122.3557353876061029
 30
0.0
 40
0.001
  1
TOILET
  3

  2
PRODUCT
 70
     0
1001
ACDBATTR
1070
     0
1070
     1
  0
LINE
  5
2BFAA
  8
0
 10
3153.7599643230191759
 20
122.3680124759195991
 30
0.0
 11
3153.8257149372398089
 21
122.3680124759195991
 31
0.0
  0
LINE
  5
2BFAB
  8
0
 10
3152.3367226188188397
 20
138.835431250819596
 30
0.0
 11
3152.3367226188188397
 21
138.8976018747196122
 31
0.0
  0
ARC
  5
2BFAC
  8
0
 10
3155.6043097926522023
 20
140.3439361196321897
 30
0.0
 40
3.338938345607148
 50
167.6885883626237899
 51
179.9526010900991935
  0
ARC
  5
2BFAD
  8
0
 10
3182.7459099980169412
 20
141.1211820178789935
 30
0.0
 40
30.4903752964150598
 50
181.4555222870586988
 51
184.1821380080723998
  0
ARC
  5
2BFAE
  8
0
 10
3154.2514599167111555
 20
140.6013999692140999
 30
0.0
 40
1.9626493212910849
 50
156.9532360298742901
 51
166.610762882821291
  0
ARC
  5
2BFAF
  8
0
 10
3153.8768357104381721
 20
140.7607794901998091
 30
0.0
 40
1.5555312455002439
 50
128.2005268044017043
 51
156.9532360298742901
  0
ARC
  5
2BFB0
  8
0
 10
3154.5954502108879751
 20
139.7156142348885055
 30
0.0
 40
2.8224585188852029
 50
104.6397401630396047
 51
126.5433637955487001
  0
ARC
  5
2BFB1
  8
0
 10
3156.2307793648401457
 20
133.8126030035394081
 30
0.0
 40
8.9475928387872532
 50
95.4707057200902653
 51
105.2180278120331991
  0
ARC
  5
2BFB2
  8
0
 10
3159.9706322439778887
 20
97.0001406861840962
 30
0.0
 40
45.9494174867135783
 50
92.9801195062435539
 51
95.7365965190420809
  0
ARC
  5
2BFB3
  8
0
 10
3160.7590060865582018
 20
77.974513657853123
 30
0.0
 40
64.9906154053238936
 50
90.2278100168345105
 51
92.8021908544392033
  0
LINE
  5
2BFB4
  8
0
 10
3153.7599643230191759
 20
122.3680124759195991
 30
0.0
 11
3153.7599643230191759
 21
122.3916345231196061
 31
0.0
  0
LINE
  5
2BFB5
  8
0
 10
3153.7599643230191759
 20
122.3916345231196061
 30
0.0
 11
3153.8235790198082213
 21
122.3916345231196061
 31
0.0
  0
ARC
  5
2BFB6
  8
0
 10
2872.0260627536467837
 20
102.0800745049833012
 30
0.0
 40
282.5293248088328255
 50
4.1151857206304614
 51
4.1552360171437472
  0
ARC
  5
2BFB7
  8
0
 10
2691.420136783774069
 20
88.9590607814221812
 30
0.0
 40
463.6112441066167094
 50
4.155236017114512
 51
4.665556149496874
  0
ARC
  5
2BFB8
  8
0
 10
3534.0524837643861247
 20
157.7260958346550126
 30
0.0
 40
381.8224772980049124
 50
184.3103468884706047
 51
184.6655561494960125
  0
ARC
  5
2BFB9
  8
0
 10
3031.925510825280071
 20
119.879787452056803
 30
0.0
 40
121.7287514872898981
 50
4.3103468884706082
 51
6.2762709581387641
  0
ARC
  5
2BFBA
  8
0
 10
3228.1947422232751705
 20
141.4658404680891977
 30
0.0
 40
75.7239488699612053
 50
185.4809669848804958
 51
186.2762709581386957
  0
ARC
  5
2BFBB
  8
0
 10
3710.0399702724089366
 20
193.0393525773828003
 30
0.0
 40
560.3174220352265138
 50
185.6730207145041902
 51
186.0243864464140131
  0
ARC
  5
2BFBC
  8
0
 10
3152.6211223970108222
 20
137.6681123609722022
 30
0.0
 40
0.1551791195219923
 50
118.0338166888401048
 51
186.2164401760369969
  0
LINE
  5
2BFBD
  8
0
 10
3152.4612372022211275
 20
137.6718675172178905
 30
0.0
 11
3153.5192724800081123
 21
122.5359154167512941
 31
0.0
  0
ARC
  5
2BFBE
  8
0
 10
3153.5273922565361318
 20
122.536632028447201
 30
0.0
 40
0.0081513375096241
 50
185.0435771393748041
 51
260.9637375330996178
  0
LINE
  5
2BFBF
  8
0
 10
3153.5261120112081699
 20
122.5285818560828943
 30
0.0
 11
3153.8144029954228245
 21
122.528806715939993
 31
0.0
  0
ARC
  5
2BFC0
  8
0
 10
3149.2113972263991855
 20
877.0774544968707005
 30
0.0
 40
735.1703718366254634
 50
270.8018350489065824
 51
270.8798629882708155
  0
ARC
  5
2BFC1
  8
0
 10
3159.2417073191149939
 20
120.4776681296219039
 30
0.0
 40
21.5029507389046692
 50
89.3130222911974556
 51
96.3183394145749787
  0
ARC
  5
2BFC2
  8
0
 10
3158.713044782122779
 20
121.5160031183554992
 30
0.0
 40
20.4168830558163599
 50
95.1643693439392138
 51
101.9562449487054039
  0
ARC
  5
2BFC3
  8
0
 10
3155.4799834676391583
 20
136.5964806640321001
 30
0.0
 40
4.9939345886440289
 50
101.5112946392182067
 51
112.8488328092499984
  0
ARC
  5
2BFC4
  8
0
 10
3154.6183365692750158
 20
138.6413771785261986
 30
0.0
 40
2.7749174340347511
 50
112.8488328092499984
 51
123.5474195912057951
  0
ARC
  5
2BFC5
  8
0
 10
3153.7287048519201562
 20
139.983050161145286
 30
0.0
 40
1.1650941565245709
 50
123.5474195912057951
 51
134.7658909686533093
  0
ARC
  5
2BFC6
  8
0
 10
3153.9524959622340248
 20
139.7075028583012966
 30
0.0
 40
1.5187332333000041
 50
133.4395457150621098
 51
145.0220858990392969
  0
ARC
  5
2BFC7
  8
0
 10
3154.0344939097931274
 20
139.6519287698340861
 30
0.0
 40
1.6177792495155821
 50
145.0741579229691922
 51
150.8541493830028912
  0
ARC
  5
2BFC8
  8
0
 10
3154.3179594207231276
 20
139.5050002831285951
 30
0.0
 40
1.9369368266679281
 50
151.1420487709843883
 51
164.4864480860026106
  0
ARC
  5
2BFC9
  8
0
 10
3155.0832098425112235
 20
139.2860503721587975
 30
0.0
 40
2.7328760154748299
 50
164.3544863457950953
 51
172.3838370225136032
  0
ARC
  5
2BFCA
  8
0
 10
3158.0349812736008062
 20
138.9875400512322869
 30
0.0
 40
5.6989683779084457
 50
173.3423931718365054
 51
180.9042499473052885
  0
ARC
  5
2BFCB
  8
0
 10
3152.6221662460711741
 20
137.665934625143791
 30
0.0
 40
0.1575902497394067
 50
99.4876952551374814
 51
117.996936954418004
  0
ARC
  5
2BFCC
  8
0
 10
3152.6897654500298813
 20
136.9557442879053895
 30
0.0
 40
0.870668080354582
 50
91.9628829608155343
 51
96.1698247652188059
  0
ARC
  5
2BFCD
  8
0
 10
3153.0621237838599882
 20
122.976067710489005
 30
0.0
 40
14.8552789347261793
 50
91.0514832697054146
 51
91.5513718891455852
  0
ARC
  5
2BFCE
  8
0
 10
3155.481104920413145
 20
-97.6265046657350695
 30
0.0
 40
235.4707336486017084
 50
90.4511170758580079
 51
90.6549432554956809
  0
LINE
  5
2BFCF
  8
0
 10
3152.3367226188188397
 20
138.835431250819596
 30
0.0
 11
3152.4291060897257921
 21
137.9135375364730862
 31
0.0
  0
ARC
  5
2BFD0
  8
0
 10
3153.2099864497631643
 20
137.9917899823902872
 30
0.0
 40
0.7847914257834216
 50
185.7225367498735977
 51
190.0587564396876985
  0
ARC
  5
2BFD1
  8
0
 10
3152.5068874756411788
 20
137.8670710876380952
 30
0.0
 40
0.0707165206657959
 50
190.0587564396876985
 51
198.7844579967004961
  0
ARC
  5
2BFD2
  8
0
 10
3152.4500914238587939
 20
137.8477533247969973
 30
0.0
 40
0.0107251257891717
 50
198.7844579967043899
 51
223.3585365421149049
  0
ARC
  5
2BFD3
  8
0
 10
3152.4433297318469158
 20
137.8418999707618866
 30
0.0
 40
0.0018314521192229
 50
235.5418368667839957
 51
269.3738116972355101
  0
ARC
  5
2BFD4
  8
0
 10
3152.443710974950136
 20
137.8441185751015894
 30
0.0
 40
0.0040697763988118
 50
264.3417422735200262
 51
289.9979877805579918
  0
LINE
  5
2BFD5
  8
0
 10
3152.4451027861459806
 20
137.8402941873688121
 30
0.0
 11
3152.4612372022211275
 21
137.6718675172180042
 31
0.0
  0
LINE
  5
2BFD6
  8
0
 10
3152.427495484138035
 20
137.9284573591195908
 30
0.0
 11
3168.5735926634301904
 21
137.9284573591195908
 31
0.0
  0
ARC
  5
2BFD7
  8
0
 10
3158.5150022876978255
 20
137.8559023478337053
 30
0.0
 40
0.0807640289220644
 50
346.4139304337228964
 51
63.9430657329503305
  0
ARC
  5
2BFD8
  8
0
 10
3158.1633077727228738
 20
137.8427849758516004
 30
0.0
 40
0.0894709937339605
 50
356.248149692792822
 51
73.302667476583153
  0
ARC
  5
2BFD9
  8
0
 10
3157.1626048466591783
 20
137.7105854501768079
 30
0.0
 40
0.224680693680449
 50
34.2171681511611112
 51
75.8585986881142134
  0
ARC
  5
2BFDA
  8
0
 10
3156.7080029742669467
 20
137.9277963224012922
 30
0.0
 40
0.0118287383255761
 50
269.9526227678538248
 51
3.203583900528427
  0
LINE
  5
2BFDB
  8
0
 10
3156.7079931932189538
 20
137.9159675881195994
 30
0.0
 11
3155.4333835668721804
 21
137.9159675881195994
 31
0.0
  0
ARC
  5
2BFDC
  8
0
 10
3155.4336501260308978
 20
137.9287329909907101
 30
0.0
 40
0.0127681856286333
 50
181.2369627311898057
 51
268.8037592138235254
  0
ARC
  5
2BFDD
  8
0
 10
3186.5396310174519385
 20
168.9761942919924138
 30
0.0
 40
43.935896275458127
 50
224.9868271828179047
 51
225.085755962659789
  0
ARC
  5
2BFDE
  8
0
 10
3155.5727840520748941
 20
137.9205223340321993
 30
0.0
 40
0.0793582376544351
 50
227.1311727691895044
 51
269.8317539561331273
  0
LINE
  5
2BFDF
  8
0
 10
3155.5725510211182154
 20
137.8411644385195984
 30
0.0
 11
3156.5688253107177843
 21
137.8411644385195984
 31
0.0
  0
ARC
  5
2BFE0
  8
0
 10
3156.5688358085039908
 20
137.9199046848270882
 30
0.0
 40
0.0787402470073234
 50
269.9923612280193197
 51
315.0000822256250785
  0
LINE
  5
2BFE1
  8
0
 10
3156.6245136510178781
 20
137.8642270021196055
 30
0.0
 11
3156.6762557223360091
 21
137.9159692219485862
 31
0.0
  0
ARC
  5
2BFE2
  8
0
 10
3155.0585985279581109
 20
137.9781022464069906
 30
0.0
 40
0.0776969058627731
 50
273.1531349738925201
 51
320.2860011671464804
  0
LINE
  5
2BFE3
  8
0
 10
3155.0628722317192114
 20
137.900522966719592
 30
0.0
 11
3153.1840276540187915
 21
137.9002195566195894
 31
0.0
  0
ARC
  5
2BFE4
  8
0
 10
3153.1876734114071041
 20
137.9810190718461911
 30
0.0
 40
0.0808817235707961
 50
220.5309688726520108
 51
267.4165076865440938
  0
ARC
  5
2BFE5
  8
0
 10
3152.4537279057299202
 20
137.8413198499750933
 30
0.0
 40
0.0086858892247699
 50
127.7467826214029998
 51
186.7815247782901906
  0
ARC
  5
2BFE6
  8
0
 10
3152.4551355421021981
 20
137.8435332520043062
 30
0.0
 40
0.0081786857722775
 50
90.3692489233498435
 51
145.3103926253257043
  0
LINE
  5
2BFE7
  8
0
 10
3152.4550828340311455
 20
137.8517117679344892
 30
0.0
 11
3152.5371834316188142
 21
137.8500979740196044
 31
0.0
  0
ARC
  5
2BFE8
  8
0
 10
3152.5361823064658893
 20
137.8418775588725111
 30
0.0
 40
0.0082811518982731
 50
8.1858698272305759
 51
83.056413826616236
  0
LINE
  5
2BFE9
  8
0
 10
3152.5443790848189565
 20
137.8430566693000969
 30
0.0
 11
3152.5481893579599273
 21
137.8050843688799034
 31
0.0
  0
LINE
  5
2BFEA
  8
0
 10
3152.7687503007177838
 20
137.9284573591195908
 30
0.0
 11
3152.7687508260219147
 21
137.9095850958842959
 31
0.0
  0
ARC
  5
2BFEB
  8
0
 10
3152.7563101351661317
 20
137.9095847496014926
 30
0.0
 40
0.0124406908606361
 50
272.8985793369445219
 51
0.0015948107515248
  0
ARC
  5
2BFEC
  8
0
 10
3152.6964452175661791
 20
135.2612103137196016
 30
0.0
 40
2.6366437272595298
 50
88.6853148956138142
 51
95.3670485679016338
  0
ARC
  5
2BFED
  8
0
 10
3152.4495006836859829
 20
137.902387792950492
 30
0.0
 40
0.0160962654360397
 50
196.3671973632793879
 51
271.1537841265787847
  0
ARC
  5
2BFEE
  8
0
 10
3152.6654542339151703
 20
137.9658120557512859
 30
0.0
 40
0.2411708596674832
 50
190.3561294426866084
 51
196.3671973632793879
  0
LINE
  5
2BFEF
  8
0
 10
3152.6188484988360869
 20
137.8967119535861059
 30
0.0
 11
3152.6177075482178225
 21
137.8490384479196109
 31
0.0
  0
LINE
  5
2BFF0
  8
0
 10
3152.6177075482178225
 20
137.8490384479196109
 30
0.0
 11
3155.4302466395010924
 21
137.8490384542195955
 31
0.0
  0
ARC
  5
2BFF1
  8
0
 10
3155.4302466399522018
 20
137.6473183179261923
 30
0.0
 40
0.2017201362934453
 50
69.1997637365965232
 51
90.0000001283474234
  0
LINE
  5
2BFF2
  8
0
 10
3154.6636658255138173
 20
137.9004584998355085
 30
0.0
 11
3154.6636658255138173
 21
137.8490384542195955
 31
0.0
  0
LINE
  5
2BFF3
  8
0
 10
3154.6242790018600317
 20
137.9004521393518985
 30
0.0
 11
3154.6242790018600317
 21
137.8490384542195955
 31
0.0
  0
LINE
  5
2BFF4
  8
0
 10
3154.5970668846189255
 20
137.9004477449325066
 30
0.0
 11
3154.5970668846189255
 21
137.8490384542195955
 31
0.0
  0
LINE
  5
2BFF5
  8
0
 10
3154.5685768211178583
 20
137.9004431441404961
 30
0.0
 11
3154.5685768211178583
 21
137.8490384542195955
 31
0.0
  0
LINE
  5
2BFF6
  8
0
 10
3153.1840276540187915
 20
137.9002195566195894
 30
0.0
 11
3153.1840276540187915
 21
137.8490384491882139
 31
0.0
  0
LINE
  5
2BFF7
  8
0
 10
3153.2117626792178271
 20
137.9002240354822106
 30
0.0
 11
3153.2117626792178271
 21
137.8490384492502869
 31
0.0
  0
LINE
  5
2BFF8
  8
0
 10
3153.2156102692188142
 20
137.9002246568203134
 30
0.0
 11
3153.2156102692188142
 21
137.8490384492588987
 31
0.0
  0
LINE
  5
2BFF9
  8
0
 10
3153.319918799018069
 20
137.900241501354401
 30
0.0
 11
3153.319918799018069
 21
137.8490384494926104
 31
0.0
  0
LINE
  5
2BFFA
  8
0
 10
3152.3367226188188397
 20
138.8362490705306982
 30
0.0
 11
3168.6644810107891317
 21
138.8362490705306982
 31
0.0
  0
LINE
  5
2BFFB
  8
0
 10
3184.5793257579871351
 20
154.7363726807772935
 30
0.0
 11
3184.5793257579871351
 21
157.757096988915805
 31
0.0
  0
LINE
  5
2BFFC
  8
0
 10
3184.5793257579871351
 20
157.757096988915805
 30
0.0
 11
3184.5005983472187836
 21
157.7584750340157882
 31
0.0
  0
LINE
  5
2BFFD
  8
0
 10
3184.5005983472187836
 20
157.7584750340157882
 30
0.0
 11
3184.5006041878182259
 21
154.7348518893695939
 31
0.0
  0
LINE
  5
2BFFE
  8
0
 10
3184.5006041878182259
 20
154.7348518893695939
 30
0.0
 11
3184.5793440570191706
 21
154.7363726849773116
 31
0.0
  0
LINE
  5
2BFFF
  8
0
 10
3184.4927298832180895
 20
157.7584713736158051
 30
0.0
 11
3184.4927298832180895
 21
154.7348518893695939
 31
0.0
  0
LINE
  5
2C000
  8
0
 10
3184.4927298832180895
 20
154.7348518893695939
 30
0.0
 11
3183.4204612402181738
 21
154.7536363066772935
 31
0.0
  0
ARC
  5
2C001
  8
0
 10
3183.420599321105783
 20
154.7615180339363121
 30
0.0
 40
0.0078829366936775
 50
173.9283156811306981
 51
268.9963313100686833
  0
LINE
  5
2C002
  8
0
 10
3183.4127606050187751
 20
154.7623518330771901
 30
0.0
 11
3183.886041059019135
 21
157.7380187629158002
 31
0.0
  0
ARC
  5
2C003
  8
0
 10
3183.9209209726091103
 20
157.7265250760179072
 30
0.0
 40
0.0367248309811282
 50
146.6318135858165874
 51
161.7618291267930033
  0
ARC
  5
2C004
  8
0
 10
3183.8946781299200666
 20
157.7398975812081119
 30
0.0
 40
0.0081370956350625
 50
90.9035229087777168
 51
122.9684751147467949
  0
LINE
  5
2C005
  8
0
 10
3183.8945498177181435
 20
157.7480336651157984
 30
0.0
 11
3184.4927298830189102
 21
157.7584749370157908
 31
0.0
  0
LINE
  5
2C006
  8
0
 10
3184.4927298869188235
 20
157.7525658617157944
 30
0.0
 11
3184.5006039069189683
 21
157.7524284202158071
 31
0.0
  0
LINE
  5
2C007
  8
0
 10
3184.4927298832180895
 20
154.7409037775863965
 30
0.0
 11
3184.5006038996189091
 21
154.7410412190967861
 31
0.0
  0
ARC
  5
2C008
  8
0
 10
3183.4733019807249548
 20
155.2523177692179104
 30
0.0
 40
0.0079337890034493
 50
262.3336503175526104
 51
300.7073786892710814
  0
LINE
  5
2C009
  8
0
 10
3183.4773533990178294
 20
155.2454964044158032
 30
0.0
 11
3183.4909047210931021
 21
155.2535447581348933
 31
0.0
  0
LINE
  5
2C00A
  8
0
 10
3183.4722435803191729
 20
155.24445489441581
 30
0.0
 11
3183.2399934776058217
 21
155.2774363969157889
 31
0.0
  0
ARC
  5
2C00B
  8
0
 10
3183.2410648589138873
 20
155.2852364431159913
 30
0.0
 40
0.0078732825829381
 50
173.9504805129926979
 51
262.1790344011454863
  0
LINE
  5
2C00C
  8
0
 10
3183.2332354212057908
 20
155.2860661923658085
 30
0.0
 11
3183.6137148473681009
 21
157.7880785886158037
 31
0.0
  0
ARC
  5
2C00D
  8
0
 10
3183.6210165267161756
 20
157.781639047576391
 30
0.0
 40
0.0127544256313314
 50
82.0682043433369586
 51
88.1973562931988369
  0
ARC
  5
2C00E
  8
0
 10
3183.6215569983719433
 20
157.7863601450270039
 30
0.0
 40
0.0080282240087527
 50
90.9939001272483239
 51
167.6401847664116929
  0
ARC
  5
2C00F
  8
0
 10
3188.1551255852727991
 20
183.3927828427206066
 30
0.0
 40
25.996653112885781
 50
259.9595404375886005
 51
260.4931521332730995
  0
ARC
  5
2C010
  8
0
 10
3183.8600813912830745
 20
157.7454417351623874
 30
0.0
 40
0.0078370862273059
 50
39.2887955986166233
 51
80.4931521332732132
  0
LINE
  5
2C011
  8
0
 10
3183.8661470143188126
 20
157.7504044096158111
 30
0.0
 11
3183.88466914256378
 21
157.7293926497499967
 31
0.0
  0
LINE
  5
2C012
  8
0
 10
3183.8616031629139798
 20
157.7531296563145133
 30
0.0
 11
3183.4722435803191729
 21
155.24445489441581
 31
0.0
  0
LINE
  5
2C013
  8
0
 10
3152.5304527216849237
 20
137.892623743001991
 30
0.0
 11
3152.5371834316188142
 21
137.8500979740196044
 31
0.0
  0
ARC
  5
2C014
  8
0
 10
3152.5897295098839095
 20
137.8205524005556128
 30
0.0
 40
0.1098282156216336
 50
163.8298616530281038
 51
184.2345476993710918
  0
LINE
  5
2C015
  8
0
 10
3152.480201110418875
 20
137.8124427361196069
 30
0.0
 11
3152.4866176577970691
 21
137.7455012120053937
 31
0.0
  0
LINE
  5
2C016
  8
0
 10
3152.7879536201180599
 20
137.9284573591195908
 30
0.0
 11
3152.7879536201180599
 21
137.8490384542195955
 31
0.0
  0
LINE
  5
2C017
  8
0
 10
3152.5627207627271673
 20
137.8118829767034015
 30
0.0
 11
3152.56208148101814
 21
137.8287121609195935
 31
0.0
  0
ARC
  5
2C018
  8
0
 10
3152.5880744929359025
 20
137.8296995443166111
 30
0.0
 40
0.0260117587737526
 50
168.4264537496972878
 51
182.1754198418734916
  0
ARC
  5
2C019
  8
0
 10
3152.5493151834098171
 20
137.8286468447400068
 30
0.0
 40
0.0146830816309833
 50
5.6898148078409418
 51
25.2844349359043896
  0
ARC
  5
2C01A
  8
0
 10
3152.1570878194970646
 20
137.7652731419427141
 30
0.0
 40
0.411970991892171
 50
6.6907902324467718
 51
9.0539294801781036
  0
ARC
  5
2C01B
  8
0
 10
3152.59134515590722
 20
137.8286076040137118
 30
0.0
 40
0.0181563264101952
 50
160.2711110509567902
 51
181.2777423356220936
  0
ARC
  5
2C01C
  8
0
 10
3152.7982404955068887
 20
137.8235504632598065
 30
0.0
 40
0.2250952331733118
 50
178.8157251721598868
 51
181.985743665911798
  0
ARC
  5
2C01D
  8
0
 10
3152.5518481901908672
 20
137.8235445370399077
 30
0.0
 40
0.0250461596450181
 50
13.6686599720668305
 51
26.5423247861974403
  0
ARC
  5
2C01E
  8
0
 10
3152.3758821934488878
 20
137.7885041100767012
 30
0.0
 40
0.204447686185137
 50
8.0952977136167554
 51
11.5568284191461803
  0
ARC
  5
2C01F
  8
0
 10
3152.6940283970739074
 20
137.8189644051608127
 30
0.0
 40
0.1044887355571141
 50
173.6190510273841028
 51
179.3708155253476946
  0
ARC
  5
2C020
  8
0
 10
3152.6031270375801796
 20
137.8291300221854101
 30
0.0
 40
0.0130207251522206
 50
158.5701666162125036
 51
173.6190510273841028
  0
ARC
  5
2C021
  8
0
 10
3152.591793983892785
 20
137.8335782060568988
 30
0.0
 40
0.0008459789284925
 50
56.1483493681157313
 51
158.5701666162040908
  0
ARC
  5
2C022
  8
0
 10
3152.5799189524591384
 20
137.8261831022427941
 30
0.0
 40
0.0147649228945885
 50
12.9365157954892798
 51
33.260057631045612
  0
ARC
  5
2C023
  8
0
 10
3152.4960816929728935
 20
137.8024595445149885
 30
0.0
 40
0.1018783332891198
 50
10.6967100737585294
 51
15.3851753594579801
  0
ARC
  5
2C024
  8
0
 10
3152.6529094439219989
 20
137.8206598799390008
 30
0.0
 40
0.0392726326509468
 50
163.2880719783887002
 51
176.4606721969313128
  0
ARC
  5
2C025
  8
0
 10
3152.6207261712070249
 20
137.8303226280125102
 30
0.0
 40
0.0056700770498014
 50
139.7936559806283867
 51
163.2880719783879044
  0
ARC
  5
2C026
  8
0
 10
3152.6172518124640192
 20
137.8332593482697064
 30
0.0
 40
0.0011208469451283
 50
48.4764899966801011
 51
139.7936559806047967
  0
ARC
  5
2C027
  8
0
 10
3152.5966766807509885
 20
137.8186302750874006
 30
0.0
 40
0.0263387676698361
 50
11.3420062413220801
 51
35.9642297468604824
  0
ARC
  5
2C028
  8
0
 10
3152.6693938299049478
 20
137.819695210696409
 30
0.0
 40
0.0213556981468818
 50
137.2390995974475061
 51
164.3686729586661954
  0
ARC
  5
2C029
  8
0
 10
3152.6380354065317988
 20
137.819695210696409
 30
0.0
 40
0.0213556981468818
 50
16.7512152273741393
 51
42.7609004025524868
  0
LINE
  5
2C02A
  8
0
 10
3153.0746737816189125
 20
137.8490359259195941
 30
0.0
 11
3153.0746737816189125
 21
137.8319322062210972
 31
0.0
  0
LINE
  5
2C02B
  8
0
 10
3154.0255945131189037
 20
137.8490384542195955
 30
0.0
 11
3154.0255945131189037
 21
137.8369304097033989
 31
0.0
  0
LINE
  5
2C02C
  8
0
 10
3167.3740532624419757
 20
137.8369304097033989
 30
0.0
 11
3153.6271503671741812
 21
137.8369304097033989
 31
0.0
  0
LINE
  5
2C02D
  8
0
 10
3152.3364082783300546
 20
139.0546697016627036
 30
0.0
 11
3168.6647953512770073
 21
139.0546697016627036
 31
0.0
  0
LINE
  5
2C02E
  8
0
 10
3167.174233693289807
 20
122.354888633823407
 30
0.0
 11
3153.8269699363168002
 21
122.354888633823407
 31
0.0
  0
LINE
  5
2C02F
  8
0
 10
3167.2412393065878859
 20
122.3680124759195991
 30
0.0
 11
3167.1754886923667982
 21
122.3680124759195991
 31
0.0
  0
LINE
  5
2C030
  8
0
 10
3168.6644810107891317
 20
138.835431250819596
 30
0.0
 11
3168.6644810107891317
 21
138.8976018747196122
 31
0.0
  0
ARC
  5
2C031
  8
0
 10
3165.3968938369548596
 20
140.3439361196321897
 30
0.0
 40
3.338938345607148
 50
0.0473989099007864
 51
12.3114116373762297
  0
ARC
  5
2C032
  8
0
 10
3138.2552936315910301
 20
141.1211820178789935
 30
0.0
 40
30.4903752964150598
 50
355.8178619919276002
 51
358.5444777129412728
  0
ARC
  5
2C033
  8
0
 10
3166.7497437128968159
 20
140.6013999692140999
 30
0.0
 40
1.9626493212910849
 50
13.3892371171786806
 51
23.0467639701256601
  0
ARC
  5
2C034
  8
0
 10
3167.1243679191697993
 20
140.7607794901998091
 30
0.0
 40
1.5555312455002439
 50
23.0467639701256601
 51
51.7994731955983312
  0
ARC
  5
2C035
  8
0
 10
3166.4057534187190868
 20
139.7156142348885055
 30
0.0
 40
2.8224585188852029
 50
53.4566362044513212
 51
75.3602598369603669
  0
ARC
  5
2C036
  8
0
 10
3164.7704242647669162
 20
133.8126030035394081
 30
0.0
 40
8.9475928387872532
 50
74.7819721879668151
 51
84.5292942799097489
  0
ARC
  5
2C037
  8
0
 10
3161.0305713856300827
 20
97.0001406861840962
 30
0.0
 40
45.9494174867135783
 50
84.2634034809579333
 51
87.0198804937564319
  0
ARC
  5
2C038
  8
0
 10
3160.2421975430502243
 20
77.974513657853123
 30
0.0
 40
64.9906154053238936
 50
87.1978091455607967
 51
89.7721899831655037
  0
LINE
  5
2C039
  8
0
 10
3167.2412393065878859
 20
122.3680124759195991
 30
0.0
 11
3167.2412393065878859
 21
122.3916345231196061
 31
0.0
  0
LINE
  5
2C03A
  8
0
 10
3167.2412393065878859
 20
122.3916345231196061
 30
0.0
 11
3167.1776246097988405
 21
122.3916345231196061
 31
0.0
  0
ARC
  5
2C03B
  8
0
 10
3448.9751408759611877
 20
102.0800745049833012
 30
0.0
 40
282.5293248088328255
 50
175.8447639828561933
 51
175.8848142793694933
  0
ARC
  5
2C03C
  8
0
 10
3629.5810668458329928
 20
88.9590607814221812
 30
0.0
 40
463.6112441066167094
 50
175.3344438505031064
 51
175.844763982885496
  0
ARC
  5
2C03D
  8
0
 10
2786.9487198652209372
 20
157.7260958346550126
 30
0.0
 40
381.8224772980049124
 50
355.3344438505038738
 51
355.6896531115294238
  0
ARC
  5
2C03E
  8
0
 10
3289.0756928043269909
 20
119.879787452056803
 30
0.0
 40
121.7287514872898981
 50
173.7237290418603948
 51
175.6896531115293953
  0
ARC
  5
2C03F
  8
0
 10
3092.8064614063328008
 20
141.4658404680891977
 30
0.0
 40
75.7239488699612053
 50
353.7237290418603948
 51
354.5190330151194757
  0
ARC
  5
2C040
  8
0
 10
2610.9612333571981253
 20
193.0393525773828003
 30
0.0
 40
560.3174220352265138
 50
353.9756135535860153
 51
354.3269792854957245
  0
ARC
  5
2C041
  8
0
 10
3168.380081232595785
 20
137.6681123609722022
 30
0.0
 40
0.1551791195219923
 50
353.7835598239630031
 51
61.9661833111599094
  0
LINE
  5
2C042
  8
0
 10
3168.5399664273868439
 20
137.6718675172178905
 30
0.0
 11
3167.4819311495998591
 21
122.5359154167512941
 31
0.0
  0
ARC
  5
2C043
  8
0
 10
3167.4738113730709301
 20
122.536632028447201
 30
0.0
 40
0.0081513375096241
 50
279.0362624669003822
 51
354.9564228606244001
  0
LINE
  5
2C044
  8
0
 10
3167.475091618398892
 20
122.5285818560828943
 30
0.0
 11
3167.1868006341837827
 21
122.528806715939993
 31
0.0
  0
ARC
  5
2C045
  8
0
 10
3157.7417855848389081
 20
34.3152613521052814
 30
0.0
 40
107.7138402099542986
 50
87.9886091483417232
 51
88.5323537501700883
  0
ARC
  5
2C046
  8
0
 10
3153.3949713792858347
 20
-34.5931964232627323
 30
0.0
 40
176.7428962883990948
 50
86.5209738100096786
 51
87.3643720866170668
  0
ARC
  5
2C047
  8
0
 10
3163.2652875608350769
 20
126.9151417873779053
 30
0.0
 40
14.9333313129151506
 50
77.419961602016059
 51
86.7177631869965211
  0
ARC
  5
2C048
  8
0
 10
3165.5212201619679036
 20
136.5964806640321001
 30
0.0
 40
4.9939345886440289
 50
67.1511671907499732
 51
78.4887053607817364
  0
ARC
  5
2C049
  8
0
 10
3166.3828670603320461
 20
138.6413771785261986
 30
0.0
 40
2.7749174340347511
 50
56.4525804087942191
 51
67.1511671907499732
  0
ARC
  5
2C04A
  8
0
 10
3167.2724987776859962
 20
139.983050161145286
 30
0.0
 40
1.1650941565245709
 50
45.2341090313467475
 51
56.4525804087942191
  0
ARC
  5
2C04B
  8
0
 10
3167.0487076673730371
 20
139.7075028583012966
 30
0.0
 40
1.5187332333000041
 50
34.977914100960632
 51
46.5604542849378973
  0
ARC
  5
2C04C
  8
0
 10
3166.9667097198139345
 20
139.6519287698340861
 30
0.0
 40
1.6177792495155821
 50
29.1458506169970484
 51
34.9258420770307225
  0
ARC
  5
2C04D
  8
0
 10
3166.6832442088848438
 20
139.5050002831285951
 30
0.0
 40
1.9369368266679281
 50
15.5135519139981497
 51
28.8579512290155513
  0
ARC
  5
2C04E
  8
0
 10
3165.9179937870958383
 20
139.2860503721587975
 30
0.0
 40
2.7328760154748299
 50
7.6161629774864101
 51
15.64551365420491
  0
ARC
  5
2C04F
  8
0
 10
3162.966222356005801
 20
138.9875400512322869
 30
0.0
 40
5.6989683779084457
 50
359.0957500526945978
 51
6.6576068281635372
  0
ARC
  5
2C050
  8
0
 10
3168.3790373835358878
 20
137.665934625143791
 30
0.0
 40
0.1575902497394067
 50
62.0030630455819676
 51
80.5123047448625329
  0
ARC
  5
2C051
  8
0
 10
3168.3114381795771806
 20
136.9557442879053895
 30
0.0
 40
0.870668080354582
 50
83.8301752347811941
 51
88.0371170391844799
  0
ARC
  5
2C052
  8
0
 10
3167.9390798457479832
 20
122.976067710489005
 30
0.0
 40
14.8552789347261793
 50
88.4486281108544148
 51
88.9485167302945996
  0
ARC
  5
2C053
  8
0
 10
3165.5200987091939169
 20
-97.6265046657350695
 30
0.0
 40
235.4707336486017084
 50
89.3450567445043191
 51
89.5488829241419921
  0
LINE
  5
2C054
  8
0
 10
3168.6644810107891317
 20
138.835431250819596
 30
0.0
 11
3168.572097539880815
 21
137.9135375364730862
 31
0.0
  0
ARC
  5
2C055
  8
0
 10
3167.7912171798448071
 20
137.9917899823902872
 30
0.0
 40
0.7847914257834216
 50
349.9412435603122162
 51
354.2774632501262886
  0
ARC
  5
2C056
  8
0
 10
3168.4943161539658831
 20
137.8670710876380952
 30
0.0
 40
0.0707165206657959
 50
341.2155420032993902
 51
349.9412435603122162
  0
ARC
  5
2C057
  8
0
 10
3168.5511122057491775
 20
137.8477533247969973
 30
0.0
 40
0.0107251257891717
 50
316.6414634578849814
 51
341.2155420032947859
  0
ARC
  5
2C058
  8
0
 10
3168.5578738977601461
 20
137.8418999707618866
 30
0.0
 40
0.0018314521192229
 50
270.6261883027644899
 51
304.458163133215578
  0
ARC
  5
2C059
  8
0
 10
3168.5574926546578354
 20
137.8441185751015894
 30
0.0
 40
0.0040697763988118
 50
250.0020122194420082
 51
275.6582577264799738
  0
LINE
  5
2C05A
  8
0
 10
3168.5561008434610812
 20
137.8402941873688121
 30
0.0
 11
3168.5399664273868439
 21
137.6718675172180042
 31
0.0
  0
ARC
  5
2C05B
  8
0
 10
3162.4862013419078721
 20
137.8559023478337053
 30
0.0
 40
0.0807640289220644
 50
116.056934267049698
 51
193.5860695662763078
  0
ARC
  5
2C05C
  8
0
 10
3162.8378958568841881
 20
137.8427849758516004
 30
0.0
 40
0.0894709937339605
 50
106.6973325234168044
 51
183.7518503072064107
  0
ARC
  5
2C05D
  8
0
 10
3163.8385987829478836
 20
137.7105854501768079
 30
0.0
 40
0.224680693680449
 50
104.1414013118858009
 51
145.7828318488388959
  0
ARC
  5
2C05E
  8
0
 10
3164.2932006553401152
 20
137.9277963224012922
 30
0.0
 40
0.0118287383255761
 50
176.7964160994715996
 51
270.0473772321461752
  0
LINE
  5
2C05F
  8
0
 10
3164.2932104363890176
 20
137.9159675881195994
 30
0.0
 11
3165.5678200627348815
 21
137.9159675881195994
 31
0.0
  0
ARC
  5
2C060
  8
0
 10
3165.5675535035761641
 20
137.9287329909907101
 30
0.0
 40
0.0127681856286333
 50
271.1962407861764746
 51
358.7630372688101943
  0
ARC
  5
2C061
  8
0
 10
3134.4615726121551234
 20
168.9761942919924138
 30
0.0
 40
43.935896275458127
 50
314.914244037340211
 51
315.0131728171821237
  0
ARC
  5
2C062
  8
0
 10
3165.4284195775321678
 20
137.9205223340321993
 30
0.0
 40
0.0793582376544351
 50
270.1682460438668727
 51
312.8688272308103819
  0
LINE
  5
2C063
  8
0
 10
3165.428652608487937
 20
137.8411644385195984
 30
0.0
 11
3164.4323783188888228
 21
137.8411644385195984
 31
0.0
  0
ARC
  5
2C064
  8
0
 10
3164.432367821103071
 20
137.9199046848270882
 30
0.0
 40
0.0787402470073234
 50
224.999917774374893
 51
270.0076387719806803
  0
LINE
  5
2C065
  8
0
 10
3164.3766899785891837
 20
137.8642270021196055
 30
0.0
 11
3164.3249479072710528
 21
137.9159692219485862
 31
0.0
  0
ARC
  5
2C066
  8
0
 10
3165.9426051016489509
 20
137.9781022464069906
 30
0.0
 40
0.0776969058627731
 50
219.7139988328536049
 51
266.8468650261074799
  0
LINE
  5
2C067
  8
0
 10
3165.9383313978878505
 20
137.900522966719592
 30
0.0
 11
3167.8171759755891799
 21
137.9002195566195894
 31
0.0
  0
ARC
  5
2C068
  8
0
 10
3167.8135302182008672
 20
137.9810190718461911
 30
0.0
 40
0.0808817235707961
 50
272.5834923134557926
 51
319.4690311273474208
  0
ARC
  5
2C069
  8
0
 10
3168.5474757238771417
 20
137.8413198499750933
 30
0.0
 40
0.0086858892247699
 50
353.2184752217096957
 51
52.2532173785969576
  0
ARC
  5
2C06A
  8
0
 10
3168.5460680875048638
 20
137.8435332520043062
 30
0.0
 40
0.0081786857722775
 50
34.6896073746742317
 51
89.6307510766501565
  0
LINE
  5
2C06B
  8
0
 10
3168.5461207955750069
 20
137.8517117679344892
 30
0.0
 11
3168.4640201979877929
 21
137.8500979740196044
 31
0.0
  0
ARC
  5
2C06C
  8
0
 10
3168.4650213231411726
 20
137.8418775588725111
 30
0.0
 40
0.0082811518982731
 50
96.9435861733837498
 51
171.8141301727694099
  0
LINE
  5
2C06D
  8
0
 10
3168.4568245447890149
 20
137.8430566693000969
 30
0.0
 11
3168.4530142716471346
 21
137.8050843688799034
 31
0.0
  0
LINE
  5
2C06E
  8
0
 10
3168.2324533288888233
 20
137.9284573591195908
 30
0.0
 11
3168.2324528035851472
 21
137.9095850958842959
 31
0.0
  0
ARC
  5
2C06F
  8
0
 10
3168.2448934944409302
 20
137.9095847496014926
 30
0.0
 40
0.0124406908606361
 50
179.9984051892475918
 51
267.1014206630554781
  0
ARC
  5
2C070
  8
0
 10
3168.3047584120408828
 20
135.2612103137196016
 30
0.0
 40
2.6366437272595298
 50
84.6329514320983662
 51
91.3146851043862142
  0
ARC
  5
2C071
  8
0
 10
3168.5517029459210789
 20
137.902387792950492
 30
0.0
 40
0.0160962654360397
 50
268.8462158734212153
 51
343.6328026367206121
  0
ARC
  5
2C072
  8
0
 10
3168.3357493956918916
 20
137.9658120557512859
 30
0.0
 40
0.2411708596674832
 50
343.6328026367206121
 51
349.6438705573133916
  0
LINE
  5
2C073
  8
0
 10
3168.3823551307709749
 20
137.8967119535861059
 30
0.0
 11
3168.3834960813878752
 21
137.8490384479196109
 31
0.0
  0
LINE
  5
2C074
  8
0
 10
3168.3834960813878752
 20
137.8490384479196109
 30
0.0
 11
3165.5709569901068789
 21
137.8490384542195955
 31
0.0
  0
ARC
  5
2C075
  8
0
 10
3165.5709569896548601
 20
137.6473183179261923
 30
0.0
 40
0.2017201362934453
 50
89.9999998716525624
 51
110.8002362634034057
  0
LINE
  5
2C076
  8
0
 10
3166.3375378040927899
 20
137.9004584998355085
 30
0.0
 11
3166.3375378040927899
 21
137.8490384542195955
 31
0.0
  0
LINE
  5
2C077
  8
0
 10
3166.3769246277470302
 20
137.9004521393518985
 30
0.0
 11
3166.3769246277470302
 21
137.8490384542195955
 31
0.0
  0
LINE
  5
2C078
  8
0
 10
3166.4041367449890458
 20
137.9004477449325066
 30
0.0
 11
3166.4041367449890458
 21
137.8490384542195955
 31
0.0
  0
LINE
  5
2C079
  8
0
 10
3166.4326268084892035
 20
137.9004431441404961
 30
0.0
 11
3166.4326268084892035
 21
137.8490384542195955
 31
0.0
  0
LINE
  5
2C07A
  8
0
 10
3167.8171759755891799
 20
137.9002195566195894
 30
0.0
 11
3167.8171759755891799
 21
137.8490384491882139
 31
0.0
  0
LINE
  5
2C07B
  8
0
 10
3167.78944095038878
 20
137.9002240354822106
 30
0.0
 11
3167.78944095038878
 21
137.8490384492502869
 31
0.0
  0
LINE
  5
2C07C
  8
0
 10
3167.7855933603891572
 20
137.9002246568203134
 30
0.0
 11
3167.7855933603891572
 21
137.8490384492588987
 31
0.0
  0
LINE
  5
2C07D
  8
0
 10
3167.6812848305889929
 20
137.900241501354401
 30
0.0
 11
3167.6812848305889929
 21
137.8490384494926104
 31
0.0
  0
LINE
  5
2C07E
  8
0
 10
3168.4707509079221381
 20
137.892623743001991
 30
0.0
 11
3168.4640201979877929
 21
137.8500979740196044
 31
0.0
  0
ARC
  5
2C07F
  8
0
 10
3168.4114741197240619
 20
137.8205524005556128
 30
0.0
 40
0.1098282156216336
 50
355.7654523006287945
 51
16.1701383469719318
  0
LINE
  5
2C080
  8
0
 10
3168.5210025191890963
 20
137.8124427361196069
 30
0.0
 11
3168.5145859718109023
 21
137.7455012120053937
 31
0.0
  0
LINE
  5
2C081
  8
0
 10
3168.213250009489002
 20
137.9284573591195908
 30
0.0
 11
3168.213250009489002
 21
137.8490384542195955
 31
0.0
  0
LINE
  5
2C082
  8
0
 10
3168.4384828668789851
 20
137.8118829767034015
 30
0.0
 11
3168.4391221485889218
 21
137.8287121609195935
 31
0.0
  0
ARC
  5
2C083
  8
0
 10
3168.4131291366711594
 20
137.8296995443166111
 30
0.0
 40
0.0260117587737526
 50
357.8245801581264232
 51
11.5735462503026696
  0
ARC
  5
2C084
  8
0
 10
3168.4518884461981543
 20
137.8286468447400068
 30
0.0
 40
0.0146830816309833
 50
154.7155650640956139
 51
174.3101851921589969
  0
ARC
  5
2C085
  8
0
 10
3168.8441158101099973
 20
137.7652731419427141
 30
0.0
 40
0.411970991892171
 50
170.9460705198218875
 51
173.3092097675531988
  0
ARC
  5
2C086
  8
0
 10
3168.4098584736998419
 20
137.8286076040137118
 30
0.0
 40
0.0181563264101952
 50
358.7222576643778211
 51
19.7288889490432204
  0
ARC
  5
2C087
  8
0
 10
3168.2029631341001732
 20
137.8235504632598065
 30
0.0
 40
0.2250952331733118
 50
358.0142563340880884
 51
1.184274827840047
  0
ARC
  5
2C088
  8
0
 10
3168.4493554394171042
 20
137.8235445370399077
 30
0.0
 40
0.0250461596450181
 50
153.4576752138025029
 51
166.3313400279332086
  0
ARC
  5
2C089
  8
0
 10
3168.625321436158174
 20
137.7885041100767012
 30
0.0
 40
0.204447686185137
 50
168.4431715808538002
 51
171.9047022863832979
  0
ARC
  5
2C08A
  8
0
 10
3168.3071752325331545
 20
137.8189644051608127
 30
0.0
 40
0.1044887355571141
 50
0.6291844746522802
 51
6.3809489726159008
  0
ARC
  5
2C08B
  8
0
 10
3168.3980765920268823
 20
137.8291300221854101
 30
0.0
 40
0.0130207251522206
 50
6.3809489726159008
 51
21.4298333837875283
  0
ARC
  5
2C08C
  8
0
 10
3168.4094096457129126
 20
137.8335782060568988
 30
0.0
 40
0.0008459789284925
 50
21.4298333837958594
 51
123.8516506318842971
  0
ARC
  5
2C08D
  8
0
 10
3168.4212846771479235
 20
137.8261831022427941
 30
0.0
 40
0.0147649228945885
 50
146.739942368954388
 51
167.0634842045107007
  0
ARC
  5
2C08E
  8
0
 10
3168.5051219366328041
 20
137.8024595445149885
 30
0.0
 40
0.1018783332891198
 50
164.6148246405419968
 51
169.3032899262414048
  0
ARC
  5
2C08F
  8
0
 10
3168.348294185685063
 20
137.8206598799390008
 30
0.0
 40
0.0392726326509468
 50
3.5393278030687201
 51
16.7119280216113104
  0
ARC
  5
2C090
  8
0
 10
3168.380477458400037
 20
137.8303226280125102
 30
0.0
 40
0.0056700770498014
 50
16.7119280216120885
 51
40.2063440193715707
  0
ARC
  5
2C091
  8
0
 10
3168.3839518171430427
 20
137.8332593482697064
 30
0.0
 40
0.0011208469451283
 50
40.2063440193952317
 51
131.5235100033198989
  0
ARC
  5
2C092
  8
0
 10
3168.4045269488560734
 20
137.8186302750874006
 30
0.0
 40
0.0263387676698361
 50
144.0357702531395034
 51
168.6579937586778897
  0
ARC
  5
2C093
  8
0
 10
3168.3318097997021141
 20
137.819695210696409
 30
0.0
 40
0.0213556981468818
 50
15.6313270413337708
 51
42.7609004025524868
  0
ARC
  5
2C094
  8
0
 10
3168.3631682230748083
 20
137.819695210696409
 30
0.0
 40
0.0213556981468818
 50
137.2390995974475061
 51
163.2487847726258963
  0
LINE
  5
2C095
  8
0
 10
3167.9265298479890589
 20
137.8490359259195941
 30
0.0
 11
3167.9265298479890589
 21
137.8319322062210972
 31
0.0
  0
LINE
  5
2C096
  8
0
 10
3166.9756091164890677
 20
137.8490384542195955
 30
0.0
 11
3166.9756091164890677
 21
137.8369304097033989
 31
0.0
  0
ENDSEC
  0
EOF
