  0
SECTION
  2
HEADER
  9
$ACADVER
  1
AC1009
  9
$INSBASE
 10
3196.7089404746279797
 20
201.1867975755864961
 30
0.0
  9
$EXTMIN
 10
3188.4267886681918753
 20
163.1959663827987015
 30
-0.0000000000112498
  9
$EXTMAX
 10
3220.9307959497500633
 20
201.2014982198141126
 30
0.0000000000002956
  9
$LIMMIN
 10
0.0
 20
0.0
  9
$LIMMAX
 10
11.6929133858000007
 20
8.2677165353999982
  9
$ORTHOMODE
 70
     0
  9
$REGENMODE
 70
     1
  9
$FILLMODE
 70
     1
  9
$QTEXTMODE
 70
     0
  9
$MIRRTEXT
 70
     0
  9
$DRAGMODE
 70
     2
  9
$LTSCALE
 40
0.6431102362
  9
$OSMODE
 70
  4095
  9
$ATTMODE
 70
     1
  9
$TEXTSIZE
 40
0.2
  9
$TRACEWID
 40
0.05
  9
$TEXTSTYLE
  7
STANDARD
  9
$CLAYER
  8
0
  9
$CELTYPE
  6
BYLAYER
  9
$CECOLOR
 62
   256
  9
$DIMSCALE
 40
1.0
  9
$DIMASZ
 40
0.1875
  9
$DIMEXO
 40
0.0625
  9
$DIMDLI
 40
0.4443307087
  9
$DIMRND
 40
0.0
  9
$DIMDLE
 40
0.0
  9
$DIMEXE
 40
0.125
  9
$DIMTP
 40
0.01
  9
$DIMTM
 40
0.01
  9
$DIMTXT
 40
2.0
  9
$DIMCEN
 40
0.1052362205
  9
$DIMTSZ
 40
0.0
  9
$DIMTOL
 70
     1
  9
$DIMLIM
 70
     0
  9
$DIMTIH
 70
     1
  9
$DIMTOH
 70
     1
  9
$DIMSE1
 70
     0
  9
$DIMSE2
 70
     0
  9
$DIMTAD
 70
     0
  9
$DIMZIN
 70
     0
  9
$DIMBLK
  1

  9
$DIMASO
 70
     1
  9
$DIMSHO
 70
     1
  9
$DIMPOST
  1
\X
  9
$DIMAPOST
  1

  9
$DIMALT
 70
     1
  9
$DIMALTD
 70
     2
  9
$DIMALTF
 40
25.3999999999999986
  9
$DIMLFAC
 40
1.0
  9
$DIMTOFL
 70
     0
  9
$DIMTVP
 40
0.0
  9
$DIMTIX
 70
     0
  9
$DIMSOXD
 70
     0
  9
$DIMSAH
 70
     0
  9
$DIMBLK1
  1

  9
$DIMBLK2
  1

  9
$DIMSTYLE
  2
STANDARD
  9
$DIMCLRD
 70
     0
  9
$DIMCLRE
 70
     0
  9
$DIMCLRT
 70
     0
  9
$DIMTFAC
 40
1.0
  9
$DIMGAP
 40
0.09
  9
$LUNITS
 70
     2
  9
$LUPREC
 70
     4
  9
$SKETCHINC
 40
0.1
  9
$FILLETRAD
 40
0.0
  9
$AUNITS
 70
     0
  9
$AUPREC
 70
     0
  9
$MENU
  1
.
  9
$ELEVATION
 40
0.0
  9
$PELEVATION
 40
0.0
  9
$THICKNESS
 40
0.0
  9
$LIMCHECK
 70
     0
  9
$BLIPMODE
 70
     0
  9
$CHAMFERA
 40
0.0
  9
$CHAMFERB
 40
0.0
  9
$SKPOLY
 70
     0
  9
$TDCREATE
 40
2458060.468368056230247
  9
$TDUPDATE
 40
2460164.6063657412305474
  9
$TDINDWG
 40
0.6905857639
  9
$TDUSRTIMER
 40
0.6905857639
  9
$USRTIMER
 70
     1
  9
$ANGBASE
 50
0.0
  9
$ANGDIR
 70
     0
  9
$PDMODE
 70
     0
  9
$PDSIZE
 40
0.3125
  9
$PLINEWID
 40
0.0
  9
$COORDS
 70
     1
  9
$SPLFRAME
 70
     0
  9
$SPLINETYPE
 70
     6
  9
$SPLINESEGS
 70
     8
  9
$ATTDIA
 70
     1
  9
$ATTREQ
 70
     1
  9
$HANDLING
 70
     1
  9
$HANDSEED
  5
2C512
  9
$SURFTAB1
 70
     6
  9
$SURFTAB2
 70
     6
  9
$SURFTYPE
 70
     6
  9
$SURFU
 70
     6
  9
$SURFV
 70
     6
  9
$UCSNAME
  2

  9
$UCSORG
 10
0.0
 20
0.0
 30
0.0
  9
$UCSXDIR
 10
1.0
 20
0.0
 30
0.0
  9
$UCSYDIR
 10
0.0
 20
1.0
 30
0.0
  9
$PUCSNAME
  2

  9
$PUCSORG
 10
0.0
 20
0.0
 30
0.0
  9
$PUCSXDIR
 10
1.0
 20
0.0
 30
0.0
  9
$PUCSYDIR
 10
0.0
 20
1.0
 30
0.0
  9
$USERI1
 70
     0
  9
$USERI2
 70
     0
  9
$USERI3
 70
     0
  9
$USERI4
 70
     0
  9
$USERI5
 70
     0
  9
$USERR1
 40
0.0
  9
$USERR2
 40
0.0
  9
$USERR3
 40
0.0
  9
$USERR4
 40
0.0
  9
$USERR5
 40
0.0
  9
$WORLDVIEW
 70
     1
  9
$SHADEDGE
 70
     3
  9
$SHADEDIF
 70
    70
  9
$TILEMODE
 70
     1
  9
$MAXACTVP
 70
    64
  9
$PLIMCHECK
 70
     0
  9
$PEXTMIN
 10
1.0000000000000000E+20
 20
1.0000000000000000E+20
 30
1.0000000000000000E+20
  9
$PEXTMAX
 10
-1.0000000000000000E+20
 20
-1.0000000000000000E+20
 30
-1.0000000000000000E+20
  9
$PLIMMIN
 10
0.0
 20
0.0
  9
$PLIMMAX
 10
12.0
 20
9.0
  9
$UNITMODE
 70
     0
  9
$VISRETAIN
 70
     1
  9
$PLINEGEN
 70
     0
  9
$PSLTSCALE
 70
     1
  0
ENDSEC
  0
SECTION
  2
TABLES
  0
TABLE
  2
VPORT
 70
     1
  0
VPORT
  2
*ACTIVE
 70
     0
 10
0.0
 20
0.0
 11
1.0
 21
1.0
 12
-6.4960123785294854
 22
35.712990980887362
 13
0.0
 23
0.0
 14
1.0
 24
1.0
 15
0.0
 25
0.0
 16
0.0
 26
0.0
 36
24.3507166897908292
 17
3211.1748046875
 27
146.4857413204190095
 37
0.0
 40
38.3326956691848082
 41
2.7227011494252871
 42
50.0
 43
0.0
 44
0.0
 50
0.0
 51
0.0
 71
     0
 72
   100
 73
     1
 74
     1
 75
     0
 76
     0
 77
     0
 78
     0
  0
ENDTAB
  0
TABLE
  2
LTYPE
 70
     2
  0
LTYPE
  2
CONTINUOUS
 70
     0
  3
Solid line
 72
    65
 73
     0
 40
0.0
  0
LTYPE
  2
PHANTOM2
 70
     0
  3
___ _ _ ___ _ _ ___ _ _ ___ _ _
 72
    65
 73
     6
 40
1.25
 49
0.625
 49
-0.125
 49
0.125
 49
-0.125
 49
0.125
 49
-0.125
  0
ENDTAB
  0
TABLE
  2
LAYER
 70
     2
  0
LAYER
  2
0
 70
     0
 62
   255
  6
CONTINUOUS
  0
LAYER
  2
DEFPOINTS
 70
     0
 62
     7
  6
CONTINUOUS
  0
ENDTAB
  0
TABLE
  2
STYLE
 70
     1
  0
STYLE
  2
STANDARD
 70
     0
 40
0.0
 41
0.8
 50
0.0
 71
     0
 42
0.2
  3
txt
  4

  0
ENDTAB
  0
TABLE
  2
VIEW
 70
     0
  0
ENDTAB
  0
TABLE
  2
UCS
 70
     0
  0
ENDTAB
  0
TABLE
  2
APPID
 70
     9
  0
APPID
  2
ACAD
 70
     0
  0
APPID
  2
ACAD_MLEADERVER
 70
     0
  0
APPID
  2
ACAD_EXEMPT_FROM_CAD_STANDARDS
 70
     0
  0
APPID
  2
ACAD_NAV_VCDISPLAY
 70
     0
  0
APPID
  2
ACAECLAYERSTANDARD
 70
     0
  0
APPID
  2
ACCMTRANSPARENCY
 70
     0
  0
APPID
  2
ACAD_DSTYLE_DIMJAG
 70
     0
  0
APPID
  2
ACAD_DSTYLE_DIMTALN
 70
     0
  0
APPID
  2
ACDBATTR
 70
     0
  0
ENDTAB
  0
TABLE
  2
DIMSTYLE
 70
     1
  0
DIMSTYLE
  2
STANDARD
 70
     0
  3

  4

  5

  6

  7

 40
1.0
 41
0.1875
 42
0.0625
 43
0.38
 44
0.125
 45
0.0
 46
0.0
 47
0.01
 48
0.01
140
0.15625
141
0.09
142
0.0
143
25.3999999999999986
144
1.0
145
0.0
146
1.0
147
0.09
 71
     1
 72
     0
 73
     1
 74
     1
 75
     0
 76
     0
 77
     0
 78
     4
170
     0
171
     2
172
     0
173
     0
174
     0
175
     0
176
     0
177
     0
178
     0
  0
ENDTAB
  0
ENDSEC
  0
SECTION
  2
BLOCKS
  0
BLOCK
  8
0
  2
$MODEL_SPACE
 70
     0
 10
0.0
 20
0.0
 30
0.0
  3
$MODEL_SPACE
  1

  0
ENDBLK
  5
21
  8
0
  0
BLOCK
 67
     1
  8
0
  2
$PAPER_SPACE
 70
     0
 10
0.0
 20
0.0
 30
0.0
  3
$PAPER_SPACE
  1

  0
ENDBLK
  5
1D
 67
     1
  8
0
  0
BLOCK
  8
0
  2
_FILLED
 70
     0
 10
0.0
 20
0.0
 30
0.0
  3
_FILLED
  1

  0
SOLID
  5
2B869
  8
0
  6
BYBLOCK
 62
     0
 10
0.0
 20
0.0
 30
0.0
 11
-1.0
 21
0.1666666667
 31
0.0
 12
-1.0
 22
-0.1666666667
 32
0.0
 13
-1.0
 23
-0.1666666667
 33
0.0
  0
ENDBLK
  5
2B86A
  8
0
  6
BYBLOCK
 62
     0
  0
ENDSEC
  0
SECTION
  2
ENTITIES
  0
ATTDEF
  5
2B53F
  8
DEFPOINTS
 10
3196.7002378450029028
 20
201.1909434515708881
 30
0.0
 40
0.001
  1
K-77797T-EXSG
  3

  2
MODELNUMBER
 70
     0
1001
ACDBATTR
1070
     0
1070
     1
  0
ATTDEF
  5
2B540
  8
DEFPOINTS
 10
3196.7002378450029028
 20
201.1892767849041945
 30
0.0
 40
0.001
  1
EIR
  3

  2
TRADENAME
 70
     0
1001
ACDBATTR
1070
     0
1070
     1
  0
ATTDEF
  5
2B541
  8
DEFPOINTS
 10
3196.7002378450029028
 20
201.1876101182375862
 30
0.0
 40
0.001
  1
TOILET
  3

  2
PRODUCT
 70
     0
1001
ACDBATTR
1070
     0
1070
     1
  0
LINE
  5
2C1DC
  8
0
 10
3191.5851848997440356
 20
201.1867975755864961
 30
0.0
 11
3201.8326960495119238
 21
201.1867975755864961
 31
0.0
  0
ARC
  5
2C1DD
  8
0
 10
3191.8824169799349875
 20
188.1334417314766938
 30
0.0
 40
13.0567394744036296
 50
91.3044309436491943
 51
96.8062261547802052
  0
ARC
  5
2C1DE
  8
0
 10
3190.7769797890891823
 20
197.3870450050160059
 30
0.0
 40
3.7373424156993789
 50
96.7911263643568844
 51
111.5975668337976998
  0
ARC
  5
2C1DF
  8
0
 10
3189.863763099910102
 20
199.6938532787062002
 30
0.0
 40
1.256348837924651
 50
111.5975668337976998
 51
149.7995157848320105
  0
ARC
  5
2C1E0
  8
0
 10
3190.6454832725439701
 20
199.3158518246669928
 30
0.0
 40
2.1231542562731631
 50
151.5952265860576915
 51
172.0338846473495096
  0
ARC
  5
2C1E1
  8
0
 10
3195.3863317532368455
 20
198.6350778006122084
 30
0.0
 40
6.912622588647463
 50
171.8914646864421911
 51
179.9555010288551955
  0
ARC
  5
2C1E2
  8
0
 10
2978.9654361047660132
 20
193.2009390325032996
 30
0.0
 40
209.5788767879824945
 50
0.0349860245612403
 51
1.48724827401802
  0
ARC
  5
2C1E3
  8
0
 10
3188.563859280709039
 20
193.3298611341031119
 30
0.0
 40
0.0196084269804846
 50
182.7734130260834036
 51
248.2533507954074139
  0
ARC
  5
2C1E4
  8
0
 10
3188.5678018257071926
 20
193.3428316558278084
 30
0.0
 40
0.0331363196390813
 50
250.231237887791707
 51
266.5439999846037153
  0
ARC
  5
2C1E5
  8
0
 10
3196.7647323569271975
 20
258.5773374703039167
 30
0.0
 40
65.7805416872189284
 50
262.8399969920994863
 51
263.3088812154637139
  0
ARC
  5
2C1E6
  8
0
 10
3196.715270447815783
 20
258.1887364551841983
 30
0.0
 40
65.3888245118817935
 50
263.3122516139823119
 51
264.5702502931940785
  0
ARC
  5
2C1E7
  8
0
 10
3196.7089009071451073
 20
258.1254167369023094
 30
0.0
 40
65.3251861930010449
 50
264.5705566746394766
 51
270.0000347040697193
  0
ARC
  5
2C1E8
  8
0
 10
3196.7342320844500136
 20
258.2498003215521862
 30
0.0
 40
65.529417629456475
 50
262.835915874954992
 51
263.073412585301412
  0
ARC
  5
2C1E9
  8
0
 10
3196.7058658312162152
 20
258.016302769111519
 30
0.0
 40
65.2942033626307108
 50
263.073412585301412
 51
265.6330254299350031
  0
ARC
  5
2C1EA
  8
0
 10
3196.7096563681479893
 20
258.0659392062590882
 30
0.0
 40
65.3439843234786366
 50
265.633025429987299
 51
269.9993722807482754
  0
ARC
  5
2C1EB
  8
0
 10
3188.5606398348450057
 20
193.2154699223335967
 30
0.0
 40
0.0165500366599288
 50
85.3792135184419863
 51
161.8239463765814037
  0
ARC
  5
2C1EC
  8
0
 10
3574.566952550258975
 20
195.5131999228140955
 30
0.0
 40
386.0288446138027894
 50
180.3402730424456024
 51
180.4538973789865963
  0
ARC
  5
2C1ED
  8
0
 10
3368.0935766617490117
 20
193.0687848099574921
 30
0.0
 40
179.5444043217393073
 50
180.1958348260299942
 51
182.1615474065702927
  0
ARC
  5
2C1EE
  8
0
 10
3224.1825981931988281
 20
187.1221092338998915
 30
0.0
 40
35.51526063463605
 50
181.3314426136807072
 51
188.0702881074439006
  0
ARC
  5
2C1EF
  8
0
 10
3203.0271585559657979
 20
184.0383588269399979
 30
0.0
 40
14.1366560656454201
 50
187.7328955041606946
 51
207.2881510837345047
  0
ARC
  5
2C1F0
  8
0
 10
3197.9768121916740711
 20
181.602123812746612
 30
0.0
 40
8.5327457728545202
 50
208.2974362250448905
 51
222.8450275404692889
  0
ARC
  5
2C1F1
  8
0
 10
3196.9125142810780744
 20
180.6544384752070016
 30
0.0
 40
7.1080230855446098
 50
223.0780042579175131
 51
232.9170893187749982
  0
ARC
  5
2C1F2
  8
0
 10
3196.657397981037775
 20
180.360108852698886
 30
0.0
 40
6.7194405695294757
 50
233.1392198756626897
 51
247.6361375401122018
  0
ARC
  5
2C1F3
  8
0
 10
3196.6408422282561332
 20
180.4248979960854911
 30
0.0
 40
6.7731753130939296
 50
247.9741865905859868
 51
262.062670127592412
  0
ARC
  5
2C1F4
  8
0
 10
3197.0400639542290264
 20
181.930305570096607
 30
0.0
 40
8.3214021278927053
 50
260.7714504200749275
 51
265.6445617958225967
  0
ARC
  5
2C1F5
  8
0
 10
3197.1436942497330165
 20
202.3142847566159901
 30
0.0
 40
28.6907813000395606
 50
268.5308641830355896
 51
269.1317590988318784
  0
ARC
  5
2C1F6
  8
0
 10
3188.6861857403141585
 20
193.3009205396616892
 30
0.0
 40
0.0293420301145018
 50
184.9882741856563939
 51
203.4079726340418972
  0
ARC
  5
2C1F7
  8
0
 10
3188.6669786146821934
 20
193.2934600255564135
 30
0.0
 40
0.0087868302287481
 50
208.5270503700340043
 51
268.3505372819964236
  0
LINE
  5
2C1F8
  8
0
 10
3188.6667256894738784
 20
193.2846768362547891
 30
0.0
 11
3188.6885376503241787
 21
193.2848638950019904
 31
0.0
  0
ARC
  5
2C1F9
  8
0
 10
3188.6884197208551086
 20
193.2927536855789867
 30
0.0
 40
0.0078906718793987
 50
270.8563418342235991
 51
344.7333726395405051
  0
ARC
  5
2C1FA
  8
0
 10
3188.7002860370298549
 20
193.2929271878826967
 30
0.0
 40
0.0048117610697333
 50
172.075305040663892
 51
207.8708784122437123
  0
LINE
  5
2C1FB
  8
0
 10
3188.6960324241281342
 20
193.2906777831020122
 30
0.0
 11
3188.7172109177381571
 21
193.2905193783192033
 31
0.0
  0
LINE
  5
2C1FC
  8
0
 10
3188.7174381931499738
 20
193.2908852367744998
 30
0.0
 11
3188.6789553890280331
 21
193.2289372276345034
 31
0.0
  0
ARC
  5
2C1FD
  8
0
 10
3188.7067640427080732
 20
193.2116621773579936
 30
0.0
 40
0.0327375714052118
 50
148.1509820764958931
 51
169.005906158820693
  0
LINE
  5
2C1FE
  8
0
 10
3188.8308003428278425
 20
193.2770120930020141
 30
0.0
 11
3188.8315479491270708
 21
193.1986499988020114
 31
0.0
  0
LINE
  5
2C1FF
  8
0
 10
3189.1001330344902271
 20
193.2448525803928021
 30
0.0
 11
3189.1008535137061699
 21
193.1665010700228891
 31
0.0
  0
LINE
  5
2C200
  8
0
 10
3189.4195699080351005
 20
193.208192254019508
 30
0.0
 11
3189.4245193943270351
 21
193.1293928582020101
 31
0.0
  0
LINE
  5
2C201
  8
0
 10
3189.4495511867039568
 20
193.2048331047051875
 30
0.0
 11
3189.4546870691801814
 21
193.1259845442669132
 31
0.0
  0
LINE
  5
2C202
  8
0
 10
3189.5042160651278209
 20
193.1987611615020057
 30
0.0
 11
3189.5042160651278209
 21
193.1205018059019949
 31
0.0
  0
ARC
  5
2C203
  8
0
 10
3189.5239011045268853
 20
193.1684122163019879
 30
0.0
 40
0.0196850394000041
 50
180.0
 51
263.3465384967773275
  0
ARC
  5
2C204
  8
0
 10
3196.6641894297731596
 20
254.3798270138377973
 30
0.0
 40
61.6461486640768115
 50
263.3465384967773275
 51
264.2670040151771786
  0
ARC
  5
2C205
  8
0
 10
3190.5081511912749193
 20
193.0616080235184029
 30
0.0
 40
0.0196869212620634
 50
264.2670040151771218
 51
359.9939452657333732
  0
LINE
  5
2C206
  8
0
 10
3190.5278381124271618
 20
193.0933137886044051
 30
0.0
 11
3190.5278381124271618
 21
193.0150338102176022
 31
0.0
  0
LINE
  5
2C207
  8
0
 10
3190.5701421606268013
 20
193.0110903908019964
 30
0.0
 11
3190.572188031027963
 21
193.0544406427812874
 31
0.0
  0
ARC
  5
2C208
  8
0
 10
3190.6347724460060817
 20
193.0514870359095028
 30
0.0
 40
0.0626540724273031
 50
144.3398949755903118
 51
177.2979896665424064
  0
LINE
  5
2C209
  8
0
 10
3190.8033723359249052
 20
193.0677140150511946
 30
0.0
 11
3190.8043240621282166
 21
192.9893809744019961
 31
0.0
  0
LINE
  5
2C20A
  8
0
 10
3220.7876644178099923
 20
163.2096843336005065
 30
0.0
 11
3220.7089376874550908
 21
163.2083097685799089
 31
0.0
  0
LINE
  5
2C20B
  8
0
 10
3220.7089376874550908
 20
163.2083097685799089
 30
0.0
 11
3220.7089376874550908
 21
168.7319318159800048
 31
0.0
  0
LINE
  5
2C20C
  8
0
 10
3220.7089376874550908
 20
168.7319318159800048
 30
0.0
 11
3220.7876644178099923
 21
168.7319318159800048
 31
0.0
  0
LINE
  5
2C20D
  8
0
 10
3220.7010664582271602
 20
163.2083097685120094
 30
0.0
 11
3219.9208347089511335
 21
163.2220655196798873
 31
0.0
  0
ARC
  5
2C20E
  8
0
 10
3219.8806017417009571
 20
163.3031621908909869
 30
0.0
 40
0.0905282372261356
 50
271.2309133420956755
 51
296.3865248056334281
  0
LINE
  5
2C20F
  8
0
 10
3219.8825464546348485
 20
163.2126548440793954
 30
0.0
 11
3219.6459829477621497
 21
163.2084760855921104
 31
0.0
  0
ARC
  5
2C210
  8
0
 10
3219.6435181734191247
 20
163.2907677283228907
 30
0.0
 40
0.0823285465431033
 50
232.2664316092746049
 51
271.7155929243809851
  0
ARC
  5
2C211
  8
0
 10
3219.7389460989411418
 20
163.3967541625304989
 30
0.0
 40
0.2248009270804764
 50
198.8053624594305973
 51
229.5617486719634996
  0
ARC
  5
2C212
  8
0
 10
3220.7434618010479426
 20
163.7431587619713866
 30
0.0
 40
1.2873662202475871
 50
185.1866781295917121
 51
198.987983240426189
  0
ARC
  5
2C213
  8
0
 10
3234.0064179112600868
 20
164.4851357601212953
 30
0.0
 40
14.5703564823064102
 50
181.6680257362851876
 51
183.3773147754008903
  0
ARC
  5
2C214
  8
0
 10
3217.6527102024979285
 20
164.0581699770347939
 30
0.0
 40
1.789527533150983
 50
0.0911082686606926
 51
1.0515067736082371
  0
ARC
  5
2C215
  8
0
 10
3250.7048666114351363
 20
164.2607268574413126
 30
0.0
 40
31.2633908954689588
 50
180.1070035838511956
 51
180.3110381550152113
  0
ARC
  5
2C216
  8
0
 10
3245.0660161975720257
 20
167.6880798013706055
 30
0.0
 40
25.624531446747941
 50
179.6068112132834074
 51
179.8920443440711949
  0
ARC
  5
2C217
  8
0
 10
3227.0970789612620138
 20
167.809468135343991
 30
0.0
 40
7.6551845433336316
 50
177.3705999138801133
 51
179.5924087223588117
  0
ARC
  5
2C218
  8
0
 10
3221.8499025774390248
 20
168.0504391104823014
 30
0.0
 40
2.402477906388536
 50
171.0204508179469087
 51
177.3705999138801133
  0
ARC
  5
2C219
  8
0
 10
3220.4824832387589595
 20
168.2665167630283918
 30
0.0
 40
1.0180916886998399
 50
163.5265442944821928
 51
171.0204508179477045
  0
ARC
  5
2C21A
  8
0
 10
3220.180136768336979
 20
168.3559235256120132
 30
0.0
 40
0.7028029997619445
 50
154.7815137266690044
 51
163.5265442944821928
  0
ARC
  5
2C21B
  8
0
 10
3219.7437891608051359
 20
168.5492593180451877
 30
0.0
 40
0.2259372675793438
 50
140.6960408028656104
 51
151.9893126856134984
  0
ARC
  5
2C21C
  8
0
 10
3219.6603497528749358
 20
168.6170221523520922
 30
0.0
 40
0.1184495843868613
 50
115.9537168937198999
 51
140.4934865586625108
  0
ARC
  5
2C21D
  8
0
 10
3219.6447047258111525
 20
168.646348010062411
 30
0.0
 40
0.0852432507609526
 50
82.6426749727931451
 51
115.1250153767876014
  0
ARC
  5
2C21E
  8
0
 10
3219.6386216543719456
 20
168.6415712195147876
 30
0.0
 40
0.0909214615332725
 50
61.1187442201087023
 51
79.2243266590066781
  0
ARC
  5
2C21F
  8
0
 10
3219.5843600458588298
 20
168.580943325119506
 30
0.0
 40
0.1711901380661985
 50
22.9408759039465195
 51
55.0058519419938108
  0
ARC
  5
2C220
  8
0
 10
3219.0498497842468169
 20
168.3422350358565893
 30
0.0
 40
0.7565558457295873
 50
10.6370090324337898
 51
23.8107943820479804
  0
ARC
  5
2C221
  8
0
 10
3216.697098373630979
 20
167.9542294205072892
 30
0.0
 40
3.1409451293106461
 50
359.307178272369697
 51
9.6711224447613926
  0
ARC
  5
2C222
  8
0
 10
3200.0478235589907854
 20
167.6981451224384898
 30
0.0
 40
19.7911921438424905
 50
359.8470594058995857
 51
0.6314293926771823
  0
LINE
  5
2C223
  8
0
 10
3219.8389451942512096
 20
167.6453162209799075
 30
0.0
 11
3219.8389458594501775
 21
164.2949225286118917
 31
0.0
  0
ARC
  5
2C224
  8
0
 10
3207.6312554221940445
 20
164.2432889931776003
 30
0.0
 40
12.2077996310930104
 50
357.710140104074128
 51
0.2423362143042768
  0
ARC
  5
2C225
  8
0
 10
3218.0439979894331373
 20
163.8269158376876931
 30
0.0
 40
1.7867356558453009
 50
352.7887337957891987
 51
357.710140104074128
  0
ARC
  5
2C226
  8
0
 10
3218.0766747616899011
 20
163.8227812733435087
 30
0.0
 40
1.753798350742036
 50
344.7839546255818846
 51
352.7887337957891987
  0
ARC
  5
2C227
  8
0
 10
3219.4171345548052159
 20
163.4581832785870859
 30
0.0
 40
0.364638836958432
 50
326.0824032394201026
 51
344.7839546255818846
  0
ARC
  5
2C228
  8
0
 10
3219.6200951502578391
 20
163.3217089196978975
 30
0.0
 40
0.1200611316349827
 50
299.5616489594813174
 51
326.0824032394201026
  0
ARC
  5
2C229
  8
0
 10
3219.645914247669225
 20
163.2761881709353133
 30
0.0
 40
0.0677279265066374
 50
272.5746966911297022
 51
299.5616489594817153
  0
LINE
  5
2C22A
  8
0
 10
3219.6469709998500548
 20
168.7315611299576119
 30
0.0
 11
3219.8839532474507905
 21
168.7276101422800139
 31
0.0
  0
ARC
  5
2C22B
  8
0
 10
3219.8825818909358532
 20
168.6453554819846943
 30
0.0
 40
0.0822660911857438
 50
61.373936677503302
 51
89.0448485050661844
  0
ARC
  5
2C22C
  8
0
 10
3219.8542580295861626
 20
168.5994746800336941
 30
0.0
 40
0.1361388512716392
 50
28.1935350503365285
 51
60.1615047120203101
  0
ARC
  5
2C22D
  8
0
 10
3219.5603180991661247
 20
168.4337354196221099
 30
0.0
 40
0.473563314752601
 50
14.7390964203783703
 51
29.0650631650072988
  0
ARC
  5
2C22E
  8
0
 10
3218.763875601196105
 20
168.2006141262573067
 30
0.0
 40
1.303308420278158
 50
5.3426136940935036
 51
15.7424022290012005
  0
ARC
  5
2C22F
  8
0
 10
3212.2735440548981387
 20
167.7439846502454088
 30
0.0
 40
7.8093959451805199
 50
359.2760733754229818
 51
4.2444046844149543
  0
LINE
  5
2C230
  8
0
 10
3220.0823166593509086
 20
167.6453163141800076
 30
0.0
 11
3220.0823181031628337
 21
164.2949226334903017
 31
0.0
  0
ARC
  5
2C231
  8
0
 10
3200.4939399014460832
 20
164.2556166296456013
 30
0.0
 40
19.5884176373551213
 50
359.1556101498143221
 51
0.1149694519905431
  0
ARC
  5
2C232
  8
0
 10
3216.6110507986882112
 20
164.0180753951154031
 30
0.0
 40
3.4695563403499752
 50
350.4191370623548778
 51
359.1556101498143221
  0
ARC
  5
2C233
  8
0
 10
3219.2732289889268031
 20
163.6043089214743986
 30
0.0
 40
0.7764376150358471
 50
338.439016123353781
 51
347.8283921598131201
  0
ARC
  5
2C234
  8
0
 10
3219.6577316506100033
 20
163.4588567931432976
 30
0.0
 40
0.365437085991745
 50
331.8110852545846114
 51
337.4940190012047765
  0
ARC
  5
2C235
  8
0
 10
3219.780171271234849
 20
163.3932357410174063
 30
0.0
 40
0.2265213446907239
 50
323.1004855441420887
 51
331.8110852545846114
  0
ARC
  5
2C236
  8
0
 10
3219.8459068675379058
 20
163.3438809303156916
 30
0.0
 40
0.1443199702463349
 50
310.9191653839940841
 51
323.1004855441414065
  0
ARC
  5
2C237
  8
0
 10
3219.8870511669529151
 20
163.2964147440121963
 30
0.0
 40
0.0815036330676471
 50
297.294014157246977
 51
310.9191653839930041
  0
ARC
  5
2C238
  8
0
 10
3219.9881958535238482
 20
163.1004002612216084
 30
0.0
 40
0.1390681808285072
 50
117.2940141572469059
 51
118.9715297923391972
  0
ARC
  5
2C239
  8
0
 10
3220.082424271166019
 20
166.0913087961831138
 30
0.0
 40
0.2100430668274634
 50
90.0289059915455709
 51
98.1744890683432203
  0
ARC
  5
2C23A
  8
0
 10
3220.068683703545048
 20
166.1869634031301075
 30
0.0
 40
0.113406598407216
 50
98.1744890683432203
 51
141.1257471873080931
  0
ARC
  5
2C23B
  8
0
 10
3220.0923453844789037
 20
166.1777327228278125
 30
0.0
 40
0.1378343514613792
 50
144.3132348539141105
 51
184.4785500147575874
  0
LINE
  5
2C23C
  8
0
 10
3219.9549318913509524
 20
166.1669698073798997
 30
0.0
 11
3219.9549324640561281
 21
165.7732690200805905
 31
0.0
  0
ARC
  5
2C23D
  8
0
 10
3220.2482511325151791
 20
165.7693314752997082
 30
0.0
 40
0.2933450963042443
 50
179.2309008206399028
 51
186.2505189842675009
  0
ARC
  5
2C23E
  8
0
 10
3220.0665703468689571
 20
165.7512830351741968
 30
0.0
 40
0.1107945707701343
 50
187.2018364906961949
 51
231.6192622937498129
  0
ARC
  5
2C23F
  8
0
 10
3220.0654299961288416
 20
165.747305202959808
 30
0.0
 40
0.1069799203850306
 50
230.7752457913410069
 51
263.152903299307809
  0
ARC
  5
2C240
  8
0
 10
3220.0824901030568981
 20
165.8417176512845117
 30
0.0
 40
0.2028325300102331
 50
261.5474917723067847
 51
269.9511550950816741
  0
ARC
  5
2C241
  8
0
 10
2437.4446670644138067
 20
45000.9080846453216509
 30
0.0
 40
44839.0178410027874634
 50
270.9999072475802109
 51
271.0000594526305235
  0
ARC
  5
2C242
  8
0
 10
8790.0349119372367568
 20
-315180.9577842365833931
 30
0.0
 40
315398.8653807950904593
 50
91.0117852164920862
 51
91.0119053344264444
  0
LINE
  5
2C243
  8
0
 10
3220.7010664582271602
 20
168.7319318156422128
 30
0.0
 11
3220.7010664582271602
 21
163.2083097685120094
 31
0.0
  0
LINE
  5
2C244
  8
0
 10
3220.7010664582271602
 20
163.2142152802310875
 30
0.0
 11
3220.7089376874550908
 21
163.2143526730463918
 31
0.0
  0
LINE
  5
2C245
  8
0
 10
3220.7089376874550908
 20
168.7258889110541986
 30
0.0
 11
3220.7010664582271602
 21
168.7260263039109134
 31
0.0
  0
ARC
  5
2C246
  8
0
 10
3190.1116313643560716
 20
201.1035940313416859
 30
0.0
 40
0.2261105256111975
 50
358.704288185285975
 51
7.5857050891774804
  0
ARC
  5
2C247
  8
0
 10
3190.3280052851191613
 20
201.1312067076115966
 30
0.0
 40
0.0080735996326336
 50
16.0781355837341309
 51
94.6574294000302245
  0
ARC
  5
2C248
  8
0
 10
3190.4176287293771566
 20
199.7212187670741912
 30
0.0
 40
1.4209057754020229
 50
93.6428118789377777
 51
104.0701655672560975
  0
ARC
  5
2C249
  8
0
 10
3190.2025650087311988
 20
200.5857806741495892
 30
0.0
 40
0.5300000175593182
 50
104.2401149655499069
 51
121.2961158353883064
  0
ARC
  5
2C24A
  8
0
 10
3190.3272078359068473
 20
201.0971427598954051
 30
0.0
 40
0.0078970525389006
 50
7.4419982437036714
 51
90.4232292870776035
  0
ARC
  5
2C24B
  8
0
 10
3190.9498197147631799
 20
196.1159231068272106
 30
0.0
 40
5.027822744001603
 50
97.1140551932110725
 51
101.7386569152003943
  0
ARC
  5
2C24C
  8
0
 10
3190.3787206255578894
 20
198.6392332896027142
 30
0.0
 40
2.4415262082724909
 50
100.6639656731481978
 51
117.2964870909211044
  0
ARC
  5
2C24D
  8
0
 10
3189.7687886192620681
 20
199.8498593808924966
 30
0.0
 40
1.0860770495666441
 50
117.9914914587931065
 51
144.2204423964020918
  0
ARC
  5
2C24E
  8
0
 10
3201.5354639693200625
 20
188.1334417314766938
 30
0.0
 40
13.0567394744036296
 50
83.1937738452197806
 51
88.6955690563508341
  0
ARC
  5
2C24F
  8
0
 10
3202.6409011601658676
 20
197.3870450050160059
 30
0.0
 40
3.7373424156993789
 50
68.4024331662022576
 51
83.2088736356431156
  0
ARC
  5
2C250
  8
0
 10
3203.5541178493440384
 20
199.6938532787062002
 30
0.0
 40
1.256348837924651
 50
30.2004842151680286
 51
68.4024331662022576
  0
ARC
  5
2C251
  8
0
 10
3202.7723976767110798
 20
199.3158518246669928
 30
0.0
 40
2.1231542562731631
 50
7.9661153526504638
 51
28.4047734139422303
  0
ARC
  5
2C252
  8
0
 10
3198.0315491960168401
 20
198.6350778006122084
 30
0.0
 40
6.912622588647463
 50
0.0444989711448052
 51
8.1085353135577876
  0
ARC
  5
2C253
  8
0
 10
3414.4524448444890368
 20
193.2009390325032996
 30
0.0
 40
209.5788767879824945
 50
178.5127517259820138
 51
179.9650139754388078
  0
ARC
  5
2C254
  8
0
 10
3204.8540216685451014
 20
193.3298611341031119
 30
0.0
 40
0.0196084269804846
 50
291.7466492045925861
 51
357.2265869739156869
  0
ARC
  5
2C255
  8
0
 10
3204.8500791235478573
 20
193.3428316558278084
 30
0.0
 40
0.0331363196390813
 50
273.4560000153962847
 51
289.7687621122083215
  0
ARC
  5
2C256
  8
0
 10
3196.6531485923292166
 20
258.5773374703039167
 30
0.0
 40
65.7805416872189284
 50
276.6911187845362861
 51
277.1600030079004
  0
ARC
  5
2C257
  8
0
 10
3196.7026105014388122
 20
258.1887364551841983
 30
0.0
 40
65.3888245118817935
 50
275.4297497068059783
 51
276.6877483860176881
  0
ARC
  5
2C258
  8
0
 10
3196.708980042127223
 20
258.1254167367695231
 30
0.0
 40
65.3251861928673918
 50
269.9999652959043033
 51
275.4294637820964908
  0
ARC
  5
2C259
  8
0
 10
3196.6836488648041268
 20
258.2498003215521862
 30
0.0
 40
65.529417629456475
 50
276.9265874146987017
 51
277.164084125045008
  0
ARC
  5
2C25A
  8
0
 10
3196.7120151180388348
 20
258.016302769111519
 30
0.0
 40
65.2942033626307108
 50
274.3669745700649969
 51
276.9265874146987017
  0
ARC
  5
2C25B
  8
0
 10
3196.7082245811070607
 20
258.0659392062590882
 30
0.0
 40
65.3439843234786366
 50
270.0006277192517246
 51
274.366974570012701
  0
ARC
  5
2C25C
  8
0
 10
3204.8572411144091348
 20
193.2154699223335967
 30
0.0
 40
0.0165500366599288
 50
18.1760536234186105
 51
94.6207864815580137
  0
ARC
  5
2C25D
  8
0
 10
2818.850928398996075
 20
195.5131999228140955
 30
0.0
 40
386.0288446138027894
 50
359.54610262101329
 51
359.6597269575535165
  0
ARC
  5
2C25E
  8
0
 10
3025.3243042875051287
 20
193.0687848099574921
 30
0.0
 40
179.5444043217393073
 50
357.8384525934296221
 51
359.8041651739691247
  0
ARC
  5
2C25F
  8
0
 10
3169.2352827560548576
 20
187.1221092338998915
 30
0.0
 40
35.51526063463605
 50
351.9297118925553036
 51
358.6685573863192076
  0
ARC
  5
2C260
  8
0
 10
3190.3907223932887973
 20
184.0383588269399979
 30
0.0
 40
14.1366560656454201
 50
332.71184891626541
 51
352.2671044958383959
  0
ARC
  5
2C261
  8
0
 10
3195.4410687575800694
 20
181.602123812746612
 30
0.0
 40
8.5327457728545202
 50
317.1549724595307111
 51
331.702563774955081
  0
ARC
  5
2C262
  8
0
 10
3196.5053666681769755
 20
180.6544384752070016
 30
0.0
 40
7.1080230855446098
 50
307.0829106812245186
 51
316.9219957420825153
  0
ARC
  5
2C263
  8
0
 10
3196.7604829682159107
 20
180.360108852698886
 30
0.0
 40
6.7194405695294757
 50
292.3638624598876845
 51
306.8607801243372819
  0
ARC
  5
2C264
  8
0
 10
3196.7770387209989167
 20
180.4248979960854911
 30
0.0
 40
6.7731753130939296
 50
277.9373298724077017
 51
292.0258134094140132
  0
ARC
  5
2C265
  8
0
 10
3196.3778169950260235
 20
181.930305570096607
 30
0.0
 40
8.3214021278927053
 50
274.3554382041774033
 51
279.2285495799250157
  0
ARC
  5
2C266
  8
0
 10
3196.274186699521124
 20
202.3142847566159901
 30
0.0
 40
28.6907813000395606
 50
270.8682409011680079
 51
271.4691358169642967
  0
ARC
  5
2C267
  8
0
 10
3204.7316952089408915
 20
193.3009205396616892
 30
0.0
 40
0.0293420301145018
 50
336.5920273659580744
 51
355.0117258143436061
  0
ARC
  5
2C268
  8
0
 10
3204.750902334571947
 20
193.2934600255564135
 30
0.0
 40
0.0087868302287481
 50
271.6494627180035764
 51
331.4729496299660241
  0
LINE
  5
2C269
  8
0
 10
3204.7511552597798072
 20
193.2846768362547891
 30
0.0
 11
3204.7293432989308712
 21
193.2848638950019904
 31
0.0
  0
ARC
  5
2C26A
  8
0
 10
3204.7294612283999413
 20
193.2927536855789867
 30
0.0
 40
0.0078906718793987
 50
195.2666273604594096
 51
269.1436581657764009
  0
ARC
  5
2C26B
  8
0
 10
3204.717594912225195
 20
193.2929271878826967
 30
0.0
 40
0.0048117610697333
 50
332.1291215877562877
 51
7.9246949593360458
  0
LINE
  5
2C26C
  8
0
 10
3204.7218485251269158
 20
193.2906777831020122
 30
0.0
 11
3204.7006700315168928
 21
193.2905193783192033
 31
0.0
  0
LINE
  5
2C26D
  8
0
 10
3204.7004427561050761
 20
193.2908852367744998
 30
0.0
 11
3204.7389255602270168
 21
193.2289372276345034
 31
0.0
  0
ARC
  5
2C26E
  8
0
 10
3204.7111169065478862
 20
193.2116621773579936
 30
0.0
 40
0.0327375714052118
 50
10.9940938411793194
 51
31.8490179235040713
  0
LINE
  5
2C26F
  8
0
 10
3204.5870806064272074
 20
193.2770120930020141
 30
0.0
 11
3204.5863330001270697
 21
193.1986499988020114
 31
0.0
  0
LINE
  5
2C270
  8
0
 10
3204.3177479147639133
 20
193.2448525803928021
 30
0.0
 11
3204.31702743554888
 21
193.1665010700228891
 31
0.0
  0
LINE
  5
2C271
  8
0
 10
3203.9983110412199494
 20
193.208192254019508
 30
0.0
 11
3203.9933615549271053
 21
193.1293928582020101
 31
0.0
  0
LINE
  5
2C272
  8
0
 10
3203.9683297625510932
 20
193.2048331047051875
 30
0.0
 11
3203.963193880073959
 21
193.1259845442669132
 31
0.0
  0
LINE
  5
2C273
  8
0
 10
3203.9136648841267743
 20
193.1987611615020057
 30
0.0
 11
3203.9136648841267743
 21
193.1205018059019949
 31
0.0
  0
ARC
  5
2C274
  8
0
 10
3203.8939798447268004
 20
193.1684122163019879
 30
0.0
 40
0.0196850394000041
 50
276.6534615032226725
 51
0.0
  0
ARC
  5
2C275
  8
0
 10
3196.7536915194818903
 20
254.3798270138377973
 30
0.0
 40
61.6461486640768115
 50
275.7329959848227077
 51
276.6534615032226725
  0
ARC
  5
2C276
  8
0
 10
3202.9097297579801307
 20
193.0616080235184029
 30
0.0
 40
0.0196869212620634
 50
180.0060547342665984
 51
275.7329959848228782
  0
LINE
  5
2C277
  8
0
 10
3202.8900428368269786
 20
193.0933137886044051
 30
0.0
 11
3202.8900428368269786
 21
193.0150338102176022
 31
0.0
  0
LINE
  5
2C278
  8
0
 10
3202.8477387886277938
 20
193.0110903908019964
 30
0.0
 11
3202.8456929182270869
 21
193.0544406427812874
 31
0.0
  0
ARC
  5
2C279
  8
0
 10
3202.7831085032489682
 20
193.0514870359095028
 30
0.0
 40
0.0626540724273031
 50
2.702010333457578
 51
35.6601050244097024
  0
LINE
  5
2C27A
  8
0
 10
3202.6145086133310542
 20
193.0677140150511946
 30
0.0
 11
3202.6135568871281976
 21
192.9893809744019961
 31
0.0
  0
ARC
  5
2C27B
  8
0
 10
3203.3062495848980689
 20
201.1035940313416859
 30
0.0
 40
0.2261105256111975
 50
172.4142949108224911
 51
181.2957118147139113
  0
ARC
  5
2C27C
  8
0
 10
3203.0898756641367982
 20
201.1312067076115966
 30
0.0
 40
0.0080735996326336
 50
85.3425705999697612
 51
163.9218644162658904
  0
ARC
  5
2C27D
  8
0
 10
3203.0002522198769839
 20
199.7212187670741912
 30
0.0
 40
1.4209057754020229
 50
75.929834432743931
 51
86.3571881210622223
  0
ARC
  5
2C27E
  8
0
 10
3203.2153159405238512
 20
200.5857806741495892
 30
0.0
 40
0.5300000175593182
 50
58.7038841646116865
 51
75.7598850344500363
  0
ARC
  5
2C27F
  8
0
 10
3203.0906731133482026
 20
201.0971427598954051
 30
0.0
 40
0.0078970525389006
 50
89.5767707129223965
 51
172.5580017562963064
  0
ARC
  5
2C280
  8
0
 10
3202.46806123449187
 20
196.1159231068272106
 30
0.0
 40
5.027822744001603
 50
78.261343084799563
 51
82.8859448067889275
  0
ARC
  5
2C281
  8
0
 10
3203.0391603236957963
 20
198.6392332896027142
 30
0.0
 40
2.4415262082724909
 50
62.7035129090788388
 51
79.3360343268518022
  0
ARC
  5
2C282
  8
0
 10
3203.6490923299920723
 20
199.8498593808924966
 30
0.0
 40
1.0860770495666441
 50
35.7795576035978868
 51
62.0085085412068509
  0
LINE
  5
2C284
  8
0
 10
3219.4415302361539943
 20
167.73636104454269
 30
0.0
 11
3219.4415302361539943
 21
164.2023404814642049
 31
0.0
  0
LINE
  5
2C285
  8
0
 10
3220.7876644178099923
 20
168.7319318159800048
 30
0.0
 11
3220.7876644178099923
 21
163.2096843336005065
 31
0.0
  0
ENDSEC
  0
EOF
