  0
SECTION
  2
HEADER
  9
$ACADVER
  1
AC1009
  9
$INSBASE
 10
3172.6082175109931995
 20
195.0896150338338941
 30
0.0
  9
$EXTMIN
 10
3164.3169428532551137
 20
157.0971283964493921
 30
-0.0000000000112498
  9
$EXTMAX
 10
3196.7562121482751536
 20
195.1001761942872861
 30
0.0000000000002956
  9
$LIMMIN
 10
0.0
 20
0.0
  9
$LIMMAX
 10
11.6929133858000007
 20
8.2677165353999982
  9
$ORTHOMODE
 70
     0
  9
$REGENMODE
 70
     1
  9
$FILLMODE
 70
     1
  9
$QTEXTMODE
 70
     0
  9
$MIRRTEXT
 70
     0
  9
$DRAGMODE
 70
     2
  9
$LTSCALE
 40
0.6431102362
  9
$OSMODE
 70
  4095
  9
$ATTMODE
 70
     1
  9
$TEXTSIZE
 40
0.2
  9
$TRACEWID
 40
0.05
  9
$TEXTSTYLE
  7
STANDARD
  9
$CLAYER
  8
0
  9
$CELTYPE
  6
BYLAYER
  9
$CECOLOR
 62
   256
  9
$DIMSCALE
 40
1.0
  9
$DIMASZ
 40
0.1875
  9
$DIMEXO
 40
0.0625
  9
$DIMDLI
 40
0.4443307087
  9
$DIMRND
 40
0.0
  9
$DIMDLE
 40
0.0
  9
$DIMEXE
 40
0.125
  9
$DIMTP
 40
0.01
  9
$DIMTM
 40
0.01
  9
$DIMTXT
 40
2.0
  9
$DIMCEN
 40
0.1052362205
  9
$DIMTSZ
 40
0.0
  9
$DIMTOL
 70
     1
  9
$DIMLIM
 70
     0
  9
$DIMTIH
 70
     1
  9
$DIMTOH
 70
     1
  9
$DIMSE1
 70
     0
  9
$DIMSE2
 70
     0
  9
$DIMTAD
 70
     0
  9
$DIMZIN
 70
     0
  9
$DIMBLK
  1

  9
$DIMASO
 70
     1
  9
$DIMSHO
 70
     1
  9
$DIMPOST
  1
\X
  9
$DIMAPOST
  1

  9
$DIMALT
 70
     1
  9
$DIMALTD
 70
     2
  9
$DIMALTF
 40
25.3999999999999986
  9
$DIMLFAC
 40
1.0
  9
$DIMTOFL
 70
     0
  9
$DIMTVP
 40
0.0
  9
$DIMTIX
 70
     0
  9
$DIMSOXD
 70
     0
  9
$DIMSAH
 70
     0
  9
$DIMBLK1
  1

  9
$DIMBLK2
  1

  9
$DIMSTYLE
  2
STANDARD
  9
$DIMCLRD
 70
     0
  9
$DIMCLRE
 70
     0
  9
$DIMCLRT
 70
     0
  9
$DIMTFAC
 40
1.0
  9
$DIMGAP
 40
0.09
  9
$LUNITS
 70
     2
  9
$LUPREC
 70
     4
  9
$SKETCHINC
 40
0.1
  9
$FILLETRAD
 40
0.0
  9
$AUNITS
 70
     0
  9
$AUPREC
 70
     0
  9
$MENU
  1
.
  9
$ELEVATION
 40
0.0
  9
$PELEVATION
 40
0.0
  9
$THICKNESS
 40
0.0
  9
$LIMCHECK
 70
     0
  9
$BLIPMODE
 70
     0
  9
$CHAMFERA
 40
0.0
  9
$CHAMFERB
 40
0.0
  9
$SKPOLY
 70
     0
  9
$TDCREATE
 40
2458060.468368056230247
  9
$TDUPDATE
 40
2460165.5108217587694526
  9
$TDINDWG
 40
0.6981667824
  9
$TDUSRTIMER
 40
0.6981667824
  9
$USRTIMER
 70
     1
  9
$ANGBASE
 50
0.0
  9
$ANGDIR
 70
     0
  9
$PDMODE
 70
     0
  9
$PDSIZE
 40
0.3125
  9
$PLINEWID
 40
0.0
  9
$COORDS
 70
     1
  9
$SPLFRAME
 70
     0
  9
$SPLINETYPE
 70
     6
  9
$SPLINESEGS
 70
     8
  9
$ATTDIA
 70
     1
  9
$ATTREQ
 70
     1
  9
$HANDLING
 70
     1
  9
$HANDSEED
  5
2C422
  9
$SURFTAB1
 70
     6
  9
$SURFTAB2
 70
     6
  9
$SURFTYPE
 70
     6
  9
$SURFU
 70
     6
  9
$SURFV
 70
     6
  9
$UCSNAME
  2

  9
$UCSORG
 10
0.0
 20
0.0
 30
0.0
  9
$UCSXDIR
 10
1.0
 20
0.0
 30
0.0
  9
$UCSYDIR
 10
0.0
 20
1.0
 30
0.0
  9
$PUCSNAME
  2

  9
$PUCSORG
 10
0.0
 20
0.0
 30
0.0
  9
$PUCSXDIR
 10
1.0
 20
0.0
 30
0.0
  9
$PUCSYDIR
 10
0.0
 20
1.0
 30
0.0
  9
$USERI1
 70
     0
  9
$USERI2
 70
     0
  9
$USERI3
 70
     0
  9
$USERI4
 70
     0
  9
$USERI5
 70
     0
  9
$USERR1
 40
0.0
  9
$USERR2
 40
0.0
  9
$USERR3
 40
0.0
  9
$USERR4
 40
0.0
  9
$USERR5
 40
0.0
  9
$WORLDVIEW
 70
     1
  9
$SHADEDGE
 70
     3
  9
$SHADEDIF
 70
    70
  9
$TILEMODE
 70
     1
  9
$MAXACTVP
 70
    64
  9
$PLIMCHECK
 70
     0
  9
$PEXTMIN
 10
1.0000000000000000E+20
 20
1.0000000000000000E+20
 30
1.0000000000000000E+20
  9
$PEXTMAX
 10
-1.0000000000000000E+20
 20
-1.0000000000000000E+20
 30
-1.0000000000000000E+20
  9
$PLIMMIN
 10
0.0
 20
0.0
  9
$PLIMMAX
 10
12.0
 20
9.0
  9
$UNITMODE
 70
     0
  9
$VISRETAIN
 70
     1
  9
$PLINEGEN
 70
     0
  9
$PSLTSCALE
 70
     1
  0
ENDSEC
  0
SECTION
  2
TABLES
  0
TABLE
  2
VPORT
 70
     1
  0
VPORT
  2
*ACTIVE
 70
     0
 10
0.0
 20
0.0
 11
1.0
 21
1.0
 12
-30.6382271867351008
 22
29.6129109749493296
 13
0.0
 23
0.0
 14
1.0
 24
1.0
 15
0.0
 25
0.0
 16
0.0
 26
0.0
 36
24.3507166897908292
 17
3211.1748046875
 27
146.4857413204190095
 37
0.0
 40
38.2950046311119365
 41
1.4307692307692299
 42
50.0
 43
0.0
 44
0.0
 50
0.0
 51
0.0
 71
     0
 72
   100
 73
     1
 74
     1
 75
     0
 76
     0
 77
     0
 78
     0
  0
ENDTAB
  0
TABLE
  2
LTYPE
 70
     2
  0
LTYPE
  2
CONTINUOUS
 70
     0
  3
Solid line
 72
    65
 73
     0
 40
0.0
  0
LTYPE
  2
PHANTOM2
 70
     0
  3
___ _ _ ___ _ _ ___ _ _ ___ _ _
 72
    65
 73
     6
 40
1.25
 49
0.625
 49
-0.125
 49
0.125
 49
-0.125
 49
0.125
 49
-0.125
  0
ENDTAB
  0
TABLE
  2
LAYER
 70
     2
  0
LAYER
  2
0
 70
     0
 62
   255
  6
CONTINUOUS
  0
LAYER
  2
DEFPOINTS
 70
     0
 62
     7
  6
CONTINUOUS
  0
ENDTAB
  0
TABLE
  2
STYLE
 70
     1
  0
STYLE
  2
STANDARD
 70
     0
 40
0.0
 41
0.8
 50
0.0
 71
     0
 42
0.2
  3
txt
  4

  0
ENDTAB
  0
TABLE
  2
VIEW
 70
     0
  0
ENDTAB
  0
TABLE
  2
UCS
 70
     0
  0
ENDTAB
  0
TABLE
  2
APPID
 70
     9
  0
APPID
  2
ACAD
 70
     0
  0
APPID
  2
ACAD_MLEADERVER
 70
     0
  0
APPID
  2
ACAD_EXEMPT_FROM_CAD_STANDARDS
 70
     0
  0
APPID
  2
ACAD_NAV_VCDISPLAY
 70
     0
  0
APPID
  2
ACAECLAYERSTANDARD
 70
     0
  0
APPID
  2
ACCMTRANSPARENCY
 70
     0
  0
APPID
  2
ACAD_DSTYLE_DIMJAG
 70
     0
  0
APPID
  2
ACAD_DSTYLE_DIMTALN
 70
     0
  0
APPID
  2
ACDBATTR
 70
     0
  0
ENDTAB
  0
TABLE
  2
DIMSTYLE
 70
     1
  0
DIMSTYLE
  2
STANDARD
 70
     0
  3

  4

  5

  6

  7

 40
1.0
 41
0.1875
 42
0.0625
 43
0.38
 44
0.125
 45
0.0
 46
0.0
 47
0.01
 48
0.01
140
0.15625
141
0.09
142
0.0
143
25.3999999999999986
144
1.0
145
0.0
146
1.0
147
0.09
 71
     1
 72
     0
 73
     1
 74
     1
 75
     0
 76
     0
 77
     0
 78
     4
170
     0
171
     2
172
     0
173
     0
174
     0
175
     0
176
     0
177
     0
178
     0
  0
ENDTAB
  0
ENDSEC
  0
SECTION
  2
BLOCKS
  0
BLOCK
  8
0
  2
$MODEL_SPACE
 70
     0
 10
0.0
 20
0.0
 30
0.0
  3
$MODEL_SPACE
  1

  0
ENDBLK
  5
21
  8
0
  0
BLOCK
 67
     1
  8
0
  2
$PAPER_SPACE
 70
     0
 10
0.0
 20
0.0
 30
0.0
  3
$PAPER_SPACE
  1

  0
ENDBLK
  5
1D
 67
     1
  8
0
  0
ENDSEC
  0
SECTION
  2
ENTITIES
  0
ATTDEF
  5
2B53F
  8
DEFPOINTS
 10
3172.6045350997569585
 20
195.0934423363991073
 30
0.0
 40
0.001
  1
K-77798T
  3

  2
MODELNUMBER
 70
     0
1001
ACDBATTR
1070
     0
1070
     1
  0
ATTDEF
  5
2B540
  8
DEFPOINTS
 10
3172.6045350997569585
 20
195.0917756697324137
 30
0.0
 40
0.001
  1
EIR
  3

  2
TRADENAME
 70
     0
1001
ACDBATTR
1070
     0
1070
     1
  0
ATTDEF
  5
2B541
  8
DEFPOINTS
 10
3172.6045350997569585
 20
195.0901090030658054
 30
0.0
 40
0.001
  1
TOILET
  3

  2
PRODUCT
 70
     0
1001
ACDBATTR
1070
     0
1070
     1
  0
LINE
  5
2C267
  8
0
 10
3167.4844619361088007
 20
195.0896150338338941
 30
0.0
 11
3177.7319730858771436
 21
195.0896150338338941
 31
0.0
  0
ARC
  5
2C268
  8
0
 10
3167.7816940163002073
 20
182.0362591897240918
 30
0.0
 40
13.0567394744036296
 50
91.3044309436491517
 51
96.8062261547802052
  0
ARC
  5
2C269
  8
0
 10
3166.6762568254539474
 20
191.2898624632634039
 30
0.0
 40
3.7373424156993789
 50
96.7911263643568844
 51
111.5975668337974014
  0
ARC
  5
2C26A
  8
0
 10
3165.7630401362757766
 20
193.5966707369535129
 30
0.0
 40
1.256348837924651
 50
111.5975668337974014
 51
149.7995157848312999
  0
ARC
  5
2C26B
  8
0
 10
3166.5447603089091899
 20
193.2186692829143908
 30
0.0
 40
2.1231542562731631
 50
151.5952265860570094
 51
172.0338846473487138
  0
ARC
  5
2C26C
  8
0
 10
3171.2856087896020654
 20
192.5378952588594927
 30
0.0
 40
6.912622588647463
 50
171.8914646864421911
 51
179.9555010288551955
  0
ARC
  5
2C26D
  8
0
 10
2954.8647131411307782
 20
187.1037564907506976
 30
0.0
 40
209.5788767879824945
 50
0.034986024560426
 51
1.48724827401802
  0
ARC
  5
2C26E
  8
0
 10
3164.4631363170751683
 20
187.2326785923505099
 30
0.0
 40
0.0196084269804846
 50
182.7734130260834036
 51
248.2533507954074139
  0
ARC
  5
2C26F
  8
0
 10
3164.4670788620719577
 20
187.2456491140752064
 30
0.0
 40
0.0331363196390813
 50
250.231237887791707
 51
266.5439999846037153
  0
ARC
  5
2C270
  8
0
 10
3172.6640093932919626
 20
252.4801549285512863
 30
0.0
 40
65.7805416872189284
 50
262.8399969920994863
 51
263.3088812154637139
  0
ARC
  5
2C271
  8
0
 10
3172.6145474841810028
 20
252.0915539134315111
 30
0.0
 40
65.3888245118817935
 50
263.3122516139823119
 51
264.5702502931940785
  0
ARC
  5
2C272
  8
0
 10
3172.6081779434848613
 20
252.0282341947923896
 30
0.0
 40
65.3251861926430024
 50
264.5705566746394197
 51
270.0000347040956967
  0
ARC
  5
2C273
  8
0
 10
3172.633509120816143
 20
252.152617779799499
 30
0.0
 40
65.529417629456475
 50
262.835915874954992
 51
263.0734125853015257
  0
ARC
  5
2C274
  8
0
 10
3172.6051428675809802
 20
251.9191202273588885
 30
0.0
 40
65.2942033626307108
 50
263.0734125853015257
 51
265.6330254299350031
  0
ARC
  5
2C275
  8
0
 10
3172.6089334045132091
 20
251.9687566645064862
 30
0.0
 40
65.3439843234786366
 50
265.633025429987299
 51
269.9993722807482754
  0
ARC
  5
2C276
  8
0
 10
3164.4599168712102255
 20
187.1182873805809095
 30
0.0
 40
0.0165500366599288
 50
85.3792135184419863
 51
161.8239463765820858
  0
ARC
  5
2C277
  8
0
 10
3550.4662295866241948
 20
189.4160173810614083
 30
0.0
 40
386.0288446138027894
 50
180.3402730424456024
 51
180.4538973789858005
  0
ARC
  5
2C278
  8
0
 10
3343.9928536981137768
 20
186.9716022682048902
 30
0.0
 40
179.5444043217393073
 50
180.1958348260307901
 51
182.1615474065702927
  0
ARC
  5
2C279
  8
0
 10
3200.0818752295640479
 20
181.0249266921472895
 30
0.0
 40
35.51526063463605
 50
181.3314426136815882
 51
188.0702881074446964
  0
ARC
  5
2C27A
  8
0
 10
3178.9264355923310177
 20
177.9411762851873959
 30
0.0
 40
14.1366560656454201
 50
187.7328955041614904
 51
207.2881510837345047
  0
ARC
  5
2C27B
  8
0
 10
3173.8760892280388362
 20
175.50494127099401
 30
0.0
 40
8.5327457728545202
 50
208.2974362250448905
 51
222.8450275404692889
  0
ARC
  5
2C27C
  8
0
 10
3172.8117913174428395
 20
174.5572559334543996
 30
0.0
 40
7.1080230855446098
 50
223.0780042579175131
 51
232.9170893187755098
  0
ARC
  5
2C27D
  8
0
 10
3172.5566750174039043
 20
174.2629263109463125
 30
0.0
 40
6.7194405695294757
 50
233.1392198756626897
 51
247.636137540112486
  0
ARC
  5
2C27E
  8
0
 10
3172.5401192646208983
 20
174.3277154543328038
 30
0.0
 40
6.7731753130939296
 50
247.9741865905859868
 51
262.062670127592412
  0
ARC
  5
2C27F
  8
0
 10
3172.9393409905937915
 20
175.833123028344005
 30
0.0
 40
8.3214021278927053
 50
260.7714504200749275
 51
265.6445617958225967
  0
ARC
  5
2C280
  8
0
 10
3173.0429712860977816
 20
196.2171022148633028
 30
0.0
 40
28.6907813000395606
 50
268.5308641830355896
 51
269.1317590988318784
  0
ARC
  5
2C281
  8
0
 10
3164.5854627766789235
 20
187.2037379979090872
 30
0.0
 40
0.0293420301145018
 50
184.9882741856555981
 51
203.4079726340418972
  0
ARC
  5
2C282
  8
0
 10
3164.566255651047868
 20
187.1962774838038115
 30
0.0
 40
0.0087868302287481
 50
208.5270503700340043
 51
268.35053728199631
  0
LINE
  5
2C283
  8
0
 10
3164.5660027258400078
 20
187.1874942945021871
 30
0.0
 11
3164.5878146866889438
 21
187.1876813532493884
 31
0.0
  0
ARC
  5
2C284
  8
0
 10
3164.5876967572198737
 20
187.1955711438262995
 30
0.0
 40
0.0078906718793987
 50
270.8563418342235991
 51
344.733372639539823
  0
ARC
  5
2C285
  8
0
 10
3164.5995630733950748
 20
187.1957446461300947
 30
0.0
 40
0.0048117610697333
 50
172.0753050406630962
 51
207.8708784122437123
  0
LINE
  5
2C286
  8
0
 10
3164.5953094604928992
 20
187.1934952413494102
 30
0.0
 11
3164.6164879541029222
 21
187.1933368365666013
 31
0.0
  0
LINE
  5
2C287
  8
0
 10
3164.6167152295151936
 20
187.1937026950218979
 30
0.0
 11
3164.5782324253927982
 21
187.1317546858819014
 31
0.0
  0
ARC
  5
2C288
  8
0
 10
3164.6060410790728383
 20
187.1144796356053064
 30
0.0
 40
0.0327375714052118
 50
148.1509820764958931
 51
169.0059061588198972
  0
LINE
  5
2C289
  8
0
 10
3164.7300773791921529
 20
187.1798295512494121
 30
0.0
 11
3164.7308249854918358
 21
187.1014674570494094
 31
0.0
  0
LINE
  5
2C28A
  8
0
 10
3164.9994100708549922
 20
187.1476700386400864
 30
0.0
 11
3165.000130550070935
 21
187.0693185282702871
 31
0.0
  0
LINE
  5
2C28B
  8
0
 10
3165.3188469443998656
 20
187.1110097122667923
 30
0.0
 11
3165.3237964306931644
 21
187.0322103164494081
 31
0.0
  0
LINE
  5
2C28C
  8
0
 10
3165.3488282230691766
 20
187.1076505629526139
 30
0.0
 11
3165.353964105545856
 21
187.0288020025143112
 31
0.0
  0
LINE
  5
2C28D
  8
0
 10
3165.4034931014930407
 20
187.1015786197494037
 30
0.0
 11
3165.4034931014930407
 21
187.0233192641493929
 31
0.0
  0
ARC
  5
2C28E
  8
0
 10
3165.4231781408930146
 20
187.0712296745493859
 30
0.0
 40
0.0196850394000041
 50
180.0
 51
263.3465384967773275
  0
ARC
  5
2C28F
  8
0
 10
3172.5634664661379247
 20
248.28264447208511
 30
0.0
 40
61.6461486640768115
 50
263.3465384967773275
 51
264.2670040151771786
  0
ARC
  5
2C290
  8
0
 10
3166.4074282276401391
 20
186.9644254817656872
 30
0.0
 40
0.0196869212620634
 50
264.2670040151770081
 51
359.9939452657325205
  0
LINE
  5
2C291
  8
0
 10
3166.4271151487919269
 20
186.9961312468518031
 30
0.0
 11
3166.4271151487919269
 21
186.9178512684650002
 31
0.0
  0
LINE
  5
2C292
  8
0
 10
3166.4694191969929307
 20
186.9139078490493944
 30
0.0
 11
3166.4714650673931828
 21
186.9572581010286001
 31
0.0
  0
ARC
  5
2C293
  8
0
 10
3166.5340494823708468
 20
186.9543044941567871
 30
0.0
 40
0.0626540724273031
 50
144.3398949755903118
 51
177.2979896665424064
  0
LINE
  5
2C294
  8
0
 10
3166.702649372290125
 20
186.9705314732985073
 30
0.0
 11
3166.7036010984929817
 21
186.8921984326493941
 31
0.0
  0
LINE
  5
2C295
  8
0
 10
3196.6869414541752121
 20
157.1125017918479045
 30
0.0
 11
3196.6082147238198559
 21
157.1111272268273069
 31
0.0
  0
LINE
  5
2C296
  8
0
 10
3196.6082147238198559
 20
157.1111272268273069
 30
0.0
 11
3196.6082147238198559
 21
162.6347492742272891
 31
0.0
  0
LINE
  5
2C297
  8
0
 10
3196.6082147238198559
 20
162.6347492742272891
 30
0.0
 11
3196.6869414541752121
 21
162.6347492742272891
 31
0.0
  0
LINE
  5
2C298
  8
0
 10
3196.6003434945928348
 20
157.1111272267592938
 30
0.0
 11
3195.8201117453158986
 21
157.1248829779273137
 31
0.0
  0
ARC
  5
2C299
  8
0
 10
3195.7798787780661769
 20
157.2059796491384134
 30
0.0
 40
0.0905282372261356
 50
271.2309133420956755
 51
296.3865248056334281
  0
LINE
  5
2C29A
  8
0
 10
3195.7818234910000683
 20
157.1154723023267934
 30
0.0
 11
3195.5452599841269148
 21
157.1112935438395084
 31
0.0
  0
ARC
  5
2C29B
  8
0
 10
3195.5427952097838897
 20
157.1935851865702887
 30
0.0
 40
0.0823285465431033
 50
232.2664316092740933
 51
271.7155929243809851
  0
ARC
  5
2C29C
  8
0
 10
3195.6382231353049974
 20
157.2995716207778116
 30
0.0
 40
0.2248009270804764
 50
198.8053624594298014
 51
229.5617486719634996
  0
ARC
  5
2C29D
  8
0
 10
3196.6427388374131624
 20
157.6459762202188131
 30
0.0
 40
1.2873662202475871
 50
185.1866781295917121
 51
198.987983240426189
  0
ARC
  5
2C29E
  8
0
 10
3209.9056949476262162
 20
158.3879532183686081
 30
0.0
 40
14.5703564823064102
 50
181.6680257362860118
 51
183.3773147754008903
  0
ARC
  5
2C29F
  8
0
 10
3193.5519872388631484
 20
157.9609874352821919
 30
0.0
 40
1.789527533150983
 50
0.0911082686606926
 51
1.0515067736082371
  0
ARC
  5
2C2A0
  8
0
 10
3226.6041436478008109
 20
158.1635443156887106
 30
0.0
 40
31.2633908954689588
 50
180.1070035838511956
 51
180.3110381550160071
  0
ARC
  5
2C2A1
  8
0
 10
3220.965293233938155
 20
161.5908972596180035
 30
0.0
 40
25.624531446747941
 50
179.6068112132834074
 51
179.8920443440703991
  0
ARC
  5
2C2A2
  8
0
 10
3202.9963559976267788
 20
161.712285593591389
 30
0.0
 40
7.6551845433336316
 50
177.3705999138792038
 51
179.5924087223588117
  0
ARC
  5
2C2A3
  8
0
 10
3197.7491796138037898
 20
161.9532565687296142
 30
0.0
 40
2.402477906388536
 50
171.0204508179469087
 51
177.3705999138792038
  0
ARC
  5
2C2A4
  8
0
 10
3196.3817602751241793
 20
162.1693342212757898
 30
0.0
 40
1.0180916886998399
 50
163.5265442944821928
 51
171.0204508179469087
  0
ARC
  5
2C2A5
  8
0
 10
3196.0794138047021988
 20
162.2587409838592976
 30
0.0
 40
0.7028029997619445
 50
154.7815137266682939
 51
163.5265442944821928
  0
ARC
  5
2C2A6
  8
0
 10
3195.6430661971708105
 20
162.4520767762926141
 30
0.0
 40
0.2259372675793438
 50
140.6960408028656104
 51
151.9893126856142089
  0
ARC
  5
2C2A7
  8
0
 10
3195.5596267892401556
 20
162.5198396105994902
 30
0.0
 40
0.1184495843868613
 50
115.9537168937198999
 51
140.4934865586625108
  0
ARC
  5
2C2A8
  8
0
 10
3195.5439817621759175
 20
162.5491654683098091
 30
0.0
 40
0.0852432507609526
 50
82.6426749727930456
 51
115.1250153767876014
  0
ARC
  5
2C2A9
  8
0
 10
3195.5378986907380749
 20
162.544388677762214
 30
0.0
 40
0.0909214615332725
 50
61.1187442201087023
 51
79.2243266590066781
  0
ARC
  5
2C2AA
  8
0
 10
3195.4836370822249592
 20
162.483760783366904
 30
0.0
 40
0.1711901380661985
 50
22.9408759039465195
 51
55.0058519419938108
  0
ARC
  5
2C2AB
  8
0
 10
3194.9491268206120367
 20
162.2450524941039873
 30
0.0
 40
0.7565558457295873
 50
10.6370090324337898
 51
23.8107943820472308
  0
ARC
  5
2C2AC
  8
0
 10
3192.5963754099961989
 20
161.8570468787546872
 30
0.0
 40
3.1409451293106461
 50
359.307178272369697
 51
9.6711224447613926
  0
ARC
  5
2C2AD
  8
0
 10
3175.9471005953560052
 20
161.6009625806858025
 30
0.0
 40
19.7911921438424905
 50
359.8470594058995857
 51
0.6314293926779965
  0
LINE
  5
2C2AE
  8
0
 10
3195.7382222306159747
 20
161.5481336792273055
 30
0.0
 11
3195.7382228958158521
 21
158.1977399868592897
 31
0.0
  0
ARC
  5
2C2AF
  8
0
 10
3183.5305324585588096
 20
158.1461064514249983
 30
0.0
 40
12.2077996310930104
 50
357.710140104074128
 51
0.2423362143042768
  0
ARC
  5
2C2B0
  8
0
 10
3193.9432750257979023
 20
157.7297332959350058
 30
0.0
 40
1.7867356558453009
 50
352.7887337957882892
 51
357.710140104074128
  0
ARC
  5
2C2B1
  8
0
 10
3193.9759517980551209
 20
157.7255987315909067
 30
0.0
 40
1.753798350742036
 50
344.7839546255818846
 51
352.7887337957882892
  0
ARC
  5
2C2B2
  8
0
 10
3195.3164115911690715
 20
157.3610007368345123
 30
0.0
 40
0.364638836958432
 50
326.0824032394201026
 51
344.7839546255818846
  0
ARC
  5
2C2B3
  8
0
 10
3195.519372186623059
 20
157.2245263779452102
 30
0.0
 40
0.1200611316349827
 50
299.5616489594809195
 51
326.0824032394201026
  0
ARC
  5
2C2B4
  8
0
 10
3195.5451912840339901
 20
157.1790056291827113
 30
0.0
 40
0.0677279265066374
 50
272.5746966911297022
 51
299.5616489594817153
  0
LINE
  5
2C2B5
  8
0
 10
3195.5462480362148199
 20
162.6343785882050099
 30
0.0
 11
3195.7832302838160103
 21
162.6304276005272982
 31
0.0
  0
ARC
  5
2C2B6
  8
0
 10
3195.781858927301073
 20
162.5481729402320923
 30
0.0
 40
0.0822660911857438
 50
61.373936677503302
 51
89.0448485050661844
  0
ARC
  5
2C2B7
  8
0
 10
3195.7535350659509277
 20
162.5022921382810921
 30
0.0
 40
0.1361388512716392
 50
28.1935350503372497
 51
60.161504712019898
  0
ARC
  5
2C2B8
  8
0
 10
3195.4595951355317993
 20
162.3365528778695079
 30
0.0
 40
0.473563314752601
 50
14.7390964203791608
 51
29.0650631650065883
  0
ARC
  5
2C2B9
  8
0
 10
3194.6631526375608701
 20
162.103431584504591
 30
0.0
 40
1.303308420278158
 50
5.3426136940943154
 51
15.7424022290019803
  0
ARC
  5
2C2BA
  8
0
 10
3188.1728210912629038
 20
161.6468021084928068
 30
0.0
 40
7.8093959451805199
 50
359.2760733754237776
 51
4.2444046844149543
  0
LINE
  5
2C2BB
  8
0
 10
3195.9815936957161284
 20
161.5481337724272919
 30
0.0
 11
3195.9815951395280536
 21
158.197740091737586
 31
0.0
  0
ARC
  5
2C2BC
  8
0
 10
3176.3932169378108483
 20
158.1584340878929993
 30
0.0
 40
19.5884176373551213
 50
359.1556101498151179
 51
0.1149694519905431
  0
ARC
  5
2C2BD
  8
0
 10
3192.5103278350529763
 20
157.9208928533628864
 30
0.0
 40
3.4695563403499752
 50
350.4191370623557873
 51
359.1556101498151179
  0
ARC
  5
2C2BE
  8
0
 10
3195.172506025292023
 20
157.5071263797217966
 30
0.0
 40
0.7764376150358471
 50
338.4390161233529852
 51
347.8283921598123243
  0
ARC
  5
2C2BF
  8
0
 10
3195.5570086869752231
 20
157.3616742513906956
 30
0.0
 40
0.365437085991745
 50
331.8110852545838725
 51
337.4940190012040944
  0
ARC
  5
2C2C0
  8
0
 10
3195.6794483076009783
 20
157.2960531992648043
 30
0.0
 40
0.2265213446907239
 50
323.1004855441414065
 51
331.8110852545852936
  0
ARC
  5
2C2C1
  8
0
 10
3195.7451839039031256
 20
157.2466983885630896
 30
0.0
 40
0.1443199702463349
 50
310.9191653839935157
 51
323.1004855441414065
  0
ARC
  5
2C2C2
  8
0
 10
3195.7863282033181349
 20
157.1992322022595943
 30
0.0
 40
0.0815036330676471
 50
297.2940141572473181
 51
310.9191653839935157
  0
ARC
  5
2C2C3
  8
0
 10
3195.8874728898899775
 20
157.0032177194688927
 30
0.0
 40
0.1390681808285072
 50
117.2940141572473038
 51
118.9715297923387993
  0
ARC
  5
2C2C4
  8
0
 10
3195.9817013075307841
 20
159.9941262544305118
 30
0.0
 40
0.2100430668274634
 50
90.0289059915455709
 51
98.1744890683433198
  0
ARC
  5
2C2C5
  8
0
 10
3195.9679607399098131
 20
160.0897808613775055
 30
0.0
 40
0.113406598407216
 50
98.1744890683433198
 51
141.1257471873080931
  0
ARC
  5
2C2C6
  8
0
 10
3195.991622420845033
 20
160.0805501810752105
 30
0.0
 40
0.1378343514613792
 50
144.3132348539141105
 51
184.4785500147575874
  0
LINE
  5
2C2C7
  8
0
 10
3195.8542089277170817
 20
160.0697872656272978
 30
0.0
 11
3195.8542095004208932
 21
159.6760864783279033
 31
0.0
  0
ARC
  5
2C2C8
  8
0
 10
3196.1475281688808536
 20
159.6721489335471063
 30
0.0
 40
0.2933450963042443
 50
179.230900820639107
 51
186.2505189842682114
  0
ARC
  5
2C2C9
  8
0
 10
3195.965847383234177
 20
159.6541004934215948
 30
0.0
 40
0.1107945707701343
 50
187.2018364906953138
 51
231.6192622937498129
  0
ARC
  5
2C2CA
  8
0
 10
3195.9647070324949709
 20
159.650122661207206
 30
0.0
 40
0.1069799203850306
 50
230.7752457913414901
 51
263.152903299307809
  0
ARC
  5
2C2CB
  8
0
 10
3195.9817671394221179
 20
159.7445351095319097
 30
0.0
 40
0.2028325300102331
 50
261.547491772332819
 51
269.9511550950816741
  0
ARC
  5
2C2CC
  8
0
 10
8765.9341889736024314
 20
-315187.0549667783197947
 30
0.0
 40
315398.8653807950904593
 50
91.0117852164920862
 51
91.0119269646043136
  0
LINE
  5
2C2CD
  8
0
 10
3196.6003434945928348
 20
162.6347492738896108
 30
0.0
 11
3196.6003434945928348
 21
157.1111272267592938
 31
0.0
  0
LINE
  5
2C2CE
  8
0
 10
3196.6003434945928348
 20
157.1170327384785139
 30
0.0
 11
3196.6082147238198559
 21
157.1171701312937898
 31
0.0
  0
LINE
  5
2C2CF
  8
0
 10
3196.6082147238198559
 20
162.6287063693015114
 30
0.0
 11
3196.6003434945928348
 21
162.6288437621581977
 31
0.0
  0
ARC
  5
2C2D0
  8
0
 10
3166.0109084007222009
 20
195.0064114895891123
 30
0.0
 40
0.2261105256111975
 50
358.704288185285975
 51
7.5857050891782869
  0
ARC
  5
2C2D1
  8
0
 10
3166.2272823214839264
 20
195.0340241658589946
 30
0.0
 40
0.0080735996326336
 50
16.0781355837341309
 51
94.6574294000301535
  0
ARC
  5
2C2D2
  8
0
 10
3166.3169057657419216
 20
193.6240362253215039
 30
0.0
 40
1.4209057754020229
 50
93.6428118789378345
 51
104.0701655672558985
  0
ARC
  5
2C2D3
  8
0
 10
3166.1018420450959638
 20
194.488598132396902
 30
0.0
 40
0.5300000175593182
 50
104.2401149655499069
 51
121.2964233574423929
  0
ARC
  5
2C2D4
  8
0
 10
3166.2264848722720672
 20
194.9999602181426894
 30
0.0
 40
0.0078970525389006
 50
7.4419982437044769
 51
90.4232292870776035
  0
ARC
  5
2C2D5
  8
0
 10
3166.849096751127945
 20
190.0187405650746086
 30
0.0
 40
5.027822744001603
 50
97.1140551932110725
 51
101.7386569152003943
  0
ARC
  5
2C2D6
  8
0
 10
3166.2779976619240188
 20
192.5420507478501122
 30
0.0
 40
2.4415262082724909
 50
100.6639656731479988
 51
117.2964870909211044
  0
ARC
  5
2C2D7
  8
0
 10
3165.6680656556268332
 20
193.7526768391398946
 30
0.0
 40
1.0860770495666441
 50
117.9914914587935044
 51
144.2204423964020918
  0
ARC
  5
2C2D8
  8
0
 10
3177.4347410056848275
 20
182.0362591897240918
 30
0.0
 40
13.0567394744036296
 50
83.1937738452197806
 51
88.6955690563508625
  0
ARC
  5
2C2D9
  8
0
 10
3178.5401781965310875
 20
191.2898624632634039
 30
0.0
 40
3.7373424156993789
 50
68.4024331662025702
 51
83.2088736356431156
  0
ARC
  5
2C2DA
  8
0
 10
3179.4533948857088035
 20
193.5966707369535129
 30
0.0
 40
1.256348837924651
 50
30.2004842151687285
 51
68.4024331662025702
  0
ARC
  5
2C2DB
  8
0
 10
3178.6716747130758449
 20
193.2186692829143908
 30
0.0
 40
2.1231542562731631
 50
7.9661153526512702
 51
28.4047734139429515
  0
ARC
  5
2C2DC
  8
0
 10
3173.93082623238206
 20
192.5378952588594927
 30
0.0
 40
6.912622588647463
 50
0.0444989711448052
 51
8.1085353135577876
  0
ARC
  5
2C2DD
  8
0
 10
3390.3517218808538018
 20
187.1037564907506976
 30
0.0
 40
209.5788767879824945
 50
178.5127517259820138
 51
179.9650139754396037
  0
ARC
  5
2C2DE
  8
0
 10
3180.7532987049098665
 20
187.2326785923505099
 30
0.0
 40
0.0196084269804846
 50
291.7466492045925861
 51
357.2265869739164827
  0
ARC
  5
2C2DF
  8
0
 10
3180.7493561599130771
 20
187.2456491140752064
 30
0.0
 40
0.0331363196390813
 50
273.4560000153962847
 51
289.7687621122083215
  0
ARC
  5
2C2E0
  8
0
 10
3172.5524256286939817
 20
252.4801549285512863
 30
0.0
 40
65.7805416872189284
 50
276.6911187845362861
 51
277.1600030079004
  0
ARC
  5
2C2E1
  8
0
 10
3172.601887537804032
 20
252.0915539134315111
 30
0.0
 40
65.3888245118817935
 50
275.4297497068059783
 51
276.6877483860176881
  0
ARC
  5
2C2E2
  8
0
 10
3172.6082570784910786
 20
252.0282341950168075
 30
0.0
 40
65.3251861928673918
 50
269.9999652959043033
 51
275.4294637820964908
  0
ARC
  5
2C2E3
  8
0
 10
3172.5829259011688919
 20
252.152617779799499
 30
0.0
 40
65.529417629456475
 50
276.9265874146984743
 51
277.164084125045008
  0
ARC
  5
2C2E4
  8
0
 10
3172.6112921544049641
 20
251.9191202273588885
 30
0.0
 40
65.2942033626307108
 50
274.3669745700649969
 51
276.9265874146984743
  0
ARC
  5
2C2E5
  8
0
 10
3172.6075016174718257
 20
251.9687566645064862
 30
0.0
 40
65.3439843234786366
 50
270.0006277192517246
 51
274.366974570012701
  0
ARC
  5
2C2E6
  8
0
 10
3180.7565181507738998
 20
187.1182873805809095
 30
0.0
 40
0.0165500366599288
 50
18.1760536234178289
 51
94.6207864815580137
  0
ARC
  5
2C2E7
  8
0
 10
2794.7502054353622043
 20
189.4160173810614083
 30
0.0
 40
386.0288446138027894
 50
359.5461026210141995
 51
359.6597269575543123
  0
ARC
  5
2C2E8
  8
0
 10
3001.2235813238698938
 20
186.9716022682048902
 30
0.0
 40
179.5444043217393073
 50
357.8384525934296221
 51
359.8041651739691247
  0
ARC
  5
2C2E9
  8
0
 10
3145.1345597924209869
 20
181.0249266921472895
 30
0.0
 40
35.51526063463605
 50
351.9297118925553036
 51
358.6685573863184118
  0
ARC
  5
2C2EA
  8
0
 10
3166.2899994296540171
 20
177.9411762851873959
 30
0.0
 40
14.1366560656454201
 50
332.71184891626541
 51
352.2671044958383959
  0
ARC
  5
2C2EB
  8
0
 10
3171.3403457939448344
 20
175.50494127099401
 30
0.0
 40
8.5327457728545202
 50
317.1549724595307111
 51
331.702563774955081
  0
ARC
  5
2C2EC
  8
0
 10
3172.4046437045421953
 20
174.5572559334543996
 30
0.0
 40
7.1080230855446098
 50
307.0829106812245186
 51
316.9219957420825153
  0
ARC
  5
2C2ED
  8
0
 10
3172.6597600045811305
 20
174.2629263109463125
 30
0.0
 40
6.7194405695294757
 50
292.363862459887514
 51
306.8607801243372819
  0
ARC
  5
2C2EE
  8
0
 10
3172.6763157573641365
 20
174.3277154543328038
 30
0.0
 40
6.7731753130939296
 50
277.9373298724077017
 51
292.0258134094140132
  0
ARC
  5
2C2EF
  8
0
 10
3172.2770940313921528
 20
175.833123028344005
 30
0.0
 40
8.3214021278927053
 50
274.3554382041774033
 51
279.2285495799250157
  0
ARC
  5
2C2F0
  8
0
 10
3172.173463735885889
 20
196.2171022148633028
 30
0.0
 40
28.6907813000395606
 50
270.8682409011680079
 51
271.4691358169642967
  0
ARC
  5
2C2F1
  8
0
 10
3180.6309722453061113
 20
187.2037379979090872
 30
0.0
 40
0.0293420301145018
 50
336.5920273659580744
 51
355.0117258143444019
  0
ARC
  5
2C2F2
  8
0
 10
3180.6501793709380763
 20
187.1962774838038115
 30
0.0
 40
0.0087868302287481
 50
271.64946271800369
 51
331.4729496299660241
  0
LINE
  5
2C2F3
  8
0
 10
3180.6504322961450271
 20
187.1874942945021871
 30
0.0
 11
3180.6286203352960911
 21
187.1876813532493884
 31
0.0
  0
ARC
  5
2C2F4
  8
0
 10
3180.6287382647651611
 20
187.1955711438262995
 30
0.0
 40
0.0078906718793987
 50
195.2666273604586138
 51
269.1436581657764009
  0
ARC
  5
2C2F5
  8
0
 10
3180.6168719485899601
 20
187.1957446461300947
 30
0.0
 40
0.0048117610697333
 50
332.1291215877562877
 51
7.9246949593368532
  0
LINE
  5
2C2F6
  8
0
 10
3180.6211255614930451
 20
187.1934952413494102
 30
0.0
 11
3180.5999470678821126
 21
187.1933368365666013
 31
0.0
  0
LINE
  5
2C2F7
  8
0
 10
3180.5997197924698412
 20
187.1937026950218979
 30
0.0
 11
3180.6382025965917819
 21
187.1317546858819014
 31
0.0
  0
ARC
  5
2C2F8
  8
0
 10
3180.610393942913106
 20
187.1144796356053064
 30
0.0
 40
0.0327375714052118
 50
10.9940938411801099
 51
31.8490179235040713
  0
LINE
  5
2C2F9
  8
0
 10
3180.4863576427919725
 20
187.1798295512494121
 30
0.0
 11
3180.4856100364918348
 21
187.1014674570494094
 31
0.0
  0
LINE
  5
2C2FA
  8
0
 10
3180.2170249511300426
 20
187.1476700386400864
 30
0.0
 11
3180.2163044719140998
 21
187.0693185282702871
 31
0.0
  0
LINE
  5
2C2FB
  8
0
 10
3179.8975880775851692
 20
187.1110097122667923
 30
0.0
 11
3179.8926385912918704
 21
187.0322103164494081
 31
0.0
  0
LINE
  5
2C2FC
  8
0
 10
3179.8676067989158582
 20
187.1076505629526139
 30
0.0
 11
3179.8624709164400883
 21
187.0288020025143112
 31
0.0
  0
LINE
  5
2C2FD
  8
0
 10
3179.8129419204929036
 20
187.1015786197494037
 30
0.0
 11
3179.8129419204929036
 21
187.0233192641493929
 31
0.0
  0
ARC
  5
2C2FE
  8
0
 10
3179.7932568810920202
 20
187.0712296745493859
 30
0.0
 40
0.0196850394000041
 50
276.6534615032226725
 51
0.0
  0
ARC
  5
2C2FF
  8
0
 10
3172.6529685558471101
 20
248.28264447208511
 30
0.0
 40
61.6461486640768115
 50
275.7329959848228214
 51
276.6534615032226725
  0
ARC
  5
2C300
  8
0
 10
3178.8090067943448958
 20
186.9644254817656872
 30
0.0
 40
0.0196869212620634
 50
180.0060547342673942
 51
275.7329959848231056
  0
LINE
  5
2C301
  8
0
 10
3178.7893198731921984
 20
186.9961312468518031
 30
0.0
 11
3178.7893198731921984
 21
186.9178512684650002
 31
0.0
  0
LINE
  5
2C302
  8
0
 10
3178.7470158249930137
 20
186.9139078490493944
 30
0.0
 11
3178.744969954591852
 21
186.9572581010286001
 31
0.0
  0
ARC
  5
2C303
  8
0
 10
3178.6823855396128238
 20
186.9543044941567871
 30
0.0
 40
0.0626540724273031
 50
2.702010333457578
 51
35.6601050244097024
  0
LINE
  5
2C304
  8
0
 10
3178.5137856496958193
 20
186.9705314732985073
 30
0.0
 11
3178.5128339234929626
 21
186.8921984326493941
 31
0.0
  0
ARC
  5
2C305
  8
0
 10
3179.2055266212628339
 20
195.0064114895891123
 30
0.0
 40
0.2261105256111975
 50
172.4142949108216953
 51
181.2957118147139113
  0
ARC
  5
2C306
  8
0
 10
3178.989152700502018
 20
195.0340241658589946
 30
0.0
 40
0.0080735996326336
 50
85.3425705999698323
 51
163.9218644162658904
  0
ARC
  5
2C307
  8
0
 10
3178.8995292562422037
 20
193.6240362253215039
 30
0.0
 40
1.4209057754020229
 50
75.9298344327441157
 51
86.3571881210621655
  0
ARC
  5
2C308
  8
0
 10
3179.114592976889071
 20
194.488598132396902
 30
0.0
 40
0.5300000175593182
 50
58.7035766425576
 51
75.7598850344500363
  0
ARC
  5
2C309
  8
0
 10
3178.9899501497129677
 20
194.9999602181426894
 30
0.0
 40
0.0078970525389006
 50
89.5767707129223822
 51
172.5580017562955106
  0
ARC
  5
2C30A
  8
0
 10
3178.3673382708570898
 20
190.0187405650746086
 30
0.0
 40
5.027822744001603
 50
78.261343084799563
 51
82.8859448067889275
  0
ARC
  5
2C30B
  8
0
 10
3178.9384373600610161
 20
192.5420507478501122
 30
0.0
 40
2.4415262082724909
 50
62.7035129090788388
 51
79.3360343268519443
  0
ARC
  5
2C30C
  8
0
 10
3179.5483693663582017
 20
193.7526768391398946
 30
0.0
 40
1.0860770495666441
 50
35.7795576035978868
 51
62.0085085412064672
  0
LINE
  5
2C30E
  8
0
 10
3195.3408072725192142
 20
161.639178502790088
 30
0.0
 11
3195.3408072725192142
 21
158.1051579397116029
 31
0.0
  0
LINE
  5
2C30F
  8
0
 10
3196.6869414541752121
 20
162.6347492742272891
 30
0.0
 11
3196.6869414541752121
 21
157.1125017918479045
 31
0.0
  0
ENDSEC
  0
EOF
