  0
SECTION
  2
HEADER
  9
$ACADVER
  1
AC1009
  9
$INSBASE
 10
3290.5607095417080927
 20
143.8755009927835999
 30
0.0
  9
$EXTMIN
 10
3282.3300716974567877
 20
143.8755009927835999
 30
0.0
  9
$EXTMAX
 10
3314.6394497496899021
 20
181.6322959536909138
 30
0.0
  9
$LIMMIN
 10
0.0
 20
0.0
  9
$LIMMAX
 10
11.6929133858000007
 20
8.2677165353999982
  9
$ORTHOMODE
 70
     1
  9
$REGENMODE
 70
     1
  9
$FILLMODE
 70
     1
  9
$QTEXTMODE
 70
     0
  9
$MIRRTEXT
 70
     0
  9
$DRAGMODE
 70
     2
  9
$LTSCALE
 40
0.6431102362
  9
$OSMODE
 70
  4095
  9
$ATTMODE
 70
     1
  9
$TEXTSIZE
 40
0.2
  9
$TRACEWID
 40
0.05
  9
$TEXTSTYLE
  7
STANDARD
  9
$CLAYER
  8
0
  9
$CELTYPE
  6
BYLAYER
  9
$CECOLOR
 62
   256
  9
$DIMSCALE
 40
1.0
  9
$DIMASZ
 40
0.1875
  9
$DIMEXO
 40
0.0625
  9
$DIMDLI
 40
0.4443307087
  9
$DIMRND
 40
0.0
  9
$DIMDLE
 40
0.0
  9
$DIMEXE
 40
0.125
  9
$DIMTP
 40
0.01
  9
$DIMTM
 40
0.01
  9
$DIMTXT
 40
2.0
  9
$DIMCEN
 40
0.1052362205
  9
$DIMTSZ
 40
0.0
  9
$DIMTOL
 70
     1
  9
$DIMLIM
 70
     0
  9
$DIMTIH
 70
     1
  9
$DIMTOH
 70
     1
  9
$DIMSE1
 70
     0
  9
$DIMSE2
 70
     0
  9
$DIMTAD
 70
     0
  9
$DIMZIN
 70
     0
  9
$DIMBLK
  1

  9
$DIMASO
 70
     1
  9
$DIMSHO
 70
     1
  9
$DIMPOST
  1
\X
  9
$DIMAPOST
  1

  9
$DIMALT
 70
     1
  9
$DIMALTD
 70
     2
  9
$DIMALTF
 40
25.3999999999999986
  9
$DIMLFAC
 40
1.0
  9
$DIMTOFL
 70
     0
  9
$DIMTVP
 40
0.0
  9
$DIMTIX
 70
     0
  9
$DIMSOXD
 70
     0
  9
$DIMSAH
 70
     0
  9
$DIMBLK1
  1

  9
$DIMBLK2
  1

  9
$DIMSTYLE
  2
STANDARD
  9
$DIMCLRD
 70
     0
  9
$DIMCLRE
 70
     0
  9
$DIMCLRT
 70
     0
  9
$DIMTFAC
 40
1.0
  9
$DIMGAP
 40
0.09
  9
$LUNITS
 70
     2
  9
$LUPREC
 70
     4
  9
$SKETCHINC
 40
0.1
  9
$FILLETRAD
 40
0.0
  9
$AUNITS
 70
     0
  9
$AUPREC
 70
     0
  9
$MENU
  1
.
  9
$ELEVATION
 40
0.0
  9
$PELEVATION
 40
0.0
  9
$THICKNESS
 40
0.0
  9
$LIMCHECK
 70
     0
  9
$BLIPMODE
 70
     0
  9
$CHAMFERA
 40
0.0
  9
$CHAMFERB
 40
0.0
  9
$SKPOLY
 70
     0
  9
$TDCREATE
 40
2458060.468368056230247
  9
$TDUPDATE
 40
2459388.6407175930216908
  9
$TDINDWG
 40
0.5978774306
  9
$TDUSRTIMER
 40
0.5978774306
  9
$USRTIMER
 70
     1
  9
$ANGBASE
 50
0.0
  9
$ANGDIR
 70
     0
  9
$PDMODE
 70
     0
  9
$PDSIZE
 40
0.3125
  9
$PLINEWID
 40
0.0
  9
$COORDS
 70
     1
  9
$SPLFRAME
 70
     0
  9
$SPLINETYPE
 70
     6
  9
$SPLINESEGS
 70
     8
  9
$ATTDIA
 70
     1
  9
$ATTREQ
 70
     1
  9
$HANDLING
 70
     1
  9
$HANDSEED
  5
1CE4C
  9
$SURFTAB1
 70
     6
  9
$SURFTAB2
 70
     6
  9
$SURFTYPE
 70
     6
  9
$SURFU
 70
     6
  9
$SURFV
 70
     6
  9
$UCSNAME
  2

  9
$UCSORG
 10
0.0
 20
0.0
 30
0.0
  9
$UCSXDIR
 10
1.0
 20
0.0
 30
0.0
  9
$UCSYDIR
 10
0.0
 20
1.0
 30
0.0
  9
$PUCSNAME
  2

  9
$PUCSORG
 10
0.0
 20
0.0
 30
0.0
  9
$PUCSXDIR
 10
1.0
 20
0.0
 30
0.0
  9
$PUCSYDIR
 10
0.0
 20
1.0
 30
0.0
  9
$USERI1
 70
     0
  9
$USERI2
 70
     0
  9
$USERI3
 70
     0
  9
$USERI4
 70
     0
  9
$USERI5
 70
     0
  9
$USERR1
 40
0.0
  9
$USERR2
 40
0.0
  9
$USERR3
 40
0.0
  9
$USERR4
 40
0.0
  9
$USERR5
 40
0.0
  9
$WORLDVIEW
 70
     1
  9
$SHADEDGE
 70
     3
  9
$SHADEDIF
 70
    70
  9
$TILEMODE
 70
     1
  9
$MAXACTVP
 70
    64
  9
$PLIMCHECK
 70
     0
  9
$PEXTMIN
 10
1.0000000000000000E+20
 20
1.0000000000000000E+20
 30
1.0000000000000000E+20
  9
$PEXTMAX
 10
-1.0000000000000000E+20
 20
-1.0000000000000000E+20
 30
-1.0000000000000000E+20
  9
$PLIMMIN
 10
0.0
 20
0.0
  9
$PLIMMAX
 10
12.0
 20
9.0
  9
$UNITMODE
 70
     0
  9
$VISRETAIN
 70
     1
  9
$PLINEGEN
 70
     0
  9
$PSLTSCALE
 70
     1
  0
ENDSEC
  0
SECTION
  2
TABLES
  0
TABLE
  2
VPORT
 70
     1
  0
VPORT
  2
*ACTIVE
 70
     0
 10
0.0
 20
0.0
 11
1.0
 21
1.0
 12
-5.189144155075148
 22
-31.3593788010478107
 13
0.0
 23
0.0
 14
1.0
 24
1.0
 15
0.0
 25
0.0
 16
0.0
 26
0.0
 36
96.5995694866707311
 17
3303.693115234375
 27
195.2615115758877096
 37
0.0
 40
38.0868719795616286
 41
2.6159122085048012
 42
50.0
 43
0.0
 44
0.0
 50
0.0
 51
0.0
 71
     0
 72
   100
 73
     1
 74
     1
 75
     0
 76
     0
 77
     0
 78
     0
  0
ENDTAB
  0
TABLE
  2
LTYPE
 70
     2
  0
LTYPE
  2
CONTINUOUS
 70
     0
  3
Solid line
 72
    65
 73
     0
 40
0.0
  0
LTYPE
  2
PHANTOM2
 70
     0
  3
___ _ _ ___ _ _ ___ _ _ ___ _ _
 72
    65
 73
     6
 40
1.25
 49
0.625
 49
-0.125
 49
0.125
 49
-0.125
 49
0.125
 49
-0.125
  0
ENDTAB
  0
TABLE
  2
LAYER
 70
     2
  0
LAYER
  2
0
 70
     0
 62
   255
  6
CONTINUOUS
  0
LAYER
  2
DEFPOINTS
 70
     0
 62
     7
  6
CONTINUOUS
  0
ENDTAB
  0
TABLE
  2
STYLE
 70
     1
  0
STYLE
  2
STANDARD
 70
     0
 40
0.0
 41
0.8
 50
0.0
 71
     0
 42
0.2
  3
txt
  4

  0
ENDTAB
  0
TABLE
  2
VIEW
 70
     0
  0
ENDTAB
  0
TABLE
  2
UCS
 70
     0
  0
ENDTAB
  0
TABLE
  2
APPID
 70
     9
  0
APPID
  2
ACAD
 70
     0
  0
APPID
  2
ACAD_MLEADERVER
 70
     0
  0
APPID
  2
ACAD_EXEMPT_FROM_CAD_STANDARDS
 70
     0
  0
APPID
  2
ACAD_NAV_VCDISPLAY
 70
     0
  0
APPID
  2
ACAECLAYERSTANDARD
 70
     0
  0
APPID
  2
ACCMTRANSPARENCY
 70
     0
  0
APPID
  2
ACAD_DSTYLE_DIMJAG
 70
     0
  0
APPID
  2
ACAD_DSTYLE_DIMTALN
 70
     0
  0
APPID
  2
ACDBATTR
 70
     0
  0
ENDTAB
  0
TABLE
  2
DIMSTYLE
 70
     1
  0
DIMSTYLE
  2
STANDARD
 70
     0
  3

  4

  5

  6

  7

 40
1.0
 41
0.1875
 42
0.0625
 43
0.38
 44
0.125
 45
0.0
 46
0.0
 47
0.01
 48
0.01
140
0.15625
141
0.09
142
0.0
143
25.3999999999999986
144
1.0
145
0.0
146
1.0
147
0.09
 71
     1
 72
     0
 73
     1
 74
     1
 75
     0
 76
     0
 77
     0
 78
     4
170
     0
171
     2
172
     0
173
     0
174
     0
175
     0
176
     0
177
     0
178
     0
  0
ENDTAB
  0
ENDSEC
  0
SECTION
  2
BLOCKS
  0
BLOCK
  8
0
  2
$MODEL_SPACE
 70
     0
 10
0.0
 20
0.0
 30
0.0
  3
$MODEL_SPACE
  1

  0
ENDBLK
  5
21
  8
0
  0
BLOCK
 67
     1
  8
0
  2
$PAPER_SPACE
 70
     0
 10
0.0
 20
0.0
 30
0.0
  3
$PAPER_SPACE
  1

  0
ENDBLK
  5
1D
 67
     1
  8
0
  0
BLOCK
  8
0
  2
_FILLED
 70
     0
 10
0.0
 20
0.0
 30
0.0
  3
_FILLED
  1

  0
SOLID
  5
9E2C
  8
0
  6
BYBLOCK
 62
     0
 10
0.0
 20
0.0
 30
0.0
 11
-1.0
 21
0.1666666667
 31
0.0
 12
-1.0
 22
-0.1666666667
 32
0.0
 13
-1.0
 23
-0.1666666667
 33
0.0
  0
ENDBLK
  5
9E2D
  8
0
  6
BYBLOCK
 62
     0
  0
BLOCK
  8
0
  2
A$C6B0F1CD5
 70
     2
 10
0.0
 20
0.0
 30
0.0
  3
A$C6B0F1CD5
  1

  0
ATTDEF
  5
B779
  8
DEFPOINTS
 10
0.0005209962714616
 20
0.000347009907216
 30
0.0
 40
0.001
  1
BATH FAUCET
  3

  2
PRODUCT
 70
     0
1001
ACDBATTR
1070
     0
1070
     1
  0
ATTDEF
  5
B77A
  8
DEFPOINTS
 10
0.0005209962714616
 20
0.0020136765738812
 30
0.0
 40
0.001
  1
SINGULIER
  3

  2
TRADENAME
 70
     0
1001
ACDBATTR
1070
     0
1070
     1
  0
ATTDEF
  5
B77B
  8
DEFPOINTS
 10
0.0005209962714616
 20
0.0036803432405463
 30
0.0
 40
0.001
  1
K-10873W
  3

  2
MODELNUMBER
 70
     0
1001
ACDBATTR
1070
     0
1070
     1
  0
ENDBLK
  5
B77F
  8
0
  0
ENDSEC
  0
SECTION
  2
ENTITIES
  0
ATTDEF
  5
1BFF3
  8
DEFPOINTS
 10
3290.5609922406770238
 20
143.879339028337796
 30
0.0
 40
0.001
  1
K-77799T
  3

  2
MODELNUMBER
 70
     0
1001
ACDBATTR
1070
     0
1070
     1
  0
ATTDEF
  5
1BFF4
  8
DEFPOINTS
 10
3290.5609922406770238
 20
143.8776723616711877
 30
0.0
 40
0.001
  1
EIR
  3

  2
TRADENAME
 70
     0
1001
ACDBATTR
1070
     0
1070
     1
  0
ATTDEF
  5
1BFF5
  8
DEFPOINTS
 10
3290.5609922406770238
 20
143.8760056950044941
 30
0.0
 40
0.001
  1
TOILET
  3

  2
PRODUCT
 70
     0
1001
ACDBATTR
1070
     0
1070
     1
  0
LINE
  5
1CA30
  8
0
 10
3286.6846192284078825
 20
160.2772273409835861
 30
0.0
 11
3286.7363629982078237
 21
160.3289679159836112
 31
0.0
  0
LINE
  5
1CA31
  8
0
 10
3283.7414698914080873
 20
143.8755009927835999
 30
0.0
 11
3297.3799491920080982
 21
143.8755009927835999
 31
0.0
  0
LINE
  5
1CA32
  8
0
 10
3282.610295925408991
 20
160.2231971996860125
 30
0.0
 11
3282.6053113382081392
 21
160.2729845252835901
 31
0.0
  0
LINE
  5
1CA33
  8
0
 10
3282.5262418382758369
 20
160.0832905247372082
 30
0.0
 11
3282.5080647948079786
 21
160.2730533748836024
 31
0.0
  0
LINE
  5
1CA34
  8
0
 10
3282.5487348820079205
 20
160.2431478404836014
 30
0.0
 11
3282.5558420033471521
 21
160.169498891438991
 31
0.0
  0
LINE
  5
1CA35
  8
0
 10
3282.82885875700822
 20
160.3515598263836068
 30
0.0
 11
3282.82885875700822
 21
160.3225491571836017
 31
0.0
  0
LINE
  5
1CA36
  8
0
 10
3282.8480592721580251
 20
160.251366678083599
 30
0.0
 11
3282.8480592769410578
 21
160.3515598263836068
 31
0.0
  0
LINE
  5
1CA37
  8
0
 10
3283.2718683224079541
 20
160.3132198844836012
 30
0.0
 11
3283.2718683224079541
 21
160.251366678083599
 31
0.0
  0
LINE
  5
1CA38
  8
0
 10
3282.6797184778010887
 20
160.3084128396039034
 30
0.0
 11
3282.6783845859249595
 21
160.2494256296384947
 31
0.0
  0
LINE
  5
1CA39
  8
0
 10
3297.3799491920080982
 20
144.7810128037835966
 30
0.0
 11
3283.7414698914080873
 21
144.7810128037835966
 31
0.0
  0
LINE
  5
1CA3A
  8
0
 10
3283.8819404304258569
 20
144.8400679219836036
 30
0.0
 11
3283.8200699651079049
 21
144.8400679219836036
 31
0.0
  0
LINE
  5
1CA3B
  8
0
 10
3283.7414698914080873
 20
143.8755009927835999
 30
0.0
 11
3283.7414698914080873
 21
144.7810128037835966
 31
0.0
  0
LINE
  5
1CA3C
  8
0
 10
3283.8200699651079049
 20
144.8400679219836036
 30
0.0
 11
3283.8200699651079049
 21
144.7810128037835966
 31
0.0
  0
LINE
  5
1CA3D
  8
0
 10
3282.5968279665080445
 20
160.2837944388836036
 30
0.0
 11
3282.5930959624238312
 21
160.3047034952840875
 31
0.0
  0
LINE
  5
1CA3E
  8
0
 10
3285.4815252007078925
 20
160.3515598263836068
 30
0.0
 11
3285.4815252007078925
 21
160.3407789396837018
 31
0.0
  0
LINE
  5
1CA3F
  8
0
 10
3286.7797987654080316
 20
160.3407789396837018
 30
0.0
 11
3286.7797987654080316
 21
160.3515598263836068
 31
0.0
  0
LINE
  5
1CA40
  8
0
 10
3285.5252246178088171
 20
160.3289679159836112
 30
0.0
 11
3285.5769683229082148
 21
160.2772273299835888
 31
0.0
  0
LINE
  5
1CA41
  8
0
 10
3285.6326566633078983
 20
160.2541647663836102
 30
0.0
 11
3286.6289309528078775
 21
160.2541647663836102
 31
0.0
  0
LINE
  5
1CA42
  8
0
 10
3283.2470726404080779
 20
160.3132198844836012
 30
0.0
 11
3285.1181886274089265
 21
160.3132198844836012
 31
0.0
  0
LINE
  5
1CA43
  8
0
 10
3285.4933532018080768
 20
160.3289679159836112
 30
0.0
 11
3286.767970756808154
 21
160.3289679159836112
 31
0.0
  0
LINE
  5
1CA44
  8
0
 10
3282.5466584621399306
 20
160.2817613693765963
 30
0.0
 11
3282.516081876107819
 21
160.2817639023836023
 31
0.0
  0
LINE
  5
1CA45
  8
0
 10
3282.5936085902080777
 20
160.2803027354835876
 30
0.0
 11
3282.5466584621399306
 21
160.2817613693765963
 31
0.0
  0
ARC
  5
1CA46
  8
0
 10
3282.8159262365738869
 20
160.3230454110845074
 30
0.0
 40
0.0129420381975193
 50
275.0074428026370015
 51
357.8024924840303811
  0
LINE
  5
1CA47
  8
0
 10
3284.6843481249998149
 20
160.3132198844836012
 30
0.0
 11
3284.684395779010174
 21
160.251366678083599
 31
0.0
  0
ARC
  5
1CA48
  8
0
 10
2875.1478365756120184
 20
116.1008967263821035
 30
0.0
 40
409.7432215607822741
 50
4.0137195592210864
 51
6.1593813735608238
  0
ARC
  5
1CA49
  8
0
 10
2471.9382098757951098
 20
96.2799058686661624
 30
0.0
 40
813.0931947926721932
 50
3.4327922366593411
 51
4.4992682162503881
  0
LINE
  5
1CA4A
  8
0
 10
3283.5724890034621239
 20
144.9660472547427901
 30
0.0
 11
3283.5806704508081566
 21
144.9584875821836079
 31
0.0
  0
LINE
  5
1CA4B
  8
0
 10
3283.5806704508081566
 20
144.9584875821836079
 30
0.0
 11
3283.8735967926650119
 21
144.9584875821836079
 31
0.0
  0
LINE
  5
1CA4C
  8
0
 10
3298.4275348888318149
 20
160.251366678083599
 30
0.0
 11
3282.6938841945839158
 21
160.251366678083599
 31
0.0
  0
ARC
  5
1CA4D
  8
0
 10
3282.7088802651787773
 20
160.068766395563614
 30
0.0
 40
0.1832150247923596
 50
94.6948868912993049
 51
181.4563786973990034
  0
ARC
  5
1CA4E
  8
0
 10
3615.9514357678290253
 20
196.743447864529287
 30
0.0
 40
335.4371458606497072
 50
186.0723854897200908
 51
186.2777246147041126
  0
ARC
  5
1CA4F
  8
0
 10
3284.1256418430311896
 20
163.0118141012530089
 30
0.0
 40
1.799013010180408
 50
127.0418037694847015
 51
176.4547265725620093
  0
ARC
  5
1CA50
  8
0
 10
3285.360388131021864
 20
160.6221096162483946
 30
0.0
 40
4.4733701520649296
 50
94.062928312595588
 51
121.2170833973933952
  0
ARC
  5
1CA51
  8
0
 10
3294.87502099339099
 20
26.6434229331296883
 30
0.0
 40
138.7894776139661985
 50
91.7813430046212204
 51
94.0621252701705401
  0
ARC
  5
1CA52
  8
0
 10
3290.5886864752551446
 20
125.733273621315405
 30
0.0
 40
38.690868357829288
 50
90.0414299400367071
 51
95.0489467799834529
  0
ARC
  5
1CA53
  8
0
 10
3288.0910990900902107
 20
148.9416034372098068
 30
0.0
 40
15.3592447378307693
 50
93.3871778356071758
 51
105.3434081357874987
  0
ARC
  5
1CA54
  8
0
 10
3284.5780418563931562
 20
161.4850979869054868
 30
0.0
 40
2.3342807595483861
 50
103.6547713396115
 51
143.0373506247842954
  0
ARC
  5
1CA55
  8
0
 10
3286.7933505279052042
 20
161.2507160822445087
 30
0.0
 40
4.3969459494174501
 50
158.1285852365822109
 51
179.8882944184609869
  0
LINE
  5
1CA56
  8
0
 10
3282.396412935007902
 20
161.2592884953836005
 30
0.0
 11
3298.7250061484078287
 21
161.2592884953836005
 31
0.0
  0
ARC
  5
1CA57
  8
0
 10
3282.5093517390778288
 20
160.314024552372814
 30
0.0
 40
0.0148088532375488
 50
228.4971443415952876
 51
271.5458133868831965
  0
ARC
  5
1CA58
  8
0
 10
3282.7954855060002046
 20
156.591680259867303
 30
0.0
 40
3.7185350709779841
 50
89.6676383180181773
 51
94.4069832952812931
  0
LINE
  5
1CA59
  8
0
 10
3282.5154952745078845
 20
160.3515598263836068
 30
0.0
 11
3298.6059238089078463
 21
160.3515598263836068
 31
0.0
  0
ARC
  5
1CA5A
  8
0
 10
3283.2471097813258893
 20
160.3918564348745122
 30
0.0
 40
0.0786365591619391
 50
210.8265704845599942
 51
269.9729385678514859
  0
ARC
  5
1CA5B
  8
0
 10
3285.1134328737211945
 20
160.400074875148988
 30
0.0
 40
0.0869850941059443
 50
273.1341064852651925
 51
326.1003666561949217
  0
ARC
  5
1CA5C
  8
0
 10
3285.494556467656821
 20
160.3420009247325027
 30
0.0
 40
0.0130884363371793
 50
185.3571490279009879
 51
264.7251499000799981
  0
ARC
  5
1CA5D
  8
0
 10
3285.6385801269298099
 20
160.3472335354904885
 30
0.0
 40
0.093257081255773
 50
228.6492971339280871
 51
266.3582594851681051
  0
ARC
  5
1CA5E
  8
0
 10
3286.6234895327697814
 20
160.3460693576415963
 30
0.0
 40
0.0920655361485638
 50
273.3883711246891721
 51
311.6041387144330201
  0
ARC
  5
1CA5F
  8
0
 10
3286.7673997827218955
 20
160.3413677319746
 30
0.0
 40
0.012412954846375
 50
272.6364353338561273
 51
357.2812294076188095
  0
LINE
  5
1CA60
  8
0
 10
3285.9629794895718078
 20
160.2541647663836102
 30
0.0
 11
3285.9672601840347852
 21
160.251366678083599
 31
0.0
  0
LINE
  5
1CA61
  8
0
 10
3286.5398222832877764
 20
160.2541647663836102
 30
0.0
 11
3286.543491814275967
 21
160.251366678083599
 31
0.0
  0
ARC
  5
1CA62
  8
0
 10
3282.5462308373221276
 20
160.2735782580230932
 30
0.0
 40
0.0081942769300911
 50
7.2270862486771117
 51
87.0086156493796778
  0
ARC
  5
1CA63
  8
0
 10
3282.5843586483551917
 20
160.2530119866034966
 30
0.0
 40
0.0369642274019473
 50
144.2484868022885962
 51
195.4772984111438916
  0
ARC
  5
1CA64
  8
0
 10
3282.5168120823500431
 20
160.2730471439834901
 30
0.0
 40
0.008747289760927
 50
94.7885095333638645
 51
179.9591868659020975
  0
ARC
  5
1CA65
  8
0
 10
3282.515868128899001
 20
160.3793126634797943
 30
0.0
 40
0.0277553415991215
 50
214.1559698759974992
 51
269.2302877816770774
  0
ARC
  5
1CA66
  8
0
 10
3282.5935068812409554
 20
160.2671238942886021
 30
0.0
 40
0.0131792336635043
 50
26.4033008536472416
 51
89.5578231199093153
  0
ARC
  5
1CA67
  8
0
 10
3282.5935841389227789
 20
160.2835552758008077
 30
0.0
 40
0.0032526322233635
 50
270.43071842312321
 51
4.2167119100032506
  0
LINE
  5
1CA68
  8
0
 10
3282.3300716974581519
 20
163.1230600590409949
 30
0.0
 11
3282.396412935007902
 21
161.2592884953836005
 31
0.0
  0
LINE
  5
1CA69
  8
0
 10
3294.4367998550078482
 20
160.2772273409835861
 30
0.0
 11
3294.385056085207907
 21
160.3289679159836112
 31
0.0
  0
LINE
  5
1CA6A
  8
0
 10
3298.5111231580071944
 20
160.2231971996860125
 30
0.0
 11
3298.5161077452080463
 21
160.2729845252835901
 31
0.0
  0
LINE
  5
1CA6B
  8
0
 10
3298.5951772451398938
 20
160.0832905247372082
 30
0.0
 11
3298.6133542886082068
 21
160.2730533748836024
 31
0.0
  0
LINE
  5
1CA6C
  8
0
 10
3298.5726842014078102
 20
160.2431478404836014
 30
0.0
 11
3298.5655770800690334
 21
160.169498891438991
 31
0.0
  0
LINE
  5
1CA6D
  8
0
 10
3298.2925603264079655
 20
160.3515598263836068
 30
0.0
 11
3298.2925603264079655
 21
160.3225491571836017
 31
0.0
  0
LINE
  5
1CA6E
  8
0
 10
3298.2733598112581603
 20
160.251366678083599
 30
0.0
 11
3298.2733598064760372
 21
160.3515598263836068
 31
0.0
  0
LINE
  5
1CA6F
  8
0
 10
3297.8495507610077766
 20
160.3132198844836012
 30
0.0
 11
3297.8495507610077766
 21
160.251366678083599
 31
0.0
  0
LINE
  5
1CA70
  8
0
 10
3298.4417006056150967
 20
160.3084128396039034
 30
0.0
 11
3298.4430344974912259
 21
160.2494256296384947
 31
0.0
  0
LINE
  5
1CA71
  8
0
 10
3297.2394786529898738
 20
144.8400679219836036
 30
0.0
 11
3297.3013491183078258
 21
144.8400679219836036
 31
0.0
  0
LINE
  5
1CA72
  8
0
 10
3297.3799491920080982
 20
143.8755009927835999
 30
0.0
 11
3297.3799491920080982
 21
144.7810128037835966
 31
0.0
  0
LINE
  5
1CA73
  8
0
 10
3297.3013491183078258
 20
144.8400679219836036
 30
0.0
 11
3297.3013491183078258
 21
144.7810128037835966
 31
0.0
  0
LINE
  5
1CA74
  8
0
 10
3298.524591116908141
 20
160.2837944388836036
 30
0.0
 11
3298.52832312099099
 21
160.3047034952840875
 31
0.0
  0
LINE
  5
1CA75
  8
0
 10
3295.6398938827078382
 20
160.3515598263836068
 30
0.0
 11
3295.6398938827078382
 21
160.3407789396837018
 31
0.0
  0
LINE
  5
1CA76
  8
0
 10
3294.3416203180081538
 20
160.3407789396837018
 30
0.0
 11
3294.3416203180081538
 21
160.3515598263836068
 31
0.0
  0
LINE
  5
1CA77
  8
0
 10
3295.5961944656078231
 20
160.3289679159836112
 30
0.0
 11
3295.5444507605079707
 21
160.2772273299835888
 31
0.0
  0
LINE
  5
1CA78
  8
0
 10
3295.4887624201078324
 20
160.2541647663836102
 30
0.0
 11
3294.4924881306078532
 21
160.2541647663836102
 31
0.0
  0
LINE
  5
1CA79
  8
0
 10
3297.8743464430081076
 20
160.3132198844836012
 30
0.0
 11
3296.0032304560081684
 21
160.3132198844836012
 31
0.0
  0
LINE
  5
1CA7A
  8
0
 10
3295.6280658816081086
 20
160.3289679159836112
 30
0.0
 11
3294.3534483266080315
 21
160.3289679159836112
 31
0.0
  0
LINE
  5
1CA7B
  8
0
 10
3298.5747606212758001
 20
160.2817613693765963
 30
0.0
 11
3298.6053372073079117
 21
160.2817639023836023
 31
0.0
  0
LINE
  5
1CA7C
  8
0
 10
3298.5278104932081078
 20
160.2803027354835876
 30
0.0
 11
3298.5747606212758001
 21
160.2817613693765963
 31
0.0
  0
ARC
  5
1CA7D
  8
0
 10
3298.3054928468418439
 20
160.3230454110845074
 30
0.0
 40
0.0129420381975193
 50
182.1975075159695052
 51
264.9925571973629985
  0
LINE
  5
1CA7E
  8
0
 10
3296.4370709584150063
 20
160.3132198844836012
 30
0.0
 11
3296.4370233044060114
 21
160.251366678083599
 31
0.0
  0
ARC
  5
1CA7F
  8
0
 10
3705.9735825078041671
 20
116.1008967263821035
 30
0.0
 40
409.7432215607822741
 50
173.8406186264390954
 51
175.9862804407788985
  0
ARC
  5
1CA80
  8
0
 10
4109.1832092076219851
 20
96.2799058686661624
 30
0.0
 40
813.0931947926721932
 50
175.5007317837495862
 51
176.5672077633406047
  0
LINE
  5
1CA81
  8
0
 10
3297.5489300799540615
 20
144.9660472547427901
 30
0.0
 11
3297.5407486326080289
 21
144.9584875821836079
 31
0.0
  0
LINE
  5
1CA82
  8
0
 10
3297.5407486326080289
 20
144.9584875821836079
 30
0.0
 11
3297.2478222907511736
 21
144.9584875821836079
 31
0.0
  0
ARC
  5
1CA83
  8
0
 10
3298.4125388182378629
 20
160.068766395563614
 30
0.0
 40
0.1832150247923596
 50
358.543621302601025
 51
85.3051131087007093
  0
ARC
  5
1CA84
  8
0
 10
2965.1699833155871602
 20
196.743447864529287
 30
0.0
 40
335.4371458606497072
 50
353.7222753852958022
 51
353.9276145102799092
  0
ARC
  5
1CA85
  8
0
 10
3296.9957772403849958
 20
163.0118141012530089
 30
0.0
 40
1.799013010180408
 50
3.54527342743798
 51
52.9581962305153198
  0
ARC
  5
1CA86
  8
0
 10
3295.7610309523938668
 20
160.6221096162483946
 30
0.0
 40
4.4733701520649296
 50
58.7829166026065266
 51
85.9370716874044263
  0
ARC
  5
1CA87
  8
0
 10
3290.5327326081610408
 20
125.733273621315405
 30
0.0
 40
38.690868357829288
 50
84.9510532200165329
 51
89.9585700599633071
  0
ARC
  5
1CA88
  8
0
 10
3293.0303199933259748
 20
148.9416034372098068
 30
0.0
 40
15.3592447378307693
 50
74.6565918642124871
 51
86.6128221643928526
  0
ARC
  5
1CA89
  8
0
 10
3296.5433772270230293
 20
161.4850979869054868
 30
0.0
 40
2.3342807595483861
 50
36.962649375215662
 51
76.3452286603884858
  0
ARC
  5
1CA8A
  8
0
 10
3294.3280685555109812
 20
161.2507160822445087
 30
0.0
 40
4.3969459494174501
 50
0.1117055815389421
 51
21.8714147634177998
  0
ARC
  5
1CA8B
  8
0
 10
3298.6120673443369924
 20
160.314024552372814
 30
0.0
 40
0.0148088532375488
 50
268.4541866131166898
 51
311.5028556584045987
  0
ARC
  5
1CA8C
  8
0
 10
3298.3259335774159808
 20
156.591680259867303
 30
0.0
 40
3.7185350709779841
 50
85.5930167047187069
 51
90.3323616819818227
  0
ARC
  5
1CA8D
  8
0
 10
3297.8743093020898414
 20
160.3918564348745122
 30
0.0
 40
0.0786365591619391
 50
270.0270614321484004
 51
329.1734295154399774
  0
ARC
  5
1CA8E
  8
0
 10
3296.007986209694991
 20
160.400074875148988
 30
0.0
 40
0.0869850941059443
 50
213.8996333438051067
 51
266.8658935147348075
  0
ARC
  5
1CA8F
  8
0
 10
3295.6268626157589097
 20
160.3420009247325027
 30
0.0
 40
0.0130884363371793
 50
275.2748500999200019
 51
354.6428509720989837
  0
ARC
  5
1CA90
  8
0
 10
3295.4828389564850113
 20
160.3472335354904885
 30
0.0
 40
0.093257081255773
 50
273.6417405148317812
 51
311.3507028660719129
  0
ARC
  5
1CA91
  8
0
 10
3294.4979295506459493
 20
160.3460693576415963
 30
0.0
 40
0.0920655361485638
 50
228.3958612855668946
 51
266.6116288753108279
  0
ARC
  5
1CA92
  8
0
 10
3294.3540193006951995
 20
160.3413677319746
 30
0.0
 40
0.012412954846375
 50
182.7187705923813041
 51
267.3635646661438727
  0
LINE
  5
1CA93
  8
0
 10
3295.1584395938439229
 20
160.2541647663836102
 30
0.0
 11
3295.1541588993809455
 21
160.251366678083599
 31
0.0
  0
LINE
  5
1CA94
  8
0
 10
3294.5815968001279543
 20
160.2541647663836102
 30
0.0
 11
3294.5779272691402184
 21
160.251366678083599
 31
0.0
  0
ARC
  5
1CA95
  8
0
 10
3298.5751882460917841
 20
160.2735782580230932
 30
0.0
 40
0.0081942769300911
 50
92.9913843506203364
 51
172.7729137513229034
  0
ARC
  5
1CA96
  8
0
 10
3298.5370604350609938
 20
160.2530119866034966
 30
0.0
 40
0.0369642274019473
 50
344.5227015888560231
 51
35.7515131977113612
  0
ARC
  5
1CA97
  8
0
 10
3298.6046070010661424
 20
160.2730471439834901
 30
0.0
 40
0.008747289760927
 50
0.040813134097902
 51
85.2114904666361355
  0
ARC
  5
1CA98
  8
0
 10
3298.6055509545180939
 20
160.3793126634797943
 30
0.0
 40
0.0277553415991215
 50
270.7697122183229226
 51
325.8440301240037797
  0
ARC
  5
1CA99
  8
0
 10
3298.5279122021747753
 20
160.2671238942886021
 30
0.0
 40
0.0131792336635043
 50
90.4421768800906847
 51
153.5966991463527904
  0
ARC
  5
1CA9A
  8
0
 10
3298.5278349444929518
 20
160.2835552758008077
 30
0.0
 40
0.0032526322233635
 50
175.7832880899966881
 51
269.5692815768766764
  0
LINE
  5
1CA9B
  8
0
 10
3298.7913473859580336
 20
163.1230600590409949
 30
0.0
 11
3298.7250061484078287
 21
161.2592884953836005
 31
0.0
  0
ARC
  5
1CA9C
  8
0
 10
3286.2463980900251954
 20
26.6434229331296883
 30
0.0
 40
138.7894776139661985
 50
85.9378747298294456
 51
88.2186569953787938
  0
LINE
  5
1CA9D
  8
0
 10
3314.6394497211081216
 20
181.5950297220084053
 30
0.0
 11
3314.6394497211081216
 21
178.5741233696327868
 31
0.0
  0
LINE
  5
1CA9E
  8
0
 10
3314.560709589461112
 20
181.5964041437993046
 30
0.0
 11
3314.5598439023960964
 21
178.5727338371335975
 31
0.0
  0
LINE
  5
1CA9F
  8
0
 10
3314.5528355722608467
 20
181.5964041444445058
 30
0.0
 11
3314.5519698668958881
 21
178.5727338363612091
 31
0.0
  0
LINE
  5
1CAA0
  8
0
 10
3314.5528355722608467
 20
181.5904986328060033
 30
0.0
 11
3314.560709589461112
 21
181.5903611905816035
 31
0.0
  0
LINE
  5
1CAA1
  8
0
 10
3314.6394497496899021
 20
181.5950297215096043
 30
0.0
 11
3314.560709611789207
 21
181.5964041434095861
 31
0.0
  0
ARC
  5
1CAA2
  8
0
 10
3320.8557178473279237
 20
-190.7990477593853882
 30
0.0
 40
372.4487869806865774
 50
90.9696522166696155
 51
91.0619166544462075
  0
LINE
  5
1CAA3
  8
0
 10
3314.5519715577079296
 20
178.5786393773209113
 30
0.0
 11
3314.5598456325228653
 21
178.5787768205510133
 31
0.0
  0
LINE
  5
1CAA4
  8
0
 10
3314.6394497211081216
 20
178.5741233696327868
 30
0.0
 11
3314.5598439023960964
 21
178.5727338371335975
 31
0.0
  0
ARC
  5
1CAA5
  8
0
 10
3279.5050851901251008
 20
-1792.4978737066419399
 30
0.0
 40
1971.3821608317070968
 50
88.9813520656814347
 51
89.0124982792557802
  0
ARC
  5
1CAA6
  8
0
 10
3313.9566883572488223
 20
181.5760949611531885
 30
0.0
 40
0.0102968815351091
 50
109.9869184716379067
 51
171.9403311549583009
  0
ARC
  5
1CAA7
  8
0
 10
3313.4808527823111035
 20
178.5995141760078866
 30
0.0
 40
0.0080284696106147
 50
182.8274404668775048
 51
267.3595279171626089
  0
LINE
  5
1CAA8
  8
0
 10
3313.9450089657498211
 20
181.5670929175612969
 30
0.0
 11
3313.9262519649892056
 21
181.5883012374399073
 31
0.0
  0
ARC
  5
1CAA9
  8
0
 10
3313.9200867576500968
 20
181.5831708732592915
 30
0.0
 40
0.008020624549257
 50
39.7654627111732211
 51
79.9879374879670735
  0
LINE
  5
1CAAA
  8
0
 10
3313.921481187388963
 20
181.5910693531043876
 30
0.0
 11
3313.6810719670320395
 21
181.6322959536909138
 31
0.0
  0
ARC
  5
1CAAB
  8
0
 10
3313.6815679335381901
 20
181.624407393023688
 30
0.0
 40
0.0079041363964724
 50
93.5975426934281245
 51
172.0812703025777068
  0
LINE
  5
1CAAC
  8
0
 10
3313.558964396464944
 20
179.0962473207723917
 30
0.0
 11
3313.5374524594722061
 21
179.0833908449423859
 31
0.0
  0
ARC
  5
1CAAD
  8
0
 10
3313.5331324762428267
 20
179.0901486673029979
 30
0.0
 40
0.008020624549257
 50
262.3665453539505847
 51
302.5890201307652205
  0
LINE
  5
1CAAE
  8
0
 10
3313.5320670555202014
 20
179.0821991203445123
 30
0.0
 11
3313.290472154104009
 21
179.1157867585282872
 31
0.0
  0
ARC
  5
1CAAF
  8
0
 10
3313.293339411271063
 20
179.1231580947348903
 30
0.0
 40
0.0079093464413416
 50
180.0309461574140073
 51
248.7452652238748954
  0
ARC
  5
1CAB0
  8
0
 10
3224.1358236608680272
 20
194.3332828241659058
 30
0.0
 40
90.7119913234090944
 50
350.0114208156995232
 51
351.9163877436600956
  0
LINE
  5
1CAB1
  8
0
 10
3313.921481187388963
 20
181.5910693531043876
 30
0.0
 11
3313.5320670555211109
 21
179.0821991203445123
 31
0.0
  0
LINE
  5
1CAB2
  8
0
 10
3313.2854300659842011
 20
179.1231538227995088
 30
0.0
 11
3313.6737391671890691
 21
181.6254963327045004
 31
0.0
  0
ENDSEC
  0
EOF
