  0
SECTION
  2
HEADER
  9
$ACADVER
  1
AC1009
  9
$INSBASE
 10
3290.5601772972531762
 20
231.1664240256507128
 30
0.0
  9
$EXTMIN
 10
3282.3295394530018712
 20
187.9982921910927018
 30
0.0
  9
$EXTMAX
 10
3314.6389175052331666
 20
231.1714591239689867
 30
0.0
  9
$LIMMIN
 10
0.0
 20
0.0
  9
$LIMMAX
 10
11.6929133858000007
 20
8.2677165353999982
  9
$ORTHOMODE
 70
     0
  9
$REGENMODE
 70
     1
  9
$FILLMODE
 70
     1
  9
$QTEXTMODE
 70
     0
  9
$MIRRTEXT
 70
     0
  9
$DRAGMODE
 70
     2
  9
$LTSCALE
 40
0.6431102362
  9
$OSMODE
 70
  4095
  9
$ATTMODE
 70
     1
  9
$TEXTSIZE
 40
0.2
  9
$TRACEWID
 40
0.05
  9
$TEXTSTYLE
  7
STANDARD
  9
$CLAYER
  8
0
  9
$CELTYPE
  6
BYLAYER
  9
$CECOLOR
 62
   256
  9
$DIMSCALE
 40
1.0
  9
$DIMASZ
 40
0.1875
  9
$DIMEXO
 40
0.0625
  9
$DIMDLI
 40
0.4443307087
  9
$DIMRND
 40
0.0
  9
$DIMDLE
 40
0.0
  9
$DIMEXE
 40
0.125
  9
$DIMTP
 40
0.01
  9
$DIMTM
 40
0.01
  9
$DIMTXT
 40
2.0
  9
$DIMCEN
 40
0.1052362205
  9
$DIMTSZ
 40
0.0
  9
$DIMTOL
 70
     1
  9
$DIMLIM
 70
     0
  9
$DIMTIH
 70
     1
  9
$DIMTOH
 70
     1
  9
$DIMSE1
 70
     0
  9
$DIMSE2
 70
     0
  9
$DIMTAD
 70
     0
  9
$DIMZIN
 70
     0
  9
$DIMBLK
  1

  9
$DIMASO
 70
     1
  9
$DIMSHO
 70
     1
  9
$DIMPOST
  1
\X
  9
$DIMAPOST
  1

  9
$DIMALT
 70
     1
  9
$DIMALTD
 70
     2
  9
$DIMALTF
 40
25.3999999999999986
  9
$DIMLFAC
 40
1.0
  9
$DIMTOFL
 70
     0
  9
$DIMTVP
 40
0.0
  9
$DIMTIX
 70
     0
  9
$DIMSOXD
 70
     0
  9
$DIMSAH
 70
     0
  9
$DIMBLK1
  1

  9
$DIMBLK2
  1

  9
$DIMSTYLE
  2
STANDARD
  9
$DIMCLRD
 70
     0
  9
$DIMCLRE
 70
     0
  9
$DIMCLRT
 70
     0
  9
$DIMTFAC
 40
1.0
  9
$DIMGAP
 40
0.09
  9
$LUNITS
 70
     2
  9
$LUPREC
 70
     4
  9
$SKETCHINC
 40
0.1
  9
$FILLETRAD
 40
0.0
  9
$AUNITS
 70
     0
  9
$AUPREC
 70
     0
  9
$MENU
  1
.
  9
$ELEVATION
 40
0.0
  9
$PELEVATION
 40
0.0
  9
$THICKNESS
 40
0.0
  9
$LIMCHECK
 70
     0
  9
$BLIPMODE
 70
     0
  9
$CHAMFERA
 40
0.0
  9
$CHAMFERB
 40
0.0
  9
$SKPOLY
 70
     0
  9
$TDCREATE
 40
2458060.468368056230247
  9
$TDUPDATE
 40
2459388.640474536921829
  9
$TDINDWG
 40
0.596534838
  9
$TDUSRTIMER
 40
0.596534838
  9
$USRTIMER
 70
     1
  9
$ANGBASE
 50
0.0
  9
$ANGDIR
 70
     0
  9
$PDMODE
 70
     0
  9
$PDSIZE
 40
0.3125
  9
$PLINEWID
 40
0.0
  9
$COORDS
 70
     1
  9
$SPLFRAME
 70
     0
  9
$SPLINETYPE
 70
     6
  9
$SPLINESEGS
 70
     8
  9
$ATTDIA
 70
     1
  9
$ATTREQ
 70
     1
  9
$HANDLING
 70
     1
  9
$HANDSEED
  5
1CEF6
  9
$SURFTAB1
 70
     6
  9
$SURFTAB2
 70
     6
  9
$SURFTYPE
 70
     6
  9
$SURFU
 70
     6
  9
$SURFV
 70
     6
  9
$UCSNAME
  2

  9
$UCSORG
 10
0.0
 20
0.0
 30
0.0
  9
$UCSXDIR
 10
1.0
 20
0.0
 30
0.0
  9
$UCSYDIR
 10
0.0
 20
1.0
 30
0.0
  9
$PUCSNAME
  2

  9
$PUCSORG
 10
0.0
 20
0.0
 30
0.0
  9
$PUCSXDIR
 10
1.0
 20
0.0
 30
0.0
  9
$PUCSYDIR
 10
0.0
 20
1.0
 30
0.0
  9
$USERI1
 70
     0
  9
$USERI2
 70
     0
  9
$USERI3
 70
     0
  9
$USERI4
 70
     0
  9
$USERI5
 70
     0
  9
$USERR1
 40
0.0
  9
$USERR2
 40
0.0
  9
$USERR3
 40
0.0
  9
$USERR4
 40
0.0
  9
$USERR5
 40
0.0
  9
$WORLDVIEW
 70
     1
  9
$SHADEDGE
 70
     3
  9
$SHADEDIF
 70
    70
  9
$TILEMODE
 70
     1
  9
$MAXACTVP
 70
    64
  9
$PLIMCHECK
 70
     0
  9
$PEXTMIN
 10
1.0000000000000000E+20
 20
1.0000000000000000E+20
 30
1.0000000000000000E+20
  9
$PEXTMAX
 10
-1.0000000000000000E+20
 20
-1.0000000000000000E+20
 30
-1.0000000000000000E+20
  9
$PLIMMIN
 10
0.0
 20
0.0
  9
$PLIMMAX
 10
12.0
 20
9.0
  9
$UNITMODE
 70
     0
  9
$VISRETAIN
 70
     1
  9
$PLINEGEN
 70
     0
  9
$PSLTSCALE
 70
     1
  0
ENDSEC
  0
SECTION
  2
TABLES
  0
TABLE
  2
VPORT
 70
     1
  0
VPORT
  2
*ACTIVE
 70
     0
 10
0.0
 20
0.0
 11
1.0
 21
1.0
 12
-5.1890696103882874
 22
14.3244917348293903
 13
0.0
 23
0.0
 14
1.0
 24
1.0
 15
0.0
 25
0.0
 16
0.0
 26
0.0
 36
96.5995694866707311
 17
3303.693115234375
 27
195.2615115758877096
 37
0.0
 40
43.5452347814238792
 41
2.6159122085048012
 42
50.0
 43
0.0
 44
0.0
 50
0.0
 51
0.0
 71
     0
 72
   100
 73
     1
 74
     1
 75
     0
 76
     0
 77
     0
 78
     0
  0
ENDTAB
  0
TABLE
  2
LTYPE
 70
     2
  0
LTYPE
  2
CONTINUOUS
 70
     0
  3
Solid line
 72
    65
 73
     0
 40
0.0
  0
LTYPE
  2
PHANTOM2
 70
     0
  3
___ _ _ ___ _ _ ___ _ _ ___ _ _
 72
    65
 73
     6
 40
1.25
 49
0.625
 49
-0.125
 49
0.125
 49
-0.125
 49
0.125
 49
-0.125
  0
ENDTAB
  0
TABLE
  2
LAYER
 70
     2
  0
LAYER
  2
0
 70
     0
 62
   255
  6
CONTINUOUS
  0
LAYER
  2
DEFPOINTS
 70
     0
 62
     7
  6
CONTINUOUS
  0
ENDTAB
  0
TABLE
  2
STYLE
 70
     1
  0
STYLE
  2
STANDARD
 70
     0
 40
0.0
 41
0.8
 50
0.0
 71
     0
 42
0.2
  3
txt
  4

  0
ENDTAB
  0
TABLE
  2
VIEW
 70
     0
  0
ENDTAB
  0
TABLE
  2
UCS
 70
     0
  0
ENDTAB
  0
TABLE
  2
APPID
 70
     9
  0
APPID
  2
ACAD
 70
     0
  0
APPID
  2
ACAD_MLEADERVER
 70
     0
  0
APPID
  2
ACAD_EXEMPT_FROM_CAD_STANDARDS
 70
     0
  0
APPID
  2
ACAD_NAV_VCDISPLAY
 70
     0
  0
APPID
  2
ACAECLAYERSTANDARD
 70
     0
  0
APPID
  2
ACCMTRANSPARENCY
 70
     0
  0
APPID
  2
ACAD_DSTYLE_DIMJAG
 70
     0
  0
APPID
  2
ACAD_DSTYLE_DIMTALN
 70
     0
  0
APPID
  2
ACDBATTR
 70
     0
  0
ENDTAB
  0
TABLE
  2
DIMSTYLE
 70
     1
  0
DIMSTYLE
  2
STANDARD
 70
     0
  3

  4

  5

  6

  7

 40
1.0
 41
0.1875
 42
0.0625
 43
0.38
 44
0.125
 45
0.0
 46
0.0
 47
0.01
 48
0.01
140
0.15625
141
0.09
142
0.0
143
25.3999999999999986
144
1.0
145
0.0
146
1.0
147
0.09
 71
     1
 72
     0
 73
     1
 74
     1
 75
     0
 76
     0
 77
     0
 78
     4
170
     0
171
     2
172
     0
173
     0
174
     0
175
     0
176
     0
177
     0
178
     0
  0
ENDTAB
  0
ENDSEC
  0
SECTION
  2
BLOCKS
  0
BLOCK
  8
0
  2
$MODEL_SPACE
 70
     0
 10
0.0
 20
0.0
 30
0.0
  3
$MODEL_SPACE
  1

  0
ENDBLK
  5
21
  8
0
  0
BLOCK
 67
     1
  8
0
  2
$PAPER_SPACE
 70
     0
 10
0.0
 20
0.0
 30
0.0
  3
$PAPER_SPACE
  1

  0
ENDBLK
  5
1D
 67
     1
  8
0
  0
BLOCK
  8
0
  2
_FILLED
 70
     0
 10
0.0
 20
0.0
 30
0.0
  3
_FILLED
  1

  0
SOLID
  5
9E2C
  8
0
  6
BYBLOCK
 62
     0
 10
0.0
 20
0.0
 30
0.0
 11
-1.0
 21
0.1666666667
 31
0.0
 12
-1.0
 22
-0.1666666667
 32
0.0
 13
-1.0
 23
-0.1666666667
 33
0.0
  0
ENDBLK
  5
9E2D
  8
0
  6
BYBLOCK
 62
     0
  0
BLOCK
  8
0
  2
A$C6B0F1CD5
 70
     2
 10
0.0
 20
0.0
 30
0.0
  3
A$C6B0F1CD5
  1

  0
ATTDEF
  5
B779
  8
DEFPOINTS
 10
0.0005209962714616
 20
0.000347009907216
 30
0.0
 40
0.001
  1
BATH FAUCET
  3

  2
PRODUCT
 70
     0
1001
ACDBATTR
1070
     0
1070
     1
  0
ATTDEF
  5
B77A
  8
DEFPOINTS
 10
0.0005209962714616
 20
0.0020136765738812
 30
0.0
 40
0.001
  1
SINGULIER
  3

  2
TRADENAME
 70
     0
1001
ACDBATTR
1070
     0
1070
     1
  0
ATTDEF
  5
B77B
  8
DEFPOINTS
 10
0.0005209962714616
 20
0.0036803432405463
 30
0.0
 40
0.001
  1
K-10873W
  3

  2
MODELNUMBER
 70
     0
1001
ACDBATTR
1070
     0
1070
     1
  0
ENDBLK
  5
B77F
  8
0
  0
ENDSEC
  0
SECTION
  2
ENTITIES
  0
ATTDEF
  5
1BFF6
  8
DEFPOINTS
 10
3290.5606700369899045
 20
231.1704591239688966
 30
0.0
 40
0.001
  1
K-77799T
  3

  2
MODELNUMBER
 70
     0
1001
ACDBATTR
1070
     0
1070
     1
  0
ATTDEF
  5
1BFF7
  8
DEFPOINTS
 10
3290.5606700369899045
 20
231.168792457302203
 30
0.0
 40
0.001
  1
EIR
  3

  2
TRADENAME
 70
     0
1001
ACDBATTR
1070
     0
1070
     1
  0
ATTDEF
  5
1BFF8
  8
DEFPOINTS
 10
3290.5606700369899045
 20
231.1671257906355947
 30
0.0
 40
0.001
  1
TOILET
  3

  2
PRODUCT
 70
     0
1001
ACDBATTR
1070
     0
1070
     1
  0
LINE
  5
1CA40
  8
0
 10
3283.2714753439331616
 20
221.9455848393438941
 30
0.0
 11
3283.2742382697178982
 21
221.8928650742782906
 31
0.0
  0
LINE
  5
1CA41
  8
0
 10
3283.3554528878521523
 20
221.9029202730507109
 30
0.0
 11
3283.3554528878521523
 21
221.9364598261329888
 31
0.0
  0
LINE
  5
1CA42
  8
0
 10
3284.3790749350528131
 20
221.8335195437817049
 30
0.0
 11
3284.3790749350528131
 21
221.7961139998506894
 31
0.0
  0
LINE
  5
1CA43
  8
0
 10
3282.5189501153531637
 20
222.0135200845506915
 30
0.0
 11
3282.5609902449050423
 21
222.0138188640883925
 31
0.0
  0
ARC
  5
1CA44
  8
0
 10
3284.0485536498517831
 20
221.0335485414506991
 30
0.0
 40
1.7815091325000001
 50
146.1472052444053134
 51
147.9240663869128127
  0
ARC
  5
1CA45
  8
0
 10
3284.3593898960521074
 20
221.7961139995666997
 30
0.0
 40
0.0196850390001878
 50
301.1644049424937748
 51
0.0000008265053515
  0
ARC
  5
1CA46
  8
0
 10
3283.3784249855730195
 20
221.9041713149593136
 30
0.0
 40
0.0230061378661472
 50
183.1172026907435111
 51
255.5743195314911134
  0
ARC
  5
1CA47
  8
0
 10
3290.5602690560522205
 20
286.8104814099506825
 30
0.0
 40
65.3252107177999903
 50
262.8354593312864154
 51
269.9999195197182189
  0
ARC
  5
1CA48
  8
0
 10
3290.8224330137459219
 20
291.0461020550994817
 30
0.0
 40
69.5118582776798775
 50
263.045534761415297
 51
269.7838328347310153
  0
LINE
  5
1CA49
  8
0
 10
3295.8106164173100296
 20
229.9264240256507037
 30
0.0
 11
3285.3097381771940491
 21
229.9264240256507037
 31
0.0
  0
ARC
  5
1CA4A
  8
0
 10
3285.7045100392460881
 20
218.7722022514222999
 30
0.0
 40
11.1612054999331907
 50
92.0269746287511339
 51
100.1077273550499029
  0
ARC
  5
1CA4B
  8
0
 10
3284.0547712500610942
 20
228.0895919226134936
 30
0.0
 40
1.698933876546493
 50
100.4808313895475038
 51
155.7561305547613131
  0
ARC
  5
1CA4C
  8
0
 10
3300.9065946113601058
 20
226.0274280133963032
 30
0.0
 40
18.6067275005439186
 50
171.4703181314870903
 51
176.7637931165658074
  0
ARC
  5
1CA4D
  8
0
 10
2810.732555451359076
 20
218.3676018345649936
 30
0.0
 40
471.6774144207486756
 50
0.4481735754114144
 51
1.058111481766794
  0
ARC
  5
1CA4E
  8
0
 10
3282.4076558110978112
 20
222.0576668108512877
 30
0.0
 40
0.012130214279942
 50
182.8000507211957029
 51
261.690003677443201
  0
ARC
  5
1CA4F
  8
0
 10
3282.5542860302721238
 20
222.0342025792305094
 30
0.0
 40
0.0457744768449697
 50
181.2248659636669004
 51
200.6302167103254988
  0
ARC
  5
1CA50
  8
0
 10
3282.5197303205418393
 20
222.0232631477074108
 30
0.0
 40
0.0097742518799923
 50
212.0619981078866942
 51
265.4216370763085138
  0
ARC
  5
1CA51
  8
0
 10
3282.4112042568249308
 20
221.979823780020098
 30
0.0
 40
0.0156002515974995
 50
83.5359130212535916
 51
170.3670440240840946
  0
ARC
  5
1CA52
  8
0
 10
3445.5945597145700958
 20
221.7501422146679886
 30
0.0
 40
163.1989010636015109
 50
179.9184470097382871
 51
182.9597397285760962
  0
ARC
  5
1CA53
  8
0
 10
3300.9279084815830174
 20
213.9628815162951128
 30
0.0
 40
18.325710466990401
 50
181.9994718016203876
 51
202.4828716061464036
  0
ARC
  5
1CA54
  8
0
 10
3291.4308435105331228
 20
210.1673807573332908
 30
0.0
 40
8.1000138686568981
 50
203.3651661187664956
 51
236.2446769865937028
  0
ARC
  5
1CA55
  8
0
 10
3290.6114670380329699
 20
209.5324564453806033
 30
0.0
 40
7.1244170433685348
 50
238.8870666252385035
 51
269.5875155755094283
  0
ARC
  5
1CA56
  8
0
 10
3290.5872649651469146
 20
285.0386762858461793
 30
0.0
 40
63.5332019191747079
 50
264.656419925669411
 51
269.9755716845987195
  0
ARC
  5
1CA57
  8
0
 10
3284.6735881087402049
 20
221.8322158325840974
 30
0.0
 40
0.0507268805494341
 50
248.5374775466738981
 51
266.5661082841911025
  0
LINE
  5
1CA58
  8
0
 10
3284.6550275207528102
 20
221.7850065010507024
 30
0.0
 11
3284.6550275207528102
 21
221.8083843666804
 31
0.0
  0
LINE
  5
1CA59
  8
0
 10
3284.1802555259278051
 20
229.8288362957582081
 30
0.0
 11
3284.1776318359520701
 21
229.8589594607506967
 31
0.0
  0
ARC
  5
1CA5A
  8
0
 10
3284.1698734079977839
 20
229.8583457060940134
 30
0.0
 40
0.0077826665803718
 50
4.5231417316463141
 51
95.4292235941535552
  0
ARC
  5
1CA5B
  8
0
 10
3284.2073187686260098
 20
228.8141476820252933
 30
0.0
 40
1.052638475705143
 50
92.0787115464093091
 51
116.0089876061772998
  0
LINE
  5
1CA5C
  8
0
 10
3297.8488792505718266
 20
221.9455848393438941
 30
0.0
 11
3297.8461163247861805
 21
221.8928650742782906
 31
0.0
  0
LINE
  5
1CA5D
  8
0
 10
3297.7649017066528359
 20
221.9029202730507109
 30
0.0
 11
3297.7649017066528359
 21
221.9364598261329888
 31
0.0
  0
LINE
  5
1CA5E
  8
0
 10
3296.7412796594521751
 20
221.8335195437817049
 30
0.0
 11
3296.7412796594521751
 21
221.7961139998506894
 31
0.0
  0
LINE
  5
1CA5F
  8
0
 10
3298.6014044791518245
 20
222.0135200845506915
 30
0.0
 11
3298.5593643495990364
 21
222.0138188640883925
 31
0.0
  0
ARC
  5
1CA60
  8
0
 10
3297.0718009446518408
 20
221.0335485414506991
 30
0.0
 40
1.7815091325000001
 50
32.0759336130871304
 51
33.8527947555946724
  0
ARC
  5
1CA61
  8
0
 10
3296.7609646984528808
 20
221.7961139995666997
 30
0.0
 40
0.0196850390001878
 50
179.9999991734945866
 51
238.8355950575061968
  0
ARC
  5
1CA62
  8
0
 10
3297.7419296089319687
 20
221.9041713149593136
 30
0.0
 40
0.0230061378661472
 50
284.4256804685088014
 51
356.8827973092547836
  0
ARC
  5
1CA63
  8
0
 10
3290.5600855384518582
 20
286.8104814099506825
 30
0.0
 40
65.3252107177999903
 50
270.0000804802817811
 51
277.1645406687135846
  0
ARC
  5
1CA64
  8
0
 10
3290.2979215807581568
 20
291.0461020550994817
 30
0.0
 40
69.5118582776798775
 50
270.2161671652689847
 51
276.9544652385848167
  0
ARC
  5
1CA65
  8
0
 10
3295.4158445552589001
 20
218.7722022514222999
 30
0.0
 40
11.1612054999331907
 50
79.8922726449500828
 51
87.9730253712488519
  0
ARC
  5
1CA66
  8
0
 10
3297.0655833444429845
 20
228.0895919226134936
 30
0.0
 40
1.698933876546493
 50
24.2438694452386407
 51
79.5191686104524393
  0
ARC
  5
1CA67
  8
0
 10
3280.2137599831448824
 20
226.0274280133963032
 30
0.0
 40
18.6067275005439186
 50
3.2362068834341451
 51
8.5296818685128706
  0
ARC
  5
1CA68
  8
0
 10
3770.3877991431459122
 20
218.3676018345649936
 30
0.0
 40
471.6774144207486756
 50
178.9418885182332133
 51
179.5518264245885973
  0
ARC
  5
1CA69
  8
0
 10
3298.712698783407177
 20
222.0576668108512877
 30
0.0
 40
0.012130214279942
 50
278.309996322556799
 51
357.1999492788041835
  0
ARC
  5
1CA6A
  8
0
 10
3298.5660685642328644
 20
222.0342025792305094
 30
0.0
 40
0.0457744768449697
 50
339.3697832896730233
 51
358.7751340363329859
  0
ARC
  5
1CA6B
  8
0
 10
3298.6006242739631489
 20
222.0232631477074108
 30
0.0
 40
0.0097742518799923
 50
274.5783629236914862
 51
327.9380018921119131
  0
ARC
  5
1CA6C
  8
0
 10
3298.7091503376791479
 20
221.979823780020098
 30
0.0
 40
0.0156002515974995
 50
9.6329559759159071
 51
96.4640869787463942
  0
ARC
  5
1CA6D
  8
0
 10
3135.5257948799348924
 20
221.7501422146679886
 30
0.0
 40
163.1989010636015109
 50
357.0402602714239038
 51
0.0815529902617242
  0
ARC
  5
1CA6E
  8
0
 10
3280.1924461129219708
 20
213.9628815162951128
 30
0.0
 40
18.325710466990401
 50
337.5171283938536249
 51
358.0005281983796976
  0
ARC
  5
1CA6F
  8
0
 10
3289.6895110839727749
 20
210.1673807573332908
 30
0.0
 40
8.1000138686568981
 50
303.7553230134063824
 51
336.634833881231998
  0
ARC
  5
1CA70
  8
0
 10
3290.5088875564711088
 20
209.5324564453806033
 30
0.0
 40
7.1244170433685294
 50
270.4124844244905717
 51
301.1129333747614965
  0
ARC
  5
1CA71
  8
0
 10
3290.5330896293580736
 20
285.0386762858461793
 30
0.0
 40
63.5332019191747079
 50
270.0244283154012805
 51
275.343580074330589
  0
ARC
  5
1CA72
  8
0
 10
3296.4467664857647833
 20
221.8322158325840974
 30
0.0
 40
0.0507268805494341
 50
273.4338917158088975
 51
291.4625224533260734
  0
LINE
  5
1CA73
  8
0
 10
3296.465327073752178
 20
221.7850065010507024
 30
0.0
 11
3296.465327073752178
 21
221.8083843666804
 31
0.0
  0
LINE
  5
1CA74
  8
0
 10
3296.9400990685771831
 20
229.8288362957582081
 30
0.0
 11
3296.9427227585520086
 21
229.8589594607506967
 31
0.0
  0
ARC
  5
1CA75
  8
0
 10
3296.95048118650584
 20
229.8583457060940134
 30
0.0
 40
0.0077826665803718
 50
84.5707764058464733
 51
175.476858268353709
  0
ARC
  5
1CA76
  8
0
 10
3296.9130358258789784
 20
228.8141476820252933
 30
0.0
 40
1.052638475705143
 50
63.9910123938226789
 51
87.9212884535906909
  0
LINE
  5
1CA77
  8
0
 10
3314.6389174766532051
 20
193.5205406858630965
 30
0.0
 11
3314.6389174766532051
 21
187.9996666132653047
 31
0.0
  0
LINE
  5
1CA78
  8
0
 10
3314.5601773450048313
 20
193.5219151076539958
 30
0.0
 11
3314.5601773450048313
 21
187.9984171385661966
 31
0.0
  0
LINE
  5
1CA79
  8
0
 10
3314.5523033278050207
 20
193.5219151082991118
 30
0.0
 11
3314.5523033278050207
 21
187.9982921911598055
 31
0.0
  0
LINE
  5
1CA7A
  8
0
 10
3314.5523033278050207
 20
193.5160095966606946
 30
0.0
 11
3314.5601773450048313
 21
193.5158721544362947
 31
0.0
  0
LINE
  5
1CA7B
  8
0
 10
3314.6389175052331666
 20
193.5205406853642103
 30
0.0
 11
3314.5601773673329262
 21
193.5219151072641921
 31
0.0
  0
ARC
  5
1CA7C
  8
0
 10
3320.8551856028720977
 20
-178.873536795530697
 30
0.0
 40
372.4487869806865774
 50
90.9696522166696155
 51
91.0906986478505445
  0
LINE
  5
1CA7D
  8
0
 10
3313.9257197205338343
 20
192.4822304841424057
 30
0.0
 11
3313.9257197205338343
 21
191.0835243465319024
 31
0.0
  0
LINE
  5
1CA7E
  8
0
 10
3313.9257197205338343
 20
191.0789943618719917
 30
0.0
 11
3313.9257197205338343
 21
190.4412129372564948
 31
0.0
  0
LINE
  5
1CA7F
  8
0
 10
3313.9257197205338343
 20
190.4366829525966125
 30
0.0
 11
3313.9257197205338343
 21
188.9046806501480944
 31
0.0
  0
LINE
  5
1CA80
  8
0
 10
3313.9464473952930348
 20
192.455847981513898
 30
0.0
 11
3313.9464473952930348
 21
188.9529774237450113
 31
0.0
  0
LINE
  5
1CA81
  8
0
 10
3313.6823492550270203
 20
192.496055224309913
 30
0.0
 11
3313.6823492550270203
 21
188.9114784661441035
 31
0.0
  0
LINE
  5
1CA82
  8
0
 10
3313.6703140870381503
 20
192.4953715836207095
 30
0.0
 11
3313.6703144388870896
 21
188.910122816464991
 31
0.0
  0
LINE
  5
1CA83
  8
0
 10
3313.3002641539887918
 20
192.4849766746851003
 30
0.0
 11
3313.3002641539887918
 21
188.9122126729924958
 31
0.0
  0
LINE
  5
1CA84
  8
0
 10
3313.2848978215279203
 20
192.4828388359219105
 30
0.0
 11
3313.2848978215279203
 21
188.9133999715604944
 31
0.0
  0
LINE
  5
1CA85
  8
0
 10
3313.8090527433341776
 20
190.9569545124641934
 30
0.0
 11
3313.8090527433341776
 21
190.5632527866642079
 31
0.0
  0
LINE
  5
1CA86
  8
0
 10
3313.8048667740968085
 20
190.9585662305537141
 30
0.0
 11
3313.8048667740968085
 21
190.550836139919511
 31
0.0
  0
ARC
  5
1CA87
  8
0
 10
3313.7545202576011434
 20
193.4088990128284991
 30
0.0
 40
0.0919385603551056
 50
29.6728127136378887
 51
71.589824622820089
  0
ARC
  5
1CA88
  8
0
 10
3313.2069100771718695
 20
193.1201069418887073
 30
0.0
 40
0.7109903743260628
 50
7.3668586386709629
 51
28.0471203205609605
  0
ARC
  5
1CA89
  8
0
 10
3311.4772582060900277
 20
192.8341317920470885
 30
0.0
 40
2.4638091954732961
 50
1.5750242830527801
 51
8.804984664411025
  0
ARC
  5
1CA8A
  8
0
 10
3314.0513208645888881
 20
190.9611017120851102
 30
0.0
 40
0.2423036149982419
 50
171.2324966558207961
 51
180.9807061201449017
  0
ARC
  5
1CA8B
  8
0
 10
3313.9087453159891083
 20
190.979001894321101
 30
0.0
 40
0.0987483441477157
 50
100.041884369619396
 51
168.8871114903703869
  0
ARC
  5
1CA8C
  8
0
 10
3313.9209878509532246
 20
190.9197731601769021
 30
0.0
 40
0.1592138044351632
 50
90.5388200411371571
 51
100.663526144555405
  0
ARC
  5
1CA8D
  8
0
 10
3313.936917728015942
 20
184.9037814852403017
 30
0.0
 40
6.1752230297446884
 50
89.9115805325272959
 51
90.1616949490925634
  0
ARC
  5
1CA8E
  8
0
 10
3302.1189861434959312
 20
192.5115389284488003
 30
0.0
 40
11.8275923646502594
 50
359.730218297290719
 51
1.891115323060601
  0
ARC
  5
1CA8F
  8
0
 10
3314.0023184675219454
 20
190.963968694881288
 30
0.0
 40
0.1975255878542437
 50
168.2787470189458077
 51
181.5672754784743859
  0
ARC
  5
1CA90
  8
0
 10
3313.909882350099906
 20
190.9781887581133049
 30
0.0
 40
0.1042412962641902
 50
111.3064182041275956
 51
165.6093039617921931
  0
ARC
  5
1CA91
  8
0
 10
3313.9214340008638828
 20
190.9287449084046955
 30
0.0
 40
0.1546708822555631
 50
91.5417707152652724
 51
108.6369751469914036
  0
ARC
  5
1CA92
  8
0
 10
3313.9325667931448152
 20
190.5151243609107894
 30
0.0
 40
0.5684412248045739
 50
88.6007718252977128
 51
91.5417707152652724
  0
ARC
  5
1CA93
  8
0
 10
3313.723341546608026
 20
193.4227888168366007
 30
0.0
 40
0.0948948546119699
 50
37.5866470486351076
 51
87.4891628662364553
  0
ARC
  5
1CA94
  8
0
 10
3313.3053684236911067
 20
193.164921239929896
 30
0.0
 40
0.5855897279420508
 50
7.0469177463481349
 51
32.6291621342855365
  0
ARC
  5
1CA95
  8
0
 10
3311.7264896410970323
 20
192.8578908627912085
 30
0.0
 40
2.1930203160332278
 50
1.836903316969605
 51
9.9484773386636771
  0
ARC
  5
1CA96
  8
0
 10
3304.4196303692951915
 20
192.5488785501416089
 30
0.0
 40
9.5063229864556789
 50
359.598300003773204
 51
2.2867462418582378
  0
ARC
  5
1CA97
  8
0
 10
3313.45569076110678
 20
193.3956734764024077
 30
0.0
 40
0.1344492472190245
 50
25.8291741107950905
 51
64.6860929643277416
  0
ARC
  5
1CA98
  8
0
 10
3312.9634897023679514
 20
193.1483155887748921
 30
0.0
 40
0.6852982435462375
 50
8.5477003738511552
 51
26.5147085919067891
  0
ARC
  5
1CA99
  8
0
 10
3311.5394165131378941
 20
192.8675882980523113
 30
0.0
 40
2.1362968289789359
 50
1.995614680824104
 51
10.3166407860310603
  0
ARC
  5
1CA9A
  8
0
 10
3304.3104345452738926
 20
192.552392017812906
 30
0.0
 40
9.3720840352405936
 50
359.6555850698924814
 51
2.3824171341825648
  0
ARC
  5
1CA9B
  8
0
 10
3313.4643656206280866
 20
193.3904307011206924
 30
0.0
 40
0.1077626084326706
 50
30.9398111893222598
 51
69.7293573288265662
  0
ARC
  5
1CA9C
  8
0
 10
3313.0579577560088183
 20
193.1578202300530904
 30
0.0
 40
0.5760128825754051
 50
9.0962253861383342
 51
30.0010120068382697
  0
ARC
  5
1CA9D
  8
0
 10
3311.7110031558117953
 20
192.872034656585214
 30
0.0
 40
1.9524375801857821
 50
2.0326487443033052
 51
11.1287721860184998
  0
ARC
  5
1CA9E
  8
0
 10
3304.55340761792786
 20
192.5527559839991909
 30
0.0
 40
9.1170870643428294
 50
359.6393682140600276
 51
2.4424304794016689
  0
ARC
  5
1CA9F
  8
0
 10
3313.5417838164721616
 20
193.3681458757540952
 30
0.0
 40
0.1723343101403086
 50
126.108508870335001
 51
154.2341646827354111
  0
ARC
  5
1CAA0
  8
0
 10
3314.1086453403281666
 20
193.1118185782017065
 30
0.0
 40
0.7944139553177106
 50
155.3570989313751056
 51
170.912275667359296
  0
ARC
  5
1CAA1
  8
0
 10
3315.5252683005678591
 20
192.8535555406099888
 30
0.0
 40
2.2342655822518709
 50
170.1103428375126896
 51
178.0703409245475086
  0
ARC
  5
1CAA2
  8
0
 10
3323.0274311480970937
 20
192.5448230817443118
 30
0.0
 40
9.7427305036131102
 50
177.7413599142620058
 51
180.3645240560871059
  0
ARC
  5
1CAA3
  8
0
 10
3313.5453106954569193
 20
193.346502530724905
 30
0.0
 40
0.1629029054397748
 50
126.6235968686686988
 51
154.1802672360664985
  0
ARC
  5
1CAA4
  8
0
 10
3314.0502560723948591
 20
193.1130925258063087
 30
0.0
 40
0.7191656464018238
 50
154.962336441882087
 51
170.2036926788090909
  0
ARC
  5
1CAA5
  8
0
 10
3315.3114983414370727
 20
192.8631646479398967
 30
0.0
 40
2.0047922526684059
 50
169.2980211425949904
 51
178.1484150985444899
  0
ARC
  5
1CAA6
  8
0
 10
3322.7665918247580521
 20
192.5464856504104887
 30
0.0
 40
9.4665275008555767
 50
177.6906330366668954
 51
180.3722832378333862
  0
LINE
  5
1CAA7
  8
0
 10
3313.2878098247738308
 20
192.4828389734171878
 30
0.0
 11
3313.2878098247738308
 21
188.9216483910037994
 31
0.0
  0
ARC
  5
1CAA8
  8
0
 10
3313.5016479807768519
 20
193.3802857879373107
 30
0.0
 40
0.1201761766731811
 50
113.4177155162643942
 51
150.9858150804039099
  0
ARC
  5
1CAA9
  8
0
 10
3313.9728285403971313
 20
193.1335784811429903
 30
0.0
 40
0.6520083526881113
 50
152.1097692615020094
 51
170.8815054280794925
  0
ARC
  5
1CAAA
  8
0
 10
3315.3237398977848898
 20
192.8630971285842861
 30
0.0
 40
2.0294044010950221
 50
169.3856996229361869
 51
178.1452973251678884
  0
ARC
  5
1CAAB
  8
0
 10
3322.9938860302850117
 20
192.5406989407699996
 30
0.0
 40
9.7062486617133814
 50
177.7085618538814913
 51
180.3415481801137048
  0
ARC
  5
1CAAC
  8
0
 10
3313.4867346489118063
 20
193.4378882728871076
 30
0.0
 40
0.0836159885808153
 50
71.5637076494145958
 51
123.7959184748999064
  0
ARC
  5
1CAAD
  8
0
 10
3313.4792250265290932
 20
193.4194306763043869
 30
0.0
 40
0.075510948742002
 50
72.6837590569847549
 51
109.6069221027030949
  0
ARC
  5
1CAAE
  8
0
 10
3313.4909088903918928
 20
193.414682274488996
 30
0.0
 40
0.0757890065383694
 50
75.3101212859260301
 51
124.3638393919826939
  0
LINE
  5
1CAAF
  8
0
 10
3313.7274987336340928
 20
193.5175925679641864
 30
0.0
 11
3313.4880968310922071
 21
193.5214931651246957
 31
0.0
  0
LINE
  5
1CAB0
  8
0
 10
3314.5523033278050207
 20
188.0041977024677067
 30
0.0
 11
3314.5601773450048313
 21
188.0043351446921918
 31
0.0
  0
LINE
  5
1CAB1
  8
0
 10
3314.6389175052331666
 20
187.999666613764191
 30
0.0
 11
3314.5601773450048313
 21
187.9984171385661966
 31
0.0
  0
ARC
  5
1CAB2
  8
0
 10
3320.8551856028720977
 20
560.3937440946592687
 30
0.0
 40
372.4487869806865774
 50
268.9093013521493845
 51
269.0303477833303987
  0
ARC
  5
1CAB3
  8
0
 10
3313.7545202576011434
 20
188.1113082862999022
 30
0.0
 40
0.0919385603551056
 50
288.4101753771798826
 51
330.3271872863621184
  0
ARC
  5
1CAB4
  8
0
 10
3313.2069100771718695
 20
188.4001003572396939
 30
0.0
 40
0.7109903743260628
 50
331.9528796794389791
 51
352.6331413613290806
  0
ARC
  5
1CAB5
  8
0
 10
3311.4772582060900277
 20
188.6860755070813127
 30
0.0
 40
2.4638091954732961
 50
351.1950153355905968
 51
358.4249757169487793
  0
ARC
  5
1CAB6
  8
0
 10
3314.0513208645888881
 20
190.5591055870434047
 30
0.0
 40
0.2423036149982419
 50
179.0192938798550983
 51
188.7675033441807955
  0
ARC
  5
1CAB7
  8
0
 10
3313.9087453159891083
 20
190.541205404807414
 30
0.0
 40
0.0987483441477157
 50
191.1128885096294994
 51
259.9581156303805756
  0
ARC
  5
1CAB8
  8
0
 10
3313.9209878509532246
 20
190.6004341389516128
 30
0.0
 40
0.1592138044351632
 50
259.3364738554445807
 51
269.4611799588628855
  0
ARC
  5
1CAB9
  8
0
 10
3313.936917728015942
 20
196.6164258138880996
 30
0.0
 40
6.1752230297446884
 50
269.8383050509074224
 51
270.0884194674727041
  0
ARC
  5
1CABA
  8
0
 10
3302.1189861434959312
 20
189.0086683706796862
 30
0.0
 40
11.8275923646502594
 50
358.1088846769393967
 51
359.7302182972891273
  0
ARC
  5
1CABB
  8
0
 10
3314.0023184675219454
 20
190.5562386042471132
 30
0.0
 40
0.1975255878542437
 50
181.5672754784613971
 51
191.7212529810541071
  0
ARC
  5
1CABC
  8
0
 10
3313.909882350099906
 20
190.5420185410152101
 30
0.0
 40
0.1042412962641902
 50
194.3906960382078069
 51
248.6935817958722907
  0
ARC
  5
1CABD
  8
0
 10
3313.9214340008638828
 20
190.591462390723791
 30
0.0
 40
0.1546708822555631
 50
251.3630248530085964
 51
268.4582292847347276
  0
ARC
  5
1CABE
  8
0
 10
3313.9325667931448152
 20
191.0050829382176971
 30
0.0
 40
0.5684412248045739
 50
268.4582292847347276
 51
271.399228174702273
  0
ARC
  5
1CABF
  8
0
 10
3313.723341546608026
 20
188.0974184822918005
 30
0.0
 40
0.0948948546119699
 50
272.5108371337635731
 51
322.4133529513649137
  0
ARC
  5
1CAC0
  8
0
 10
3313.3053684236911067
 20
188.3552860591985052
 30
0.0
 40
0.5855897279420508
 50
327.3708378657145204
 51
352.9530822536502797
  0
ARC
  5
1CAC1
  8
0
 10
3311.7264896410970323
 20
188.6623164363373064
 30
0.0
 40
2.1930203160332278
 50
350.0515226613346726
 51
358.1630966830304033
  0
ARC
  5
1CAC2
  8
0
 10
3304.4196303692951915
 20
188.971328748986906
 30
0.0
 40
9.5063229864556789
 50
357.7132537581401266
 51
359.5983004085574066
  0
ARC
  5
1CAC3
  8
0
 10
3313.45569076110678
 20
188.1245338227261072
 30
0.0
 40
0.1344492472190245
 50
295.3139070356721732
 51
334.1708258892048775
  0
ARC
  5
1CAC4
  8
0
 10
3312.9634897023679514
 20
188.3718917103535944
 30
0.0
 40
0.6852982435462375
 50
333.4852914080931896
 51
351.4522996261487719
  0
ARC
  5
1CAC5
  8
0
 10
3311.5394165131378941
 20
188.6526190010762036
 30
0.0
 40
2.1362968289789359
 50
349.6833592139690268
 51
358.0043853191742187
  0
ARC
  5
1CAC6
  8
0
 10
3304.3104345452738926
 20
188.9678152813156089
 30
0.0
 40
9.3720840352405936
 50
357.6175828658174964
 51
359.6555855487596887
  0
ARC
  5
1CAC7
  8
0
 10
3313.4643656206280866
 20
188.1297765980077941
 30
0.0
 40
0.1077626084326706
 50
290.2706426711733911
 51
329.0601888106778006
  0
ARC
  5
1CAC8
  8
0
 10
3313.0579577560088183
 20
188.3623870690753961
 30
0.0
 40
0.5760128825754051
 50
329.998987993161677
 51
350.9037746138616853
  0
ARC
  5
1CAC9
  8
0
 10
3311.7110031558117953
 20
188.648172642543301
 30
0.0
 40
1.9524375801857821
 50
348.8712278139814771
 51
357.9673512556967125
  0
ARC
  5
1CACA
  8
0
 10
3304.55340761792786
 20
188.9674513151292103
 30
0.0
 40
9.1170870643428294
 50
357.5575695205982925
 51
359.6397201603821259
  0
ARC
  5
1CACB
  8
0
 10
3313.5417838164721616
 20
188.1520614233743913
 30
0.0
 40
0.1723343101403086
 50
205.7658353172645889
 51
233.8914911296648995
  0
ARC
  5
1CACC
  8
0
 10
3314.1086453403281666
 20
188.4083887209268084
 30
0.0
 40
0.7944139553177106
 50
189.0877243326389987
 51
204.6429010686248944
  0
ARC
  5
1CACD
  8
0
 10
3315.5252683005678591
 20
188.6666517585184977
 30
0.0
 40
2.2342655822518709
 50
181.9296590754524061
 51
189.8896571624873104
  0
ARC
  5
1CACE
  8
0
 10
3323.0274311480970937
 20
188.9753842173842031
 30
0.0
 40
9.7427305036131102
 50
180.3645240560886975
 51
182.2586400857379942
  0
ARC
  5
1CACF
  8
0
 10
3313.5453106954569193
 20
188.1737047684036099
 30
0.0
 40
0.1629029054397748
 50
205.8197327639335015
 51
233.3764031313311875
  0
ARC
  5
1CAD0
  8
0
 10
3314.0502560723948591
 20
188.4071147733222062
 30
0.0
 40
0.7191656464018238
 50
189.7963073211907954
 51
205.037663558117913
  0
ARC
  5
1CAD1
  8
0
 10
3315.3114983414370727
 20
188.6570426511885898
 30
0.0
 40
2.0047922526684059
 50
181.8515849014538901
 51
190.7019788574050096
  0
ARC
  5
1CAD2
  8
0
 10
3322.7665918247580521
 20
188.9737216487179978
 30
0.0
 40
9.4665275008555767
 50
180.3722832378383032
 51
182.3093669633331046
  0
ARC
  5
1CAD3
  8
0
 10
3313.5016479807768519
 20
188.1399215111912042
 30
0.0
 40
0.1201761766731811
 50
209.0141849195960901
 51
246.5822844837356058
  0
ARC
  5
1CAD4
  8
0
 10
3313.9728285403971313
 20
188.3866288179854109
 30
0.0
 40
0.6520083526881113
 50
189.1184945719188875
 51
207.8902307384979053
  0
ARC
  5
1CAD5
  8
0
 10
3315.3237398977848898
 20
188.6571101705440867
 30
0.0
 40
2.0294044010950221
 50
181.8547026748304063
 51
190.6143003770638131
  0
ARC
  5
1CAD6
  8
0
 10
3322.9938860302768262
 20
188.979508358358288
 30
0.0
 40
9.7062486617058834
 50
180.341548180121805
 51
182.2914381461168887
  0
ARC
  5
1CAD7
  8
0
 10
3313.4867346489118063
 20
188.0823190262414073
 30
0.0
 40
0.0836159885808153
 50
236.2040815251000936
 51
288.4362923505854042
  0
ARC
  5
1CAD8
  8
0
 10
3313.4792250265290932
 20
188.1007766228239859
 30
0.0
 40
0.075510948742002
 50
250.3930778972967914
 51
287.3162409430152024
  0
ARC
  5
1CAD9
  8
0
 10
3313.4909088903918928
 20
188.1055250246394905
 30
0.0
 40
0.0757890065383694
 50
235.6361606080172919
 51
284.6898787140739273
  0
LINE
  5
1CADA
  8
0
 10
3313.7274987336340928
 20
188.0026147311643001
 30
0.0
 11
3313.4880968310922071
 21
187.9987141340037908
 31
0.0
  0
ENDSEC
  0
EOF
