  0
SECTION
  2
HEADER
  9
$ACADVER
  1
AC1009
  9
$INSBASE
 10
3369.9235779990849551
 20
143.8808426557042139
 30
0.0
  9
$EXTMIN
 10
3326.75695965858813
 20
143.8808426557042139
 30
0.0
  9
$EXTMAX
 10
3369.9346694920418486
 20
181.6376376173840015
 30
0.0
  9
$LIMMIN
 10
0.0
 20
0.0
  9
$LIMMAX
 10
11.6929133858000007
 20
8.2677165353999982
  9
$ORTHOMODE
 70
     0
  9
$REGENMODE
 70
     1
  9
$FILLMODE
 70
     1
  9
$QTEXTMODE
 70
     0
  9
$MIRRTEXT
 70
     0
  9
$DRAGMODE
 70
     2
  9
$LTSCALE
 40
0.6431102362
  9
$OSMODE
 70
  4095
  9
$ATTMODE
 70
     1
  9
$TEXTSIZE
 40
0.2
  9
$TRACEWID
 40
0.05
  9
$TEXTSTYLE
  7
STANDARD
  9
$CLAYER
  8
0
  9
$CELTYPE
  6
BYLAYER
  9
$CECOLOR
 62
   256
  9
$DIMSCALE
 40
1.0
  9
$DIMASZ
 40
0.1875
  9
$DIMEXO
 40
0.0625
  9
$DIMDLI
 40
0.4443307087
  9
$DIMRND
 40
0.0
  9
$DIMDLE
 40
0.0
  9
$DIMEXE
 40
0.125
  9
$DIMTP
 40
0.01
  9
$DIMTM
 40
0.01
  9
$DIMTXT
 40
2.0
  9
$DIMCEN
 40
0.1052362205
  9
$DIMTSZ
 40
0.0
  9
$DIMTOL
 70
     1
  9
$DIMLIM
 70
     0
  9
$DIMTIH
 70
     1
  9
$DIMTOH
 70
     1
  9
$DIMSE1
 70
     0
  9
$DIMSE2
 70
     0
  9
$DIMTAD
 70
     0
  9
$DIMZIN
 70
     0
  9
$DIMBLK
  1

  9
$DIMASO
 70
     1
  9
$DIMSHO
 70
     1
  9
$DIMPOST
  1
\X
  9
$DIMAPOST
  1

  9
$DIMALT
 70
     1
  9
$DIMALTD
 70
     2
  9
$DIMALTF
 40
25.3999999999999986
  9
$DIMLFAC
 40
1.0
  9
$DIMTOFL
 70
     0
  9
$DIMTVP
 40
0.0
  9
$DIMTIX
 70
     0
  9
$DIMSOXD
 70
     0
  9
$DIMSAH
 70
     0
  9
$DIMBLK1
  1

  9
$DIMBLK2
  1

  9
$DIMSTYLE
  2
STANDARD
  9
$DIMCLRD
 70
     0
  9
$DIMCLRE
 70
     0
  9
$DIMCLRT
 70
     0
  9
$DIMTFAC
 40
1.0
  9
$DIMGAP
 40
0.09
  9
$LUNITS
 70
     2
  9
$LUPREC
 70
     4
  9
$SKETCHINC
 40
0.1
  9
$FILLETRAD
 40
0.0
  9
$AUNITS
 70
     0
  9
$AUPREC
 70
     0
  9
$MENU
  1
.
  9
$ELEVATION
 40
0.0
  9
$PELEVATION
 40
0.0
  9
$THICKNESS
 40
0.0
  9
$LIMCHECK
 70
     0
  9
$BLIPMODE
 70
     0
  9
$CHAMFERA
 40
0.0
  9
$CHAMFERB
 40
0.0
  9
$SKPOLY
 70
     0
  9
$TDCREATE
 40
2458060.468368056230247
  9
$TDUPDATE
 40
2459388.6402083341963589
  9
$TDINDWG
 40
0.5959908565000001
  9
$TDUSRTIMER
 40
0.5959908565000001
  9
$USRTIMER
 70
     1
  9
$ANGBASE
 50
0.0
  9
$ANGDIR
 70
     0
  9
$PDMODE
 70
     0
  9
$PDSIZE
 40
0.3125
  9
$PLINEWID
 40
0.0
  9
$COORDS
 70
     1
  9
$SPLFRAME
 70
     0
  9
$SPLINETYPE
 70
     6
  9
$SPLINESEGS
 70
     8
  9
$ATTDIA
 70
     1
  9
$ATTREQ
 70
     1
  9
$HANDLING
 70
     1
  9
$HANDSEED
  5
1D4BE
  9
$SURFTAB1
 70
     6
  9
$SURFTAB2
 70
     6
  9
$SURFTYPE
 70
     6
  9
$SURFU
 70
     6
  9
$SURFV
 70
     6
  9
$UCSNAME
  2

  9
$UCSORG
 10
0.0
 20
0.0
 30
0.0
  9
$UCSXDIR
 10
1.0
 20
0.0
 30
0.0
  9
$UCSYDIR
 10
0.0
 20
1.0
 30
0.0
  9
$PUCSNAME
  2

  9
$PUCSORG
 10
0.0
 20
0.0
 30
0.0
  9
$PUCSXDIR
 10
1.0
 20
0.0
 30
0.0
  9
$PUCSYDIR
 10
0.0
 20
1.0
 30
0.0
  9
$USERI1
 70
     0
  9
$USERI2
 70
     0
  9
$USERI3
 70
     0
  9
$USERI4
 70
     0
  9
$USERI5
 70
     0
  9
$USERR1
 40
0.0
  9
$USERR2
 40
0.0
  9
$USERR3
 40
0.0
  9
$USERR4
 40
0.0
  9
$USERR5
 40
0.0
  9
$WORLDVIEW
 70
     1
  9
$SHADEDGE
 70
     3
  9
$SHADEDIF
 70
    70
  9
$TILEMODE
 70
     1
  9
$MAXACTVP
 70
    64
  9
$PLIMCHECK
 70
     0
  9
$PEXTMIN
 10
1.0000000000000000E+20
 20
1.0000000000000000E+20
 30
1.0000000000000000E+20
  9
$PEXTMAX
 10
-1.0000000000000000E+20
 20
-1.0000000000000000E+20
 30
-1.0000000000000000E+20
  9
$PLIMMIN
 10
0.0
 20
0.0
  9
$PLIMMAX
 10
12.0
 20
9.0
  9
$UNITMODE
 70
     0
  9
$VISRETAIN
 70
     1
  9
$PLINEGEN
 70
     0
  9
$PSLTSCALE
 70
     1
  0
ENDSEC
  0
SECTION
  2
TABLES
  0
TABLE
  2
VPORT
 70
     1
  0
VPORT
  2
*ACTIVE
 70
     0
 10
0.0
 20
0.0
 11
1.0
 21
1.0
 12
44.670090462297587
 22
-32.5040940346014793
 13
0.0
 23
0.0
 14
1.0
 24
1.0
 15
0.0
 25
0.0
 16
0.0
 26
0.0
 36
96.5995694866707311
 17
3303.693115234375
 27
195.2615115758877096
 37
0.0
 40
38.0875785310941168
 41
2.6159122085048012
 42
50.0
 43
0.0
 44
0.0
 50
0.0
 51
0.0
 71
     0
 72
   100
 73
     1
 74
     1
 75
     0
 76
     0
 77
     0
 78
     0
  0
ENDTAB
  0
TABLE
  2
LTYPE
 70
     2
  0
LTYPE
  2
CONTINUOUS
 70
     0
  3
Solid line
 72
    65
 73
     0
 40
0.0
  0
LTYPE
  2
PHANTOM2
 70
     0
  3
___ _ _ ___ _ _ ___ _ _ ___ _ _
 72
    65
 73
     6
 40
1.25
 49
0.625
 49
-0.125
 49
0.125
 49
-0.125
 49
0.125
 49
-0.125
  0
ENDTAB
  0
TABLE
  2
LAYER
 70
     2
  0
LAYER
  2
0
 70
     0
 62
   255
  6
CONTINUOUS
  0
LAYER
  2
DEFPOINTS
 70
     0
 62
     7
  6
CONTINUOUS
  0
ENDTAB
  0
TABLE
  2
STYLE
 70
     1
  0
STYLE
  2
STANDARD
 70
     0
 40
0.0
 41
0.8
 50
0.0
 71
     0
 42
0.2
  3
txt
  4

  0
ENDTAB
  0
TABLE
  2
VIEW
 70
     0
  0
ENDTAB
  0
TABLE
  2
UCS
 70
     0
  0
ENDTAB
  0
TABLE
  2
APPID
 70
     9
  0
APPID
  2
ACAD
 70
     0
  0
APPID
  2
ACAD_MLEADERVER
 70
     0
  0
APPID
  2
ACAD_EXEMPT_FROM_CAD_STANDARDS
 70
     0
  0
APPID
  2
ACAD_NAV_VCDISPLAY
 70
     0
  0
APPID
  2
ACAECLAYERSTANDARD
 70
     0
  0
APPID
  2
ACCMTRANSPARENCY
 70
     0
  0
APPID
  2
ACAD_DSTYLE_DIMJAG
 70
     0
  0
APPID
  2
ACAD_DSTYLE_DIMTALN
 70
     0
  0
APPID
  2
ACDBATTR
 70
     0
  0
ENDTAB
  0
TABLE
  2
DIMSTYLE
 70
     1
  0
DIMSTYLE
  2
STANDARD
 70
     0
  3

  4

  5

  6

  7

 40
1.0
 41
0.1875
 42
0.0625
 43
0.38
 44
0.125
 45
0.0
 46
0.0
 47
0.01
 48
0.01
140
0.15625
141
0.09
142
0.0
143
25.3999999999999986
144
1.0
145
0.0
146
1.0
147
0.09
 71
     1
 72
     0
 73
     1
 74
     1
 75
     0
 76
     0
 77
     0
 78
     4
170
     0
171
     2
172
     0
173
     0
174
     0
175
     0
176
     0
177
     0
178
     0
  0
ENDTAB
  0
ENDSEC
  0
SECTION
  2
BLOCKS
  0
BLOCK
  8
0
  2
$MODEL_SPACE
 70
     0
 10
0.0
 20
0.0
 30
0.0
  3
$MODEL_SPACE
  1

  0
ENDBLK
  5
21
  8
0
  0
BLOCK
 67
     1
  8
0
  2
$PAPER_SPACE
 70
     0
 10
0.0
 20
0.0
 30
0.0
  3
$PAPER_SPACE
  1

  0
ENDBLK
  5
1D
 67
     1
  8
0
  0
BLOCK
  8
0
  2
_FILLED
 70
     0
 10
0.0
 20
0.0
 30
0.0
  3
_FILLED
  1

  0
SOLID
  5
9E2C
  8
0
  6
BYBLOCK
 62
     0
 10
0.0
 20
0.0
 30
0.0
 11
-1.0
 21
0.1666666667
 31
0.0
 12
-1.0
 22
-0.1666666667
 32
0.0
 13
-1.0
 23
-0.1666666667
 33
0.0
  0
ENDBLK
  5
9E2D
  8
0
  6
BYBLOCK
 62
     0
  0
BLOCK
  8
0
  2
A$C6B0F1CD5
 70
     2
 10
0.0
 20
0.0
 30
0.0
  3
A$C6B0F1CD5
  1

  0
ATTDEF
  5
B779
  8
DEFPOINTS
 10
0.0005209962714616
 20
0.000347009907216
 30
0.0
 40
0.001
  1
BATH FAUCET
  3

  2
PRODUCT
 70
     0
1001
ACDBATTR
1070
     0
1070
     1
  0
ATTDEF
  5
B77A
  8
DEFPOINTS
 10
0.0005209962714616
 20
0.0020136765738812
 30
0.0
 40
0.001
  1
SINGULIER
  3

  2
TRADENAME
 70
     0
1001
ACDBATTR
1070
     0
1070
     1
  0
ATTDEF
  5
B77B
  8
DEFPOINTS
 10
0.0005209962714616
 20
0.0036803432405463
 30
0.0
 40
0.001
  1
K-10873W
  3

  2
MODELNUMBER
 70
     0
1001
ACDBATTR
1070
     0
1070
     1
  0
ENDBLK
  5
B77F
  8
0
  0
ENDSEC
  0
SECTION
  2
ENTITIES
  0
ATTDEF
  5
1917F
  8
DEFPOINTS
 10
3369.9240028253730088
 20
143.8844461782611006
 30
0.0
 40
0.001
  1
K-77799T
  3

  2
MODELNUMBER
 70
     0
1001
ACDBATTR
1070
     0
1070
     1
  0
ATTDEF
  5
19180
  8
DEFPOINTS
 10
3369.9240028253730088
 20
143.882779511594407
 30
0.0
 40
0.001
  1
EIR
  3

  2
TRADENAME
 70
     0
1001
ACDBATTR
1070
     0
1070
     1
  0
ATTDEF
  5
19181
  8
DEFPOINTS
 10
3369.9240028253730088
 20
143.8811128449277987
 30
0.0
 40
0.001
  1
TOILET
  3

  2
PRODUCT
 70
     0
1001
ACDBATTR
1070
     0
1070
     1
  0
LINE
  5
1CE37
  8
0
 10
3368.2256575861838428
 20
143.8808426557042139
 30
0.0
 11
3368.2256575861838428
 21
144.8099765140042052
 31
0.0
  0
LINE
  5
1CE3B
  8
0
 10
3341.1653714776780362
 20
161.2646301583041861
 30
0.0
 11
3341.1653714776780362
 21
161.3994438636472069
 31
0.0
  0
LINE
  5
1CE3C
  8
0
 10
3343.6193583735839638
 20
144.7863544667042106
 30
0.0
 11
3343.6193583735839638
 21
143.8808426557042139
 31
0.0
  0
LINE
  5
1CE3D
  8
0
 10
3345.7801732804841777
 20
160.2825690039042001
 30
0.0
 11
3345.8319148507848695
 21
160.3343095789041968
 31
0.0
  0
LINE
  5
1CE3E
  8
0
 10
3344.4528695012841126
 20
160.3569014893041924
 30
0.0
 11
3344.4528695012841126
 21
160.3461206026042021
 31
0.0
  0
LINE
  5
1CE3F
  8
0
 10
3341.4665994336842232
 20
160.3703052216042124
 30
0.0
 11
3341.1653714776780362
 21
161.2646301583041861
 31
0.0
  0
LINE
  5
1CE40
  8
0
 10
3345.8749131489839783
 20
160.3461206026042021
 30
0.0
 11
3345.8749131489839783
 21
160.3569014893041924
 31
0.0
  0
LINE
  5
1CE41
  8
0
 10
3343.6193583735839638
 20
143.8808426557042139
 30
0.0
 11
3368.2256575861838428
 21
143.8808426557042139
 31
0.0
  0
LINE
  5
1CE42
  8
0
 10
3368.2256575861838428
 20
144.8099765140042052
 30
0.0
 11
3364.4662794957839651
 21
144.8099765140042052
 31
0.0
  0
LINE
  5
1CE43
  8
0
 10
3368.0733417785850179
 20
144.8454095849041892
 30
0.0
 11
3368.6638928740840129
 21
144.8454095849041892
 31
0.0
  0
LINE
  5
1CE44
  8
0
 10
3361.386091880947788
 20
144.8729686400041885
 30
0.0
 11
3362.7216361448931821
 21
144.8729686400041885
 31
0.0
  0
LINE
  5
1CE45
  8
0
 10
3363.9862704810698233
 20
144.8729686400041885
 30
0.0
 11
3365.7679073006838735
 21
144.8729686400041885
 31
0.0
  0
LINE
  5
1CE46
  8
0
 10
3365.7679073006838735
 20
144.8729686400041885
 30
0.0
 11
3368.1219716109258115
 21
144.8729686399827017
 31
0.0
  0
LINE
  5
1CE47
  8
0
 10
3368.6185049100481592
 20
145.5737560416042129
 30
0.0
 11
3368.6383250838839558
 21
145.5737560416042129
 31
0.0
  0
LINE
  5
1CE48
  8
0
 10
3361.306664561083835
 20
144.848719570504187
 30
0.0
 11
3362.6869763662998594
 21
144.8476872102773996
 31
0.0
  0
LINE
  5
1CE49
  8
0
 10
3368.6649292586839692
 20
144.971886113704187
 30
0.0
 11
3368.6218865492842269
 21
144.9741418866042011
 31
0.0
  0
LINE
  5
1CE4A
  8
0
 10
3344.4960822202001509
 20
160.3343095789041968
 30
0.0
 11
3344.5478239082181062
 21
160.2825688862716902
 31
0.0
  0
LINE
  5
1CE4B
  8
0
 10
3361.3114477170679493
 20
144.9477023526613095
 30
0.0
 11
3361.3988738287848719
 21
144.8601669173042978
 31
0.0
  0
LINE
  5
1CE4C
  8
0
 10
3360.2914854359851233
 20
164.4294735214041907
 30
0.0
 11
3360.2914854359851233
 21
164.3157339100229137
 31
0.0
  0
LINE
  5
1CE4D
  8
0
 10
3360.6315741994840209
 20
160.3569014893041924
 30
0.0
 11
3360.6315741994840209
 21
160.256708341004213
 31
0.0
  0
LINE
  5
1CE4E
  8
0
 10
3361.0937447490841805
 20
144.7863544667042106
 30
0.0
 11
3361.0938839867858405
 21
144.9478898847467008
 31
0.0
  0
LINE
  5
1CE4F
  8
0
 10
3360.8706936692087766
 20
160.2712524276041961
 30
0.0
 11
3360.8709109106380311
 21
160.3054130456976907
 31
0.0
  0
LINE
  5
1CE50
  8
0
 10
3361.4846297698841227
 20
144.8729686400041885
 30
0.0
 11
3361.4845921249511775
 21
144.848586495252988
 31
0.0
  0
LINE
  5
1CE51
  8
0
 10
3362.7242517654840412
 20
144.9263395319042047
 30
0.0
 11
3362.7242213369841011
 21
144.8869694650041993
 31
0.0
  0
LINE
  5
1CE52
  8
0
 10
3368.6757321523368773
 20
160.1013150967042122
 30
0.0
 11
3368.5693345763002071
 21
160.1018201222763935
 31
0.0
  0
LINE
  5
1CE53
  8
0
 10
3368.5699833985918303
 20
160.2295404552550906
 30
0.0
 11
3368.6835779990838091
 21
160.2294906430041976
 31
0.0
  0
LINE
  5
1CE54
  8
0
 10
3345.724508437384884
 20
160.2595064293041958
 30
0.0
 11
3344.6034886336838099
 21
160.2595064293041958
 31
0.0
  0
LINE
  5
1CE55
  8
0
 10
3353.7298890614838456
 20
160.3185615474041867
 30
0.0
 11
3354.8972651466838215
 21
160.3185615474041867
 31
0.0
  0
LINE
  5
1CE56
  8
0
 10
3344.4646607359841255
 20
160.3343095789041968
 30
0.0
 11
3345.8630225313841038
 21
160.3343095789041968
 31
0.0
  0
LINE
  5
1CE57
  8
0
 10
3364.4662794957839651
 20
144.7863544667042106
 30
0.0
 11
3364.4662794957839651
 21
144.8099765140042052
 31
0.0
  0
LINE
  5
1CE58
  8
0
 10
3363.9840938464849387
 20
144.925365836304195
 30
0.0
 11
3363.984063417984089
 21
144.8859957694041896
 31
0.0
  0
LINE
  5
1CE59
  8
0
 10
3364.5555810730838857
 20
144.8729686400041885
 30
0.0
 11
3364.5555810730838857
 21
144.8099765140042052
 31
0.0
  0
LINE
  5
1CE5A
  8
0
 10
3364.4373484474758698
 20
144.8462886331126924
 30
0.0
 11
3364.4373465564840444
 21
144.8729686400041885
 31
0.0
  0
LINE
  5
1CE5B
  8
0
 10
3364.1334274495839054
 20
144.8681888657042123
 30
0.0
 11
3364.1358220187248662
 21
144.8729686400041885
 31
0.0
  0
LINE
  5
1CE5C
  8
0
 10
3368.5652243548838669
 20
163.0172613794042036
 30
0.0
 11
3368.459077510402949
 21
163.0172613794042036
 31
0.0
  0
LINE
  5
1CE5D
  8
0
 10
3368.6603587103700193
 20
163.0790746669042051
 30
0.0
 11
3368.5278906839680531
 21
163.0790746669042051
 31
0.0
  0
LINE
  5
1CE5E
  8
0
 10
3368.6374967164838381
 20
145.0423396342042111
 30
0.0
 11
3368.6307067987809205
 21
145.5737560416042129
 31
0.0
  0
LINE
  5
1CE5F
  8
0
 10
3368.6835779990838091
 20
160.2294906430041976
 30
0.0
 11
3368.6835779990838091
 21
163.0593819060173075
 31
0.0
  0
LINE
  5
1CE60
  8
0
 10
3368.3515787366891345
 20
162.8209008407656029
 30
0.0
 11
3368.3512219449748955
 21
162.9224971030699862
 31
0.0
  0
LINE
  5
1CE61
  8
0
 10
3368.6245228809839318
 20
145.5254542412041872
 30
0.0
 11
3368.6245228809839318
 21
145.4775112048041876
 31
0.0
  0
LINE
  5
1CE62
  8
0
 10
3368.6773060752839228
 20
145.6131211618042016
 30
0.0
 11
3368.6773032934838739
 21
145.636523827878591
 31
0.0
  0
LINE
  5
1CE63
  8
0
 10
3368.6835779990838091
 20
144.9522280663042011
 30
0.0
 11
3368.6835779990838091
 21
144.8650945971041892
 31
0.0
  0
LINE
  5
1CE64
  8
0
 10
3367.9161939574728422
 20
144.8729686399846059
 30
0.0
 11
3367.9160844795851517
 21
144.8099765140042052
 31
0.0
  0
LINE
  5
1CE65
  8
0
 10
3368.6245228809839318
 20
145.4775112048041876
 30
0.0
 11
3368.6177958808220865
 21
145.4457765136891112
 31
0.0
  0
LINE
  5
1CE66
  8
0
 10
3368.6384430271950805
 20
145.5959257900113073
 30
0.0
 11
3368.6835779990838091
 21
145.6430790762042022
 31
0.0
  0
ARC
  5
1CE67
  8
0
 10
3361.3198278057489006
 20
144.971582016539088
 30
0.0
 40
0.2103471870149026
 50
186.4711475049589922
 51
241.7124215376146026
  0
ARC
  5
1CE68
  8
0
 10
3361.3141690884449417
 20
144.9755363846028047
 30
0.0
 40
0.1270386647869252
 50
192.6078053174290119
 51
266.6134073201139927
  0
ARC
  5
1CE69
  8
0
 10
3361.8238537814049778
 20
144.887423220345795
 30
0.0
 40
0.0391222059747586
 50
201.6830904012288954
 51
267.6485936527121225
  0
ARC
  5
1CE6A
  8
0
 10
3362.6848512699839375
 20
144.8869998935041963
 30
0.0
 40
0.0393700787
 50
273.0941836314747775
 51
359.9557170676999931
  0
ARC
  5
1CE6B
  8
0
 10
3367.2644714157740964
 20
145.5921501464769108
 30
0.0
 40
1.3739767991030729
 50
359.232930234809487
 51
0.1574471358426095
  0
ARC
  5
1CE6C
  8
0
 10
3368.4276724872847808
 20
145.5254542412041872
 30
0.0
 40
0.1968503937
 50
0.0
 51
16.6969811847767886
  0
ARC
  5
1CE6D
  8
0
 10
3364.0931037110358375
 20
144.889963675238306
 30
0.0
 40
0.0458273523209469
 50
288.6859886152004151
 51
331.6309639178361977
  0
ARC
  5
1CE6E
  8
0
 10
3364.0233923702749053
 20
144.8859483479513131
 30
0.0
 40
0.0393289808222223
 50
179.930914730814095
 51
270.0155961325276053
  0
ARC
  5
1CE6F
  8
0
 10
3368.6620287802279563
 20
144.9504599031999135
 30
0.0
 40
0.0216216380977981
 50
4.690742804456522
 51
82.2907005570560841
  0
ARC
  5
1CE70
  8
0
 10
3368.6621965663880474
 20
144.8667910273213124
 30
0.0
 40
0.0214486255884886
 50
274.5360890626790251
 51
355.4635826192435957
  0
CIRCLE
  5
1CE71
  8
0
 10
3361.7048624848839609
 20
161.8415121272041972
 30
0.0
 40
0.2362204724
  0
ARC
  5
1CE72
  8
0
 10
3368.6590162853372021
 20
163.0539567945488102
 30
0.0
 40
0.0251537197375233
 50
12.4553246064887606
 51
86.9407368572469466
  0
ARC
  5
1CE73
  8
0
 10
4249.9712422769180193
 20
155.688139537678893
 30
0.0
 40
881.4129585356635062
 50
179.5242899005694994
 51
180.6934597947362988
  0
LINE
  5
1CE74
  8
0
 10
3360.7374441455840497
 20
160.3716581194042021
 30
0.0
 11
3360.7522484706842079
 21
161.2646301583041861
 31
0.0
  0
LINE
  5
1CE75
  8
0
 10
3368.6835779990838091
 20
163.2230741570994894
 30
0.0
 11
3368.6835779990838091
 21
164.646744540304212
 31
0.0
  0
LINE
  5
1CE76
  8
0
 10
3360.7643554707838121
 20
160.3164700089041901
 30
0.0
 11
3360.7762539804848529
 21
160.3163633511042008
 31
0.0
  0
LINE
  5
1CE77
  8
0
 10
3360.800431264684903
 20
161.8414136912261938
 30
0.0
 11
3360.7894164333838489
 21
160.3194688363041962
 31
0.0
  0
LINE
  5
1CE78
  8
0
 10
3360.7557204865838685
 20
144.9875832881041902
 30
0.0
 11
3360.7663817075840598
 21
160.2319415594041914
 31
0.0
  0
LINE
  5
1CE79
  8
0
 10
3368.6383250838839558
 20
145.5737560416042129
 30
0.0
 11
3368.6773060752839228
 21
145.6131211618042016
 31
0.0
  0
LINE
  5
1CE7A
  8
0
 10
3368.2256575861838428
 20
144.7863544667042106
 30
0.0
 11
3343.4349418639239957
 21
144.7863544667042106
 31
0.0
  0
LINE
  5
1CE7B
  8
0
 10
3341.7127761846741123
 20
160.256708341004213
 30
0.0
 11
3360.7751782205627933
 21
160.256708341004213
 31
0.0
  0
LINE
  5
1CE7C
  8
0
 10
3341.4852402091692056
 20
160.3569014893041924
 30
0.0
 11
3360.7249322571701668
 21
160.3569014893041924
 31
0.0
  0
LINE
  5
1CE7D
  8
0
 10
3341.1653714776780362
 20
161.2646301583041861
 30
0.0
 11
3360.7522484706842079
 21
161.2646301583041861
 31
0.0
  0
ARC
  5
1CE7E
  8
0
 10
3302.8771346255380195
 20
147.589633479562707
 30
0.0
 40
40.6545704836494366
 50
356.0461122844226907
 51
17.8539131809352298
  0
ARC
  5
1CE7F
  8
0
 10
3341.7244569150379903
 20
160.0997224765675924
 30
0.0
 40
0.1574198243385587
 50
94.255323077051699
 51
196.8991363299643922
  0
ARC
  5
1CE80
  8
0
 10
3341.4852634837839105
 20
160.3765977295826133
 30
0.0
 40
0.0196962540288286
 50
198.6313230549166065
 51
269.9322975295805804
  0
ARC
  5
1CE81
  8
0
 10
3341.2862554987500516
 20
161.3745691179898074
 30
0.0
 40
0.123416771640218
 50
92.2717572462381668
 51
168.3723413515228913
  0
ARC
  5
1CE82
  8
0
 10
3339.3570029848401646
 20
261.9944315308051159
 30
0.0
 40
100.5149652806998972
 50
271.0969954918277267
 51
273.3683363954654055
  0
ARC
  5
1CE83
  8
0
 10
3342.210837639123838
 20
219.9632400088501072
 30
0.0
 40
58.3899409855774607
 50
272.9960684893878806
 51
287.9721788854224087
  0
ARC
  5
1CE84
  8
0
 10
3360.2308222284468684
 20
164.41081533263079
 30
0.0
 40
0.0120458210954534
 50
26.8759808870226315
 51
106.7292911322796982
  0
LINE
  5
1CE85
  8
0
 10
3360.7522484706842079
 20
162.599352079181898
 30
0.0
 11
3360.7522484706842079
 21
160.3282677143031094
 31
0.0
  0
ARC
  5
1CE86
  8
0
 10
3360.764607370676913
 20
160.3288395673569084
 30
0.0
 40
0.0123721230947268
 50
182.6492174208565871
 51
268.8333612659404253
  0
ARC
  5
1CE87
  8
0
 10
3355.9836608714690556
 20
162.2392606935426045
 30
0.0
 40
4.7821641018895731
 50
4.318392842259299
 51
27.0799426332824993
  0
ARC
  5
1CE88
  8
0
 10
3360.3057027287341043
 20
164.4276412963345138
 30
0.0
 40
0.0143348687408222
 50
112.6187356765587992
 51
172.6565965936605949
  0
ARC
  5
1CE89
  8
0
 10
3365.1240884421249575
 20
152.3992577297740922
 30
0.0
 40
12.9719124576423592
 50
74.9567593433113331
 51
111.8311520582560945
  0
ARC
  5
1CE8A
  8
0
 10
3368.3364388777308704
 20
164.6140392219309092
 30
0.0
 40
0.3486763648768892
 50
5.3821698653466941
 51
63.7010323715170372
  0
ARC
  5
1CE8B
  8
0
 10
3368.6616689533989302
 20
163.2349149514527085
 30
0.0
 40
0.0249040296686892
 50
295.5310437337242888
 51
331.6108928821994937
  0
ARC
  5
1CE8C
  8
0
 10
3361.3126927275961862
 20
171.0421295618203885
 30
0.0
 40
10.7456653962924999
 50
280.745210589466808
 51
313.2277698190580963
  0
ARC
  5
1CE8D
  8
0
 10
3361.2259754759002135
 20
172.2154963309695859
 30
0.0
 40
11.9153747195637596
 50
267.9540325189157102
 51
280.1029275946937105
  0
ARC
  5
1CE8E
  8
0
 10
3360.7753321746031361
 20
160.2873641169636869
 30
0.0
 40
0.0290138812781508
 50
58.0384259408414707
 51
88.179337830843977
  0
ARC
  5
1CE8F
  8
0
 10
3360.8030065063971961
 20
160.3269530094302127
 30
0.0
 40
0.0193876966275852
 50
230.5622821411346877
 51
262.8141682369952719
  0
ARC
  5
1CE90
  8
0
 10
3360.8057184055819562
 20
160.2319157296956007
 30
0.0
 40
0.0393367064777208
 50
89.9621813215804167
 51
179.9623778010692945
  0
LINE
  5
1CE91
  8
0
 10
3360.8057443701841294
 20
160.2712524276041961
 30
0.0
 11
3361.6659865863498453
 21
160.2712524276041961
 31
0.0
  0
ARC
  5
1CE92
  8
0
 10
3361.4603272842909973
 20
170.7115491474959867
 30
0.0
 40
10.4423221243124793
 50
271.1285010925304277
 51
280.3041362693314795
  0
ARC
  5
1CE93
  8
0
 10
3361.3571607361318456
 20
171.0778705902168895
 30
0.0
 40
10.8212491242863091
 50
280.4946288508145926
 51
311.8265872369416911
  0
ARC
  5
1CE94
  8
0
 10
3368.6747214131501096
 20
160.0924620760845016
 30
0.0
 40
0.0089105312860158
 50
6.3078621116008931
 51
83.4868078063543066
  0
ARC
  5
1CE95
  8
0
 10
3368.578757645161204
 20
163.0057590817791038
 30
0.0
 40
0.0099144983332787
 50
2.3722380814753499
 51
121.2299849723767977
  0
ARC
  5
1CE96
  8
0
 10
3360.7998511628979941
 20
144.9922713521415005
 30
0.0
 40
0.0443789875538029
 50
186.0638692925085138
 51
263.8541869649725982
  0
LINE
  5
1CE97
  8
0
 10
3360.7950999885079
 20
144.948147425772504
 30
0.0
 11
3368.6032068346839878
 21
144.9414171194042069
 31
0.0
  0
ARC
  5
1CE98
  8
0
 10
3368.6043151880048754
 20
144.9570383021905116
 30
0.0
 40
0.0156604533371547
 50
265.9415541284557207
 51
335.6631864119124771
  0
ARC
  5
1CE99
  8
0
 10
3368.4966218889198899
 20
144.9796927524440946
 30
0.0
 40
0.1253875881244113
 50
346.5766010837409112
 51
357.462706119127688
  0
ARC
  5
1CE9A
  8
0
 10
3367.9511785038448579
 20
145.0111361235279901
 30
0.0
 40
0.6717275160546528
 50
356.8429362433676033
 51
0.8005094686518512
  0
LINE
  5
1CE9B
  8
0
 10
3368.1219716109258115
 20
144.8729686399827017
 30
0.0
 11
3368.1220309685518259
 21
144.9418318756389965
 31
0.0
  0
ARC
  5
1CE9C
  8
0
 10
3362.8408060046122046
 20
144.9263866567355876
 30
0.0
 40
0.1165542486548494
 50
170.0713864219657978
 51
180.0231656421919126
  0
ARC
  5
1CE9D
  8
0
 10
3363.8660031807480664
 20
144.9254583280109898
 30
0.0
 40
0.1180907019574555
 50
359.955124451843119
 51
9.7220191859077616
  0
LINE
  5
1CE9E
  8
0
 10
3362.6869763662998594
 20
144.8476872102773996
 30
0.0
 11
3364.5555603795178286
 21
144.8461941797615964
 31
0.0
  0
LINE
  5
1CE9F
  8
0
 10
3368.0733417785850179
 20
144.8454095849041892
 30
0.0
 11
3368.0733417785850179
 21
144.8099765140042052
 31
0.0
  0
ARC
  5
1CEA0
  8
0
 10
3361.4298924955642178
 20
144.893374051218899
 30
0.0
 40
0.045440856413993
 50
226.9515745031418135
 51
259.9290488592051247
  0
ARC
  5
1CEA1
  8
0
 10
3360.8559069040338727
 20
160.0589681061489102
 30
0.0
 40
0.1587873948822983
 50
124.3321676107074012
 51
175.725849227959003
  0
LINE
  5
1CEA2
  8
0
 10
3360.6786334864768833
 20
144.7863544667042106
 30
0.0
 11
3360.6975611192838187
 21
160.0708023457042088
 31
0.0
  0
LINE
  5
1CEA3
  8
0
 10
3360.7522484706842079
 20
161.290015348360896
 30
0.0
 11
3360.7961821808498826
 21
161.2543078968512873
 31
0.0
  0
ARC
  5
1CEA4
  8
0
 10
3359.9309635433751282
 20
148.3906846287617043
 30
0.0
 40
12.8926881166794391
 50
86.0812489192786359
 51
86.1520311628596858
  0
ARC
  5
1CEA5
  8
0
 10
3360.928500885926951
 20
179.7254269937180879
 30
0.0
 40
18.4725647004318887
 50
269.6388769198549085
 51
272.8092821499524803
  0
ARC
  5
1CEA6
  8
0
 10
3361.2823685771918463
 20
171.0390295941415104
 30
0.0
 40
9.7795301071279663
 50
273.2328243552462936
 51
319.1834464106070186
  0
ARC
  5
1CEA7
  8
0
 10
3360.8014029512528396
 20
160.3194846734839132
 30
0.0
 40
0.0119865283316314
 50
180.0757019707037898
 51
239.5820852940348971
  0
ARC
  5
1CEA8
  8
0
 10
3354.3933710132978376
 20
162.2361900948768891
 30
0.0
 40
6.419210969720055
 50
356.4741298722732949
 51
10.12370107184951
  0
ARC
  5
1CEA9
  8
0
 10
3357.7629336094660175
 20
162.8137643247364963
 30
0.0
 40
3.0006816804827419
 50
10.5762329309699705
 51
32.5780078691243418
  0
ARC
  5
1CEAA
  8
0
 10
3343.6223160852800902
 20
159.6882627913722104
 30
0.0
 40
0.672335613762289
 50
57.7232783343778095
 51
83.9887670828981925
  0
ARC
  5
1CEAB
  8
0
 10
3344.4658859398150526
 20
160.347323981222786
 30
0.0
 40
0.0130719467615454
 50
185.2820193350925138
 51
264.6219029170846966
  0
ARC
  5
1CEAC
  8
0
 10
3344.6093619158959882
 20
160.3523913260085862
 30
0.0
 40
0.0930704006637841
 50
228.6086599560204888
 51
266.3818997880770212
  0
ARC
  5
1CEAD
  8
0
 10
3345.8620368919409884
 20
160.3471927463118902
 30
0.0
 40
0.012920816056512
 50
274.3749477008162785
 51
355.2402369740266863
  0
ARC
  5
1CEAE
  8
0
 10
3345.7211283452538737
 20
160.3463736106621127
 30
0.0
 40
0.0869329179302848
 50
272.2283140580810823
 51
312.7812472469809109
  0
ARC
  5
1CEAF
  8
0
 10
3353.7304319674981343
 20
160.3981398594362986
 30
0.0
 40
0.0795801639406337
 50
211.2115287066773988
 51
269.6091178629998808
  0
ARC
  5
1CEB0
  8
0
 10
3354.8972890523277783
 20
160.3971411473297906
 30
0.0
 40
0.078579603561908
 50
269.9825693638217103
 51
329.1970011611895188
  0
ARC
  5
1CEB1
  8
0
 10
3356.3652116168627799
 20
161.2126876092044938
 30
0.0
 40
0.9627939707682616
 50
276.8210447412279791
 51
297.2700376802184223
  0
ARC
  5
1CEB2
  8
0
 10
3357.7865971591340895
 20
160.2379757856884055
 30
0.0
 40
0.587505650752334
 50
168.321210348086197
 51
178.1728204631567962
  0
ARC
  5
1CEB3
  8
0
 10
3360.7216415516600136
 20
160.3723742415785978
 30
0.0
 40
0.0158188117662359
 50
282.0066268603723074
 51
357.4053167524443211
  0
LINE
  5
1CEB4
  8
0
 10
3368.6835779990838091
 20
160.0934410824042118
 30
0.0
 11
3368.6835779990838091
 21
145.6430790762042022
 31
0.0
  0
ARC
  5
1CEB5
  8
0
 10
3368.5644076311878052
 20
163.0018377081775895
 30
0.0
 40
0.0154452799166143
 50
53.3965874758997998
 51
86.9688697095658938
  0
ARC
  5
1CEB6
  8
0
 10
3367.5803231835870974
 20
145.0677204551685975
 30
0.0
 40
1.0574781627684089
 50
354.8897426957556718
 51
358.6246963496907938
  0
LINE
  5
1CEB7
  8
0
 10
3331.3254715364269032
 20
181.6376376173840015
 30
0.0
 11
3327.6969050401271488
 21
181.6376376173840015
 31
0.0
  0
LINE
  5
1CEB8
  8
0
 10
3327.6024796510218948
 20
178.5780755000542115
 30
0.0
 11
3331.4198969255330667
 21
178.5780755000542115
 31
0.0
  0
ARC
  5
1CEB9
  8
0
 10
3331.3210332593371277
 20
180.1509490433450082
 30
0.0
 40
1.486695198916566
 50
79.2186019623589459
 51
89.8289528858657604
  0
ARC
  5
1CEBA
  8
0
 10
3331.5119925818898992
 20
180.9963158747428054
 30
0.0
 40
0.6212279965949844
 50
39.8092690425499427
 51
81.9359909925277634
  0
ARC
  5
1CEBB
  8
0
 10
3330.9427457317328845
 20
180.5878719041635918
 30
0.0
 40
1.320984750974241
 50
8.1251045869270513
 51
37.6100072198185913
  0
ARC
  5
1CEBC
  8
0
 10
3329.3025350863708809
 20
180.3561094252472969
 30
0.0
 40
2.9774877808642848
 50
1.8458269157128939
 51
8.0792452018495666
  0
ARC
  5
1CEBD
  8
0
 10
3285.3604207377879902
 20
180.1906269151922118
 30
0.0
 40
46.9187852739777114
 50
359.5594139482176956
 51
0.3192005774885194
  0
ARC
  5
1CEBE
  8
0
 10
3330.5899265919028949
 20
179.7337761716163982
 30
0.0
 40
1.6906237084709721
 50
335.6819842255595177
 51
3.257393675244673
  0
ARC
  5
1CEBF
  8
0
 10
3331.4409360598328931
 20
179.324987662489292
 30
0.0
 40
0.7471076676332521
 50
294.3596774167979788
 51
337.3749193004603057
  0
ARC
  5
1CEC0
  8
0
 10
3331.3848229928471483
 20
179.602397117359601
 30
0.0
 40
1.024921926994002
 50
271.9611062070711114
 51
290.8185834494241249
  0
LINE
  5
1CEC1
  8
0
 10
3329.7479624183802116
 20
181.6174309277974999
 30
0.0
 11
3329.274414158163836
 21
181.6174309277973009
 31
0.0
  0
LINE
  5
1CEC2
  8
0
 10
3329.7479044261508534
 20
181.6142047114603031
 30
0.0
 11
3329.2744721504041081
 21
181.6142047114603031
 31
0.0
  0
LINE
  5
1CEC3
  8
0
 10
3331.3254715374559964
 20
181.6018376462077981
 30
0.0
 11
3327.6969050390989651
 21
181.6018376462077981
 31
0.0
  0
ARC
  5
1CEC4
  8
0
 10
3331.3210332603639472
 20
180.1151490721688901
 30
0.0
 40
1.486695198916566
 50
79.2186019623589459
 51
89.8289528858657604
  0
ARC
  5
1CEC5
  8
0
 10
3331.5119925829180829
 20
180.960515903566602
 30
0.0
 40
0.6212279965949844
 50
39.8092690425499427
 51
81.9359909925277634
  0
ARC
  5
1CEC6
  8
0
 10
3330.9427457327610682
 20
180.5520719329875021
 30
0.0
 40
1.320984750974241
 50
8.1251045869270513
 51
37.6100072198185913
  0
ARC
  5
1CEC7
  8
0
 10
3329.2380198486848712
 20
180.3129350418346064
 30
0.0
 40
3.0423996136913951
 50
1.9468414306549411
 51
8.0459886208873108
  0
ARC
  5
1CEC8
  8
0
 10
3329.7378852862489111
 20
181.1160417777801968
 30
0.0
 40
0.5014904070339589
 50
81.2419952117854365
 51
88.8486001016144087
  0
ARC
  5
1CEC9
  8
0
 10
3329.804778287082172
 20
181.5295382124797072
 30
0.0
 40
0.0826901640308179
 50
60.9671260312771395
 51
83.4275560059626571
  0
ARC
  5
1CECA
  8
0
 10
3329.7401167817301939
 20
181.131943243714403
 30
0.0
 40
0.4823243417846449
 50
81.1664146780996845
 51
89.0748579154600577
  0
ARC
  5
1CECB
  8
0
 10
3329.8047202948519043
 20
181.5263997939418914
 30
0.0
 40
0.0826901640308179
 50
65.8245046701803602
 51
83.4275560059626571
  0
ARC
  5
1CECC
  8
0
 10
3327.7169567552678018
 20
180.1369216158267932
 30
0.0
 40
1.5008499553952499
 50
90.7655081219491962
 51
100.7563634214343011
  0
ARC
  5
1CECD
  8
0
 10
3327.5239938372769757
 20
180.9963158747428054
 30
0.0
 40
0.6212279965949844
 50
98.064009007472265
 51
140.1907309574500005
  0
ARC
  5
1CECE
  8
0
 10
3328.0932406874330809
 20
180.5878719041635918
 30
0.0
 40
1.320984750974241
 50
142.3899927801813874
 51
171.8748954130728919
  0
ARC
  5
1CECF
  8
0
 10
3329.9299426956467869
 20
180.3336494864875874
 30
0.0
 40
3.175190028077604
 50
172.017807017970398
 51
177.8636214393814043
  0
ARC
  5
1CED0
  8
0
 10
-1715.7801081928269014
 20
180.1409275062669053
 30
0.0
 40
5042.537077447313095
 50
359.9964652729373142
 51
0.0035347270627729
  0
ARC
  5
1CED1
  8
0
 10
3329.5523862544227995
 20
179.9436882107303006
 30
0.0
 40
2.797743954042144
 50
182.3321700514499071
 51
198.8972819082333956
  0
ARC
  5
1CED2
  8
0
 10
3327.5950503593348913
 20
179.324987662489292
 30
0.0
 40
0.7471076676332521
 50
202.6250806995396943
 51
245.6403225832019928
  0
ARC
  5
1CED3
  8
0
 10
3327.657799502700982
 20
179.6253819981619131
 30
0.0
 40
1.048766507363919
 50
249.2888359689289075
 51
266.9763854580020848
  0
ARC
  5
1CED4
  8
0
 10
3327.7169567542391633
 20
180.101121644649794
 30
0.0
 40
1.500849955396071
 50
90.7655081219752162
 51
100.7563634214343011
  0
ARC
  5
1CED5
  8
0
 10
3327.5239938362487919
 20
180.960515903566602
 30
0.0
 40
0.6212279965949844
 50
98.064009007472265
 51
140.1907309574500005
  0
ARC
  5
1CED6
  8
0
 10
3328.0932406864048971
 20
180.5520719329875021
 30
0.0
 40
1.320984750974241
 50
142.3899927801813874
 51
171.8748954130728919
  0
ARC
  5
1CED7
  8
0
 10
3329.9310164306489241
 20
180.2977260498684018
 30
0.0
 40
3.176270506156579
 50
172.01829109514631
 51
177.8607238791329905
  0
ARC
  5
1CED8
  8
0
 10
3329.2844912903060504
 20
181.1160417777801968
 30
0.0
 40
0.5014904070339589
 50
91.1513998983855771
 51
98.7580047882145493
  0
ARC
  5
1CED9
  8
0
 10
3329.21759828947188
 20
181.5295382124797072
 30
0.0
 40
0.0826901640308179
 50
96.5724439940373713
 51
119.0328739687227966
  0
ARC
  5
1CEDA
  8
0
 10
3329.2822597948252223
 20
181.131943243714403
 30
0.0
 40
0.4823243417846449
 50
90.9251420845399139
 51
98.8335853219003297
  0
ARC
  5
1CEDB
  8
0
 10
3329.2176562817007834
 20
181.5263997939418914
 30
0.0
 40
0.0826901640308179
 50
96.5724439940373713
 51
114.1754953298195971
  0
ENDSEC
  0
EOF
