  0
SECTION
  2
HEADER
  9
$ACADVER
  1
AC1009
  9
$INSBASE
 10
3174.1393166923699027
 20
128.319062760829695
 30
0.0
  9
$EXTMIN
 10
3165.8483384769479017
 20
128.3110518559124102
 30
-0.0000000000000058
  9
$EXTMAX
 10
3198.3033070068850066
 20
163.7697612630065862
 30
0.0000000000000104
  9
$LIMMIN
 10
0.0
 20
0.0
  9
$LIMMAX
 10
11.6929133858000007
 20
8.2677165353999982
  9
$ORTHOMODE
 70
     0
  9
$REGENMODE
 70
     1
  9
$FILLMODE
 70
     1
  9
$QTEXTMODE
 70
     0
  9
$MIRRTEXT
 70
     0
  9
$DRAGMODE
 70
     2
  9
$LTSCALE
 40
0.6431102362
  9
$OSMODE
 70
  4095
  9
$ATTMODE
 70
     1
  9
$TEXTSIZE
 40
0.2
  9
$TRACEWID
 40
0.05
  9
$TEXTSTYLE
  7
STANDARD
  9
$CLAYER
  8
0
  9
$CELTYPE
  6
BYLAYER
  9
$CECOLOR
 62
   256
  9
$DIMSCALE
 40
1.0
  9
$DIMASZ
 40
0.1875
  9
$DIMEXO
 40
0.0625
  9
$DIMDLI
 40
0.4443307087
  9
$DIMRND
 40
0.0
  9
$DIMDLE
 40
0.0
  9
$DIMEXE
 40
0.125
  9
$DIMTP
 40
0.01
  9
$DIMTM
 40
0.01
  9
$DIMTXT
 40
2.0
  9
$DIMCEN
 40
0.1052362205
  9
$DIMTSZ
 40
0.0
  9
$DIMTOL
 70
     1
  9
$DIMLIM
 70
     0
  9
$DIMTIH
 70
     1
  9
$DIMTOH
 70
     1
  9
$DIMSE1
 70
     0
  9
$DIMSE2
 70
     0
  9
$DIMTAD
 70
     0
  9
$DIMZIN
 70
     0
  9
$DIMBLK
  1

  9
$DIMASO
 70
     1
  9
$DIMSHO
 70
     1
  9
$DIMPOST
  1
\X
  9
$DIMAPOST
  1

  9
$DIMALT
 70
     1
  9
$DIMALTD
 70
     2
  9
$DIMALTF
 40
25.3999999999999986
  9
$DIMLFAC
 40
1.0
  9
$DIMTOFL
 70
     0
  9
$DIMTVP
 40
0.0
  9
$DIMTIX
 70
     0
  9
$DIMSOXD
 70
     0
  9
$DIMSAH
 70
     0
  9
$DIMBLK1
  1

  9
$DIMBLK2
  1

  9
$DIMSTYLE
  2
STANDARD
  9
$DIMCLRD
 70
     0
  9
$DIMCLRE
 70
     0
  9
$DIMCLRT
 70
     0
  9
$DIMTFAC
 40
1.0
  9
$DIMGAP
 40
0.09
  9
$LUNITS
 70
     2
  9
$LUPREC
 70
     4
  9
$SKETCHINC
 40
0.1
  9
$FILLETRAD
 40
0.0
  9
$AUNITS
 70
     0
  9
$AUPREC
 70
     0
  9
$MENU
  1
.
  9
$ELEVATION
 40
0.0
  9
$PELEVATION
 40
0.0
  9
$THICKNESS
 40
0.0
  9
$LIMCHECK
 70
     0
  9
$BLIPMODE
 70
     0
  9
$CHAMFERA
 40
0.0
  9
$CHAMFERB
 40
0.0
  9
$SKPOLY
 70
     0
  9
$TDCREATE
 40
2458060.468368056230247
  9
$TDUPDATE
 40
2460164.6377777778543532
  9
$TDINDWG
 40
0.6877269676
  9
$TDUSRTIMER
 40
0.6877269676
  9
$USRTIMER
 70
     1
  9
$ANGBASE
 50
0.0
  9
$ANGDIR
 70
     0
  9
$PDMODE
 70
     0
  9
$PDSIZE
 40
0.3125
  9
$PLINEWID
 40
0.0
  9
$COORDS
 70
     1
  9
$SPLFRAME
 70
     0
  9
$SPLINETYPE
 70
     6
  9
$SPLINESEGS
 70
     8
  9
$ATTDIA
 70
     1
  9
$ATTREQ
 70
     1
  9
$HANDLING
 70
     1
  9
$HANDSEED
  5
2C623
  9
$SURFTAB1
 70
     6
  9
$SURFTAB2
 70
     6
  9
$SURFTYPE
 70
     6
  9
$SURFU
 70
     6
  9
$SURFV
 70
     6
  9
$UCSNAME
  2

  9
$UCSORG
 10
0.0
 20
0.0
 30
0.0
  9
$UCSXDIR
 10
1.0
 20
0.0
 30
0.0
  9
$UCSYDIR
 10
0.0
 20
1.0
 30
0.0
  9
$PUCSNAME
  2

  9
$PUCSORG
 10
0.0
 20
0.0
 30
0.0
  9
$PUCSXDIR
 10
1.0
 20
0.0
 30
0.0
  9
$PUCSYDIR
 10
0.0
 20
1.0
 30
0.0
  9
$USERI1
 70
     0
  9
$USERI2
 70
     0
  9
$USERI3
 70
     0
  9
$USERI4
 70
     0
  9
$USERI5
 70
     0
  9
$USERR1
 40
0.0
  9
$USERR2
 40
0.0
  9
$USERR3
 40
0.0
  9
$USERR4
 40
0.0
  9
$USERR5
 40
0.0
  9
$WORLDVIEW
 70
     1
  9
$SHADEDGE
 70
     3
  9
$SHADEDIF
 70
    70
  9
$TILEMODE
 70
     1
  9
$MAXACTVP
 70
    64
  9
$PLIMCHECK
 70
     0
  9
$PEXTMIN
 10
1.0000000000000000E+20
 20
1.0000000000000000E+20
 30
1.0000000000000000E+20
  9
$PEXTMAX
 10
-1.0000000000000000E+20
 20
-1.0000000000000000E+20
 30
-1.0000000000000000E+20
  9
$PLIMMIN
 10
0.0
 20
0.0
  9
$PLIMMAX
 10
12.0
 20
9.0
  9
$UNITMODE
 70
     0
  9
$VISRETAIN
 70
     1
  9
$PLINEGEN
 70
     0
  9
$PSLTSCALE
 70
     1
  0
ENDSEC
  0
SECTION
  2
TABLES
  0
TABLE
  2
VPORT
 70
     1
  0
VPORT
  2
*ACTIVE
 70
     0
 10
0.0
 20
0.0
 11
1.0
 21
1.0
 12
-29.0989819455835494
 22
-0.4453347609594971
 13
0.0
 23
0.0
 14
1.0
 24
1.0
 15
0.0
 25
0.0
 16
0.0
 26
0.0
 36
24.3507166897908292
 17
3211.1748046875
 27
146.4857413204190095
 37
0.0
 40
35.7639493732958229
 41
2.7227011494252871
 42
50.0
 43
0.0
 44
0.0
 50
0.0
 51
0.0
 71
     0
 72
   100
 73
     1
 74
     1
 75
     0
 76
     0
 77
     0
 78
     0
  0
ENDTAB
  0
TABLE
  2
LTYPE
 70
     2
  0
LTYPE
  2
CONTINUOUS
 70
     0
  3
Solid line
 72
    65
 73
     0
 40
0.0
  0
LTYPE
  2
PHANTOM2
 70
     0
  3
___ _ _ ___ _ _ ___ _ _ ___ _ _
 72
    65
 73
     6
 40
1.25
 49
0.625
 49
-0.125
 49
0.125
 49
-0.125
 49
0.125
 49
-0.125
  0
ENDTAB
  0
TABLE
  2
LAYER
 70
     2
  0
LAYER
  2
0
 70
     0
 62
   255
  6
CONTINUOUS
  0
LAYER
  2
DEFPOINTS
 70
     0
 62
     7
  6
CONTINUOUS
  0
ENDTAB
  0
TABLE
  2
STYLE
 70
     1
  0
STYLE
  2
STANDARD
 70
     0
 40
0.0
 41
0.8
 50
0.0
 71
     0
 42
0.2
  3
txt
  4

  0
ENDTAB
  0
TABLE
  2
VIEW
 70
     0
  0
ENDTAB
  0
TABLE
  2
UCS
 70
     0
  0
ENDTAB
  0
TABLE
  2
APPID
 70
     9
  0
APPID
  2
ACAD
 70
     0
  0
APPID
  2
ACAD_MLEADERVER
 70
     0
  0
APPID
  2
ACAD_EXEMPT_FROM_CAD_STANDARDS
 70
     0
  0
APPID
  2
ACAD_NAV_VCDISPLAY
 70
     0
  0
APPID
  2
ACAECLAYERSTANDARD
 70
     0
  0
APPID
  2
ACCMTRANSPARENCY
 70
     0
  0
APPID
  2
ACAD_DSTYLE_DIMJAG
 70
     0
  0
APPID
  2
ACAD_DSTYLE_DIMTALN
 70
     0
  0
APPID
  2
ACDBATTR
 70
     0
  0
ENDTAB
  0
TABLE
  2
DIMSTYLE
 70
     1
  0
DIMSTYLE
  2
STANDARD
 70
     0
  3

  4

  5

  6

  7

 40
1.0
 41
0.1875
 42
0.0625
 43
0.38
 44
0.125
 45
0.0
 46
0.0
 47
0.01
 48
0.01
140
0.15625
141
0.09
142
0.0
143
25.3999999999999986
144
1.0
145
0.0
146
1.0
147
0.09
 71
     1
 72
     0
 73
     1
 74
     1
 75
     0
 76
     0
 77
     0
 78
     4
170
     0
171
     2
172
     0
173
     0
174
     0
175
     0
176
     0
177
     0
178
     0
  0
ENDTAB
  0
ENDSEC
  0
SECTION
  2
BLOCKS
  0
BLOCK
  8
0
  2
$MODEL_SPACE
 70
     0
 10
0.0
 20
0.0
 30
0.0
  3
$MODEL_SPACE
  1

  0
ENDBLK
  5
21
  8
0
  0
BLOCK
 67
     1
  8
0
  2
$PAPER_SPACE
 70
     0
 10
0.0
 20
0.0
 30
0.0
  3
$PAPER_SPACE
  1

  0
ENDBLK
  5
1D
 67
     1
  8
0
  0
BLOCK
  8
0
  2
_FILLED
 70
     0
 10
0.0
 20
0.0
 30
0.0
  3
_FILLED
  1

  0
SOLID
  5
2B7EB
  8
0
  6
BYBLOCK
 62
     0
 10
0.0
 20
0.0
 30
0.0
 11
-1.0
 21
0.1666666667
 31
0.0
 12
-1.0
 22
-0.1666666667
 32
0.0
 13
-1.0
 23
-0.1666666667
 33
0.0
  0
ENDBLK
  5
2B7EC
  8
0
  6
BYBLOCK
 62
     0
  0
ENDSEC
  0
SECTION
  2
ENTITIES
  0
ATTDEF
  5
2B4FA
  8
DEFPOINTS
 10
3174.1392249401637855
 20
128.3175285150134073
 30
0.0
 40
0.001
  1
K-77800T-EX
  3

  2
MODELNUMBER
 70
     0
1001
ACDBATTR
1070
     0
1070
     1
  0
ATTDEF
  5
2B4FB
  8
DEFPOINTS
 10
3174.1392249401637855
 20
128.3158618483467137
 30
0.0
 40
0.001
  1
EIR
  3

  2
TRADENAME
 70
     0
1001
ACDBATTR
1070
     0
1070
     1
  0
ATTDEF
  5
2B4FC
  8
DEFPOINTS
 10
3174.1392249401637855
 20
128.3141951816799917
 30
0.0
 40
0.001
  1
TOILET
  3

  2
PRODUCT
 70
     0
1001
ACDBATTR
1070
     0
1070
     1
  0
LINE
  5
2C05E
  8
0
 10
3167.3986792005848656
 20
128.3321866029257876
 30
0.0
 11
3167.4644298148068629
 21
128.3321866029257876
 31
0.0
  0
LINE
  5
2C05F
  8
0
 10
3165.9754374963849841
 20
144.7996053778257988
 30
0.0
 11
3165.9754374963849841
 21
144.8617760017257865
 31
0.0
  0
ARC
  5
2C060
  8
0
 10
3169.2430246702188015
 20
146.3081102466383925
 30
0.0
 40
3.338938345607148
 50
167.6885883626237899
 51
179.9526010900991935
  0
ARC
  5
2C061
  8
0
 10
3196.3846248755830857
 20
147.0853561448851963
 30
0.0
 40
30.4903752964150598
 50
181.4555222870586988
 51
184.1821380080723998
  0
ARC
  5
2C062
  8
0
 10
3167.8901747942782094
 20
146.5655740962203026
 30
0.0
 40
1.9626493212910849
 50
156.9532360298742901
 51
166.610762882821291
  0
ARC
  5
2C063
  8
0
 10
3167.5155505880038618
 20
146.7249536172060118
 30
0.0
 40
1.5555312455002439
 50
128.2005268044017043
 51
156.9532360298742901
  0
ARC
  5
2C064
  8
0
 10
3168.234165088455029
 20
145.6797883618947083
 30
0.0
 40
2.8224585188852029
 50
104.6397401630396047
 51
126.5433637955487001
  0
ARC
  5
2C065
  8
0
 10
3169.8694942424058354
 20
139.7767771305456108
 30
0.0
 40
8.9475928387872532
 50
95.4707057200902653
 51
105.2180278120331991
  0
ARC
  5
2C066
  8
0
 10
3173.6093471215440331
 20
102.964314813190299
 30
0.0
 40
45.9494174867135783
 50
92.9801195062435539
 51
95.7365965190420809
  0
ARC
  5
2C067
  8
0
 10
3174.3977209641238915
 20
83.9386877848593542
 30
0.0
 40
64.9906154053238936
 50
90.2278100168345105
 51
92.8021908544392033
  0
LINE
  5
2C068
  8
0
 10
3167.3986792005848656
 20
128.3321866029257876
 30
0.0
 11
3167.3986792005848656
 21
128.3558086501259083
 31
0.0
  0
LINE
  5
2C069
  8
0
 10
3167.3986792005848656
 20
128.3558086501259083
 30
0.0
 11
3167.462293897373911
 21
128.3558086501259083
 31
0.0
  0
ARC
  5
2C06A
  8
0
 10
2885.6647776312138376
 20
108.0442486319895039
 30
0.0
 40
282.5293248088328255
 50
4.1151857206304614
 51
4.1552360171429346
  0
ARC
  5
2C06B
  8
0
 10
2705.058851661341123
 20
94.9232349084283982
 30
0.0
 40
463.6112441066167094
 50
4.155236017114512
 51
4.665556149496874
  0
ARC
  5
2C06C
  8
0
 10
3547.6911986419531786
 20
163.6902699616611869
 30
0.0
 40
381.8224772980049124
 50
184.3103468884706047
 51
184.6655561494960125
  0
ARC
  5
2C06D
  8
0
 10
3045.5642257028471249
 20
125.8439615790630057
 30
0.0
 40
121.7287514872898981
 50
4.3103468884706082
 51
6.2762709581395733
  0
ARC
  5
2C06E
  8
0
 10
3241.8334571008422245
 20
147.4300145950954004
 30
0.0
 40
75.7239488699612053
 50
185.4809669848804958
 51
186.2762709581396052
  0
ARC
  5
2C06F
  8
0
 10
3723.6786851499759905
 20
199.0035267043890883
 30
0.0
 40
560.3174220352265138
 50
185.6730207145041902
 51
186.0243864464140131
  0
ARC
  5
2C070
  8
0
 10
3166.2598372745778761
 20
143.6322864879784049
 30
0.0
 40
0.1551791195219923
 50
118.0338166888397069
 51
186.2164401760369969
  0
LINE
  5
2C071
  8
0
 10
3166.0999520797868172
 20
143.6360416442240933
 30
0.0
 11
3167.1579873575751662
 21
128.5000895437574968
 31
0.0
  0
ARC
  5
2C072
  8
0
 10
3167.1661071341031857
 20
128.5008061554534891
 30
0.0
 40
0.0081513375096241
 50
185.0435771393748041
 51
260.9637375330996178
  0
LINE
  5
2C073
  8
0
 10
3167.1648268887738595
 20
128.4927559830892108
 30
0.0
 11
3167.4531178729898784
 21
128.4929808429461957
 31
0.0
  0
ARC
  5
2C074
  8
0
 10
3174.0442245894860207
 20
111.8700571142289988
 30
0.0
 40
36.1170683089902127
 50
92.3035342363396865
 51
95.6093196534321947
  0
ARC
  5
2C075
  8
0
 10
3172.3517596596889234
 20
127.4801772453618014
 30
0.0
 40
20.4168830558163599
 50
95.1643693439392138
 51
101.9562449487054039
  0
ARC
  5
2C076
  8
0
 10
3169.1186983452062123
 20
142.5606547910383028
 30
0.0
 40
4.9939345886440289
 50
101.5112946392182067
 51
112.8488328092499984
  0
ARC
  5
2C077
  8
0
 10
3168.2570514468420697
 20
144.6055513055324013
 30
0.0
 40
2.7749174340347511
 50
112.8488328092496999
 51
123.5474195912057951
  0
ARC
  5
2C078
  8
0
 10
3167.3674197294872101
 20
145.9472242881514887
 30
0.0
 40
1.1650941565245709
 50
123.5474195912057951
 51
134.7658909686533093
  0
ARC
  5
2C079
  8
0
 10
3167.5912108398001692
 20
145.671676985307613
 30
0.0
 40
1.5187332333000041
 50
133.4395457150621098
 51
145.0220858990392969
  0
ARC
  5
2C07A
  8
0
 10
3167.6732087873601813
 20
145.6161028968402888
 30
0.0
 40
1.6177792495155821
 50
145.0741579229691922
 51
150.8541493830028912
  0
ARC
  5
2C07B
  8
0
 10
3167.9566742982888172
 20
145.4691744101349116
 30
0.0
 40
1.9369368266679281
 50
151.1420487709843883
 51
164.4864480860019
  0
ARC
  5
2C07C
  8
0
 10
3168.7219247200769132
 20
145.2502244991650002
 30
0.0
 40
2.7328760154748299
 50
164.3544863457950953
 51
172.3838370225136032
  0
ARC
  5
2C07D
  8
0
 10
3171.6736961511678601
 20
144.9517141782384897
 30
0.0
 40
5.6989683779084457
 50
173.3423931718365054
 51
180.9042499473052885
  0
ARC
  5
2C07E
  8
0
 10
3166.2608811236368638
 20
143.6301087521499937
 30
0.0
 40
0.1575902497394067
 50
99.4876952551374814
 51
117.996936954418004
  0
ARC
  5
2C07F
  8
0
 10
3166.3284803275960257
 20
142.9199184149115922
 30
0.0
 40
0.870668080354582
 50
91.9628829608155343
 51
96.1698247652188059
  0
ARC
  5
2C080
  8
0
 10
3166.7008386614270421
 20
128.9402418374953072
 30
0.0
 40
14.8552789347261793
 50
91.0514832697054146
 51
91.5513718891455852
  0
ARC
  5
2C081
  8
0
 10
3169.1198197979788347
 20
-91.6623305387288383
 30
0.0
 40
235.4707336486017084
 50
90.4511170758580079
 51
90.6549432554956809
  0
LINE
  5
2C082
  8
0
 10
3165.9754374963849841
 20
144.7996053778257988
 30
0.0
 11
3166.0678209672919365
 21
143.8777116634794027
 31
0.0
  0
ARC
  5
2C083
  8
0
 10
3166.8487013273288539
 20
143.9559641093966036
 30
0.0
 40
0.7847914257834216
 50
185.7225367498735977
 51
190.0587564396876985
  0
ARC
  5
2C084
  8
0
 10
3166.1456023532068684
 20
143.8312452146442979
 30
0.0
 40
0.0707165206657959
 50
190.0587564396876985
 51
198.7844579967004961
  0
ARC
  5
2C085
  8
0
 10
3166.0888063014249383
 20
143.8119274518032
 30
0.0
 40
0.0107251257891717
 50
198.7844579967043899
 51
223.3585365421149049
  0
ARC
  5
2C086
  8
0
 10
3166.0820446094139697
 20
143.8060740977680894
 30
0.0
 40
0.0018314521192229
 50
235.5418368667839957
 51
269.3738116972355101
  0
ARC
  5
2C087
  8
0
 10
3166.0824258525171899
 20
143.8082927021077921
 30
0.0
 40
0.0040697763988118
 50
264.3417422735200262
 51
289.9979877805579918
  0
LINE
  5
2C088
  8
0
 10
3166.0838176637121251
 20
143.8044683143751001
 30
0.0
 11
3166.0999520797868172
 21
143.6360416442242069
 31
0.0
  0
LINE
  5
2C089
  8
0
 10
3166.0662103617059984
 20
143.8926314861259073
 30
0.0
 11
3182.2123075409967896
 21
143.8926314861259073
 31
0.0
  0
ARC
  5
2C08A
  8
0
 10
3172.1537171652648794
 20
143.8200764748399081
 30
0.0
 40
0.0807640289220644
 50
346.4139304337228964
 51
63.9430657329503305
  0
ARC
  5
2C08B
  8
0
 10
3171.8020226502899277
 20
143.8069591028578031
 30
0.0
 40
0.0894709937339605
 50
356.248149692792822
 51
73.302667476583153
  0
ARC
  5
2C08C
  8
0
 10
3170.8013197242257775
 20
143.6747595771830106
 30
0.0
 40
0.224680693680449
 50
34.2171681511611112
 51
75.8585986881142134
  0
ARC
  5
2C08D
  8
0
 10
3170.3467178518340006
 20
143.8919704494074949
 30
0.0
 40
0.0118287383255761
 50
269.9526227678538248
 51
3.203583900527613
  0
LINE
  5
2C08E
  8
0
 10
3170.3467080707850982
 20
143.8801417151258022
 30
0.0
 11
3169.0720984444387796
 21
143.8801417151258022
 31
0.0
  0
ARC
  5
2C08F
  8
0
 10
3169.0723650035979517
 20
143.8929071179969981
 30
0.0
 40
0.0127681856286333
 50
181.2369627311898057
 51
268.8037592138235254
  0
ARC
  5
2C090
  8
0
 10
3200.1783458950189925
 20
174.9403684189987018
 30
0.0
 40
43.935896275458127
 50
224.9868271828179047
 51
225.085755962659789
  0
ARC
  5
2C091
  8
0
 10
3169.2114989296419481
 20
143.8846964610384873
 30
0.0
 40
0.0793582376544351
 50
227.1311727691895044
 51
269.8317539561331273
  0
LINE
  5
2C092
  8
0
 10
3169.2112658986848146
 20
143.8053385655258012
 30
0.0
 11
3170.2075401882848382
 21
143.8053385655258012
 31
0.0
  0
ARC
  5
2C093
  8
0
 10
3170.2075506860701353
 20
143.8840788118334046
 30
0.0
 40
0.0787402470073234
 50
269.9923612280193197
 51
315.0000822256250785
  0
LINE
  5
2C094
  8
0
 10
3170.2632285285849321
 20
143.8284011291258082
 30
0.0
 11
3170.314970599903063
 21
143.880143348954789
 31
0.0
  0
ARC
  5
2C095
  8
0
 10
3168.6973134055251649
 20
143.9422763734133071
 30
0.0
 40
0.0776969058627731
 50
273.1531349738925201
 51
320.2860011671464804
  0
LINE
  5
2C096
  8
0
 10
3168.7015871092849011
 20
143.8646970937257947
 30
0.0
 11
3166.8227425315849359
 21
143.8643936836257922
 31
0.0
  0
ARC
  5
2C097
  8
0
 10
3166.8263882889727938
 20
143.9451931988523938
 30
0.0
 40
0.0808817235707961
 50
220.5309688726520108
 51
267.4165076865440938
  0
ARC
  5
2C098
  8
0
 10
3166.0924427832969741
 20
143.8054939769814098
 30
0.0
 40
0.0086858892247699
 50
127.7467826214029998
 51
186.7815247782901906
  0
ARC
  5
2C099
  8
0
 10
3166.0938504196687973
 20
143.8077073790105089
 30
0.0
 40
0.0081786857722775
 50
90.3692489233498435
 51
145.3103926253257043
  0
LINE
  5
2C09A
  8
0
 10
3166.0937977115981994
 20
143.815885894940692
 30
0.0
 11
3166.1758983091849586
 21
143.8142721010258072
 31
0.0
  0
ARC
  5
2C09B
  8
0
 10
3166.1748971840329432
 20
143.8060516858787139
 30
0.0
 40
0.0082811518982731
 50
8.1858698272305759
 51
83.056413826616236
  0
LINE
  5
2C09C
  8
0
 10
3166.1830939623851009
 20
143.8072307963062997
 30
0.0
 11
3166.1869042355260717
 21
143.7692584958861062
 31
0.0
  0
LINE
  5
2C09D
  8
0
 10
3166.4074651782848377
 20
143.8926314861259073
 30
0.0
 11
3166.4074657035889686
 21
143.8737592228906124
 31
0.0
  0
ARC
  5
2C09E
  8
0
 10
3166.3950250127331856
 20
143.8737588766076954
 30
0.0
 40
0.0124406908606361
 50
272.8985793369445219
 51
0.001594810752339
  0
ARC
  5
2C09F
  8
0
 10
3166.3351600951327782
 20
141.2253844407258043
 30
0.0
 40
2.6366437272595298
 50
88.6853148956138142
 51
95.3670485679016338
  0
ARC
  5
2C0A0
  8
0
 10
3166.0882155612530369
 20
143.8665619199566947
 30
0.0
 40
0.0160962654360397
 50
196.3671973632793879
 51
271.1537841265787847
  0
ARC
  5
2C0A1
  8
0
 10
3166.3041691114822243
 20
143.9299861827574887
 30
0.0
 40
0.2411708596674832
 50
190.3561294426866084
 51
196.3671973632793879
  0
LINE
  5
2C0A2
  8
0
 10
3166.2575633764031409
 20
143.8608860805923086
 30
0.0
 11
3166.2564224257848764
 21
143.8132125749258137
 31
0.0
  0
LINE
  5
2C0A3
  8
0
 10
3166.2564224257848764
 20
143.8132125749258137
 30
0.0
 11
3169.0689615170667821
 21
143.8132125812257982
 31
0.0
  0
ARC
  5
2C0A4
  8
0
 10
3169.068961517518801
 20
143.6114924449323951
 30
0.0
 40
0.2017201362934453
 50
69.1997637365965232
 51
90.0000001283474234
  0
LINE
  5
2C0A5
  8
0
 10
3168.3023807030808712
 20
143.8646326268417113
 30
0.0
 11
3168.3023807030808712
 21
143.8132125812257982
 31
0.0
  0
LINE
  5
2C0A6
  8
0
 10
3168.2629938794270856
 20
143.8646262663581865
 30
0.0
 11
3168.2629938794270856
 21
143.8132125812257982
 31
0.0
  0
LINE
  5
2C0A7
  8
0
 10
3168.23578176218507
 20
143.8646218719387093
 30
0.0
 11
3168.23578176218507
 21
143.8132125812257982
 31
0.0
  0
LINE
  5
2C0A8
  8
0
 10
3168.2072916986849123
 20
143.8646172711466988
 30
0.0
 11
3168.2072916986849123
 21
143.8132125812257982
 31
0.0
  0
LINE
  5
2C0A9
  8
0
 10
3166.8227425315849359
 20
143.8643936836257922
 30
0.0
 11
3166.8227425315849359
 21
143.8132125761943882
 31
0.0
  0
LINE
  5
2C0AA
  8
0
 10
3166.850477556784881
 20
143.8643981624884987
 30
0.0
 11
3166.850477556784881
 21
143.8132125762564897
 31
0.0
  0
LINE
  5
2C0AB
  8
0
 10
3166.8543251467849586
 20
143.8643987838266014
 30
0.0
 11
3166.8543251467849586
 21
143.8132125762651015
 31
0.0
  0
LINE
  5
2C0AC
  8
0
 10
3166.9586336765860324
 20
143.8644156283606037
 30
0.0
 11
3166.9586336765851229
 21
143.8132125764988132
 31
0.0
  0
LINE
  5
2C0AD
  8
0
 10
3165.9754374963849841
 20
144.8004231975369862
 30
0.0
 11
3182.3031958883548214
 21
144.8004231975369862
 31
0.0
  0
LINE
  5
2C0AE
  8
0
 10
3198.2180406355528248
 20
160.7005468077834962
 30
0.0
 11
3198.2180406355528248
 21
163.7212711159220078
 31
0.0
  0
LINE
  5
2C0AF
  8
0
 10
3198.2180406355528248
 20
163.7212711159220078
 30
0.0
 11
3198.139313224784928
 21
163.7226491610219909
 31
0.0
  0
LINE
  5
2C0B0
  8
0
 10
3198.139313224784928
 20
163.7226491610219909
 30
0.0
 11
3198.1393190653848251
 21
160.6990260163757966
 31
0.0
  0
LINE
  5
2C0B1
  8
0
 10
3198.1393190653848251
 20
160.6990260163757966
 30
0.0
 11
3198.2180589345848603
 21
160.7005468119834859
 31
0.0
  0
LINE
  5
2C0B2
  8
0
 10
3198.1314447607851434
 20
163.7226455006220078
 30
0.0
 11
3198.1314447607851434
 21
160.6990260163757966
 31
0.0
  0
LINE
  5
2C0B3
  8
0
 10
3198.1314447607851434
 20
160.6990260163757966
 30
0.0
 11
3197.0591761177847729
 21
160.7178104336834963
 31
0.0
  0
ARC
  5
2C0B4
  8
0
 10
3197.0593141986728369
 20
160.7256921609424865
 30
0.0
 40
0.0078829366936775
 50
173.9283156811306981
 51
268.9963313100686833
  0
LINE
  5
2C0B5
  8
0
 10
3197.0514754825849195
 20
160.7265259600835066
 30
0.0
 11
3197.5247559365848247
 21
163.7021928899220029
 31
0.0
  0
ARC
  5
2C0B6
  8
0
 10
3197.5596358501761642
 20
163.6906992030241099
 30
0.0
 40
0.0367248309811282
 50
146.6318135858165874
 51
161.7618291267930033
  0
ARC
  5
2C0B7
  8
0
 10
3197.5333930074871205
 20
163.7040717082142862
 30
0.0
 40
0.0081370956350625
 50
90.9035229087777168
 51
122.9684751147467949
  0
LINE
  5
2C0B8
  8
0
 10
3197.5332646952851974
 20
163.7122077921220011
 30
0.0
 11
3198.1314447605850546
 21
163.7226490640219936
 31
0.0
  0
LINE
  5
2C0B9
  8
0
 10
3198.1314447644849679
 20
163.7167399887219972
 30
0.0
 11
3198.1393187844851127
 21
163.7166025472220099
 31
0.0
  0
LINE
  5
2C0BA
  8
0
 10
3198.1314447607851434
 20
160.7050779045925992
 30
0.0
 11
3198.1393187771850535
 21
160.7052153461029889
 31
0.0
  0
ARC
  5
2C0BB
  8
0
 10
3197.1120168582920087
 20
161.2164918962241131
 30
0.0
 40
0.0079337890034493
 50
262.3336503175526104
 51
300.7073786892706835
  0
LINE
  5
2C0BC
  8
0
 10
3197.1160682765848833
 20
161.209670531422006
 30
0.0
 11
3197.1296195986610655
 21
161.2177188851412097
 31
0.0
  0
LINE
  5
2C0BD
  8
0
 10
3197.1109584578848626
 20
161.2086290214220128
 30
0.0
 11
3196.8787083551728756
 21
161.2416105239219917
 31
0.0
  0
ARC
  5
2C0BE
  8
0
 10
3196.8797797364800317
 20
161.249410570122194
 30
0.0
 40
0.0078732825829381
 50
173.9504805129926979
 51
262.1790344011454863
  0
LINE
  5
2C0BF
  8
0
 10
3196.8719502987728447
 20
161.2502403193720113
 30
0.0
 11
3197.2524297249351548
 21
163.7522527156220065
 31
0.0
  0
ARC
  5
2C0C0
  8
0
 10
3197.2597314042818653
 20
163.7458131745827075
 30
0.0
 40
0.0127544256313314
 50
82.0682043433369586
 51
88.1973562931988369
  0
ARC
  5
2C0C1
  8
0
 10
3197.2602718759389973
 20
163.7505342720332919
 30
0.0
 40
0.0080282240087527
 50
90.9939001272483239
 51
167.6401847664124887
  0
ARC
  5
2C0C2
  8
0
 10
3201.793840462839853
 20
189.3569569697268093
 30
0.0
 40
25.996653112885781
 50
259.9595404375886005
 51
260.4931521332730995
  0
ARC
  5
2C0C3
  8
0
 10
3197.4987962688501284
 20
163.7096158621685902
 30
0.0
 40
0.0078370862273059
 50
39.2887955986166233
 51
80.4931521332732132
  0
LINE
  5
2C0C4
  8
0
 10
3197.504861891884957
 20
163.7145785366220139
 30
0.0
 11
3197.523384020130834
 21
163.6935667767561995
 31
0.0
  0
LINE
  5
2C0C5
  8
0
 10
3197.5003180404801242
 20
163.7173037833206877
 30
0.0
 11
3197.1109584578848626
 21
161.2086290214220128
 31
0.0
  0
LINE
  5
2C0C6
  8
0
 10
3166.1691675992519777
 20
143.8567978700083074
 30
0.0
 11
3166.1758983091849586
 21
143.8142721010258072
 31
0.0
  0
ARC
  5
2C0C7
  8
0
 10
3166.2284443874500539
 20
143.7847265275617872
 30
0.0
 40
0.1098282156216336
 50
163.8298616530288996
 51
184.2345476993710918
  0
LINE
  5
2C0C8
  8
0
 10
3166.1189159879850195
 20
143.7766168631258097
 30
0.0
 11
3166.1253325353632135
 21
143.7096753390117101
 31
0.0
  0
LINE
  5
2C0C9
  8
0
 10
3166.4266684976851138
 20
143.8926314861259073
 30
0.0
 11
3166.4266684976851138
 21
143.8132125812257982
 31
0.0
  0
LINE
  5
2C0CA
  8
0
 10
3166.2014356402942212
 20
143.7760571037096042
 30
0.0
 11
3166.200796358585194
 21
143.7928862879257963
 31
0.0
  0
ARC
  5
2C0CB
  8
0
 10
3166.2267893705020469
 20
143.7938736713228991
 30
0.0
 40
0.0260117587737526
 50
168.426453749696492
 51
182.1754198418726958
  0
ARC
  5
2C0CC
  8
0
 10
3166.1880300609759615
 20
143.7928209717462096
 30
0.0
 40
0.0146830816309833
 50
5.6898148078409418
 51
25.2844349359043896
  0
ARC
  5
2C0CD
  8
0
 10
3165.7958026970641185
 20
143.7294472689488884
 30
0.0
 40
0.411970991892171
 50
6.6907902324467718
 51
9.0539294801781036
  0
ARC
  5
2C0CE
  8
0
 10
3166.2300600334738192
 20
143.7927817310198861
 30
0.0
 40
0.0181563264101952
 50
160.2711110509567902
 51
181.2777423356220936
  0
ARC
  5
2C0CF
  8
0
 10
3166.4369553730739426
 20
143.7877245902660945
 30
0.0
 40
0.2250952331733118
 50
178.8157251721607111
 51
181.9857436659110022
  0
ARC
  5
2C0D0
  8
0
 10
3166.1905630677570116
 20
143.7877186640461105
 30
0.0
 40
0.0250461596450181
 50
13.6686599720668305
 51
26.5423247861974403
  0
ARC
  5
2C0D1
  8
0
 10
3166.0145970710150323
 20
143.7526782370829039
 30
0.0
 40
0.204447686185137
 50
8.0952977136167554
 51
11.5568284191461803
  0
ARC
  5
2C0D2
  8
0
 10
3166.3327432746409613
 20
143.783138532166987
 30
0.0
 40
0.1044887355571141
 50
173.6190510273841028
 51
179.3708155253476946
  0
ARC
  5
2C0D3
  8
0
 10
3166.2418419151467788
 20
143.7933041491916129
 30
0.0
 40
0.0130207251522206
 50
158.5701666162125036
 51
173.6190510273841028
  0
ARC
  5
2C0D4
  8
0
 10
3166.230508861459839
 20
143.7977523330631016
 30
0.0
 40
0.0008459789284925
 50
56.1483493681157313
 51
158.5701666162034087
  0
ARC
  5
2C0D5
  8
0
 10
3166.2186338300261923
 20
143.7903572292489969
 30
0.0
 40
0.0147649228945885
 50
12.9365157954884804
 51
33.260057631045612
  0
ARC
  5
2C0D6
  8
0
 10
3166.1347965705399474
 20
143.7666336715211912
 30
0.0
 40
0.1018783332891198
 50
10.6967100737585294
 51
15.3851753594579801
  0
ARC
  5
2C0D7
  8
0
 10
3166.2916243214881433
 20
143.7848340069452036
 30
0.0
 40
0.0392726326509468
 50
163.2880719783879044
 51
176.4606721969321086
  0
ARC
  5
2C0D8
  8
0
 10
3166.2594410487740788
 20
143.794496755018713
 30
0.0
 40
0.0056700770498014
 50
139.7936559806283867
 51
163.2880719783871086
  0
ARC
  5
2C0D9
  8
0
 10
3166.2559666900310731
 20
143.7974334752759091
 30
0.0
 40
0.0011208469451283
 50
48.4764899966801011
 51
139.7936559806047967
  0
ARC
  5
2C0DA
  8
0
 10
3166.2353915583189519
 20
143.7828044020936034
 30
0.0
 40
0.0263387676698361
 50
11.3420062413220801
 51
35.9642297468604824
  0
ARC
  5
2C0DB
  8
0
 10
3166.3081087074710922
 20
143.7838693377026971
 30
0.0
 40
0.0213556981468818
 50
137.2390995974475061
 51
164.3686729586661954
  0
ARC
  5
2C0DC
  8
0
 10
3166.2767502840988527
 20
143.7838693377026971
 30
0.0
 40
0.0213556981468818
 50
16.7512152273741393
 51
42.7609004025524868
  0
LINE
  5
2C0DD
  8
0
 10
3166.7133886591850569
 20
143.8132100529257968
 30
0.0
 11
3166.7133886591850569
 21
143.7961063332273
 31
0.0
  0
LINE
  5
2C0DE
  8
0
 10
3167.6643093906850481
 20
143.8132125812257982
 30
0.0
 11
3167.6643093906850481
 21
143.8011045367096017
 31
0.0
  0
LINE
  5
2C0DF
  8
0
 10
3181.0127681400081201
 20
143.8011045367096017
 30
0.0
 11
3167.2658652447398708
 21
143.8011045367096017
 31
0.0
  0
LINE
  5
2C0E0
  8
0
 10
3165.9751231558971085
 20
145.0188438286689063
 30
0.0
 11
3182.3035102288440612
 21
145.0188438286689063
 31
0.0
  0
LINE
  5
2C0E1
  8
0
 10
3180.8129485708559514
 20
128.319062760829695
 30
0.0
 11
3167.4656848138838541
 21
128.319062760829695
 31
0.0
  0
LINE
  5
2C0E2
  8
0
 10
3180.8799541841549399
 20
128.3321866029257876
 30
0.0
 11
3180.8142035699338521
 21
128.3321866029257876
 31
0.0
  0
LINE
  5
2C0E3
  8
0
 10
3182.3031958883548214
 20
144.7996053778257988
 30
0.0
 11
3182.3031958883548214
 21
144.8617760017257865
 31
0.0
  0
ARC
  5
2C0E4
  8
0
 10
3179.0356087145219135
 20
146.3081102466383925
 30
0.0
 40
3.338938345607148
 50
0.0473989099007864
 51
12.3114116373762297
  0
ARC
  5
2C0E5
  8
0
 10
3151.8940085091571746
 20
147.0853561448851963
 30
0.0
 40
30.4903752964150598
 50
355.8178619919276002
 51
358.5444777129412728
  0
ARC
  5
2C0E6
  8
0
 10
3180.3884585904629603
 20
146.5655740962203026
 30
0.0
 40
1.9626493212910849
 50
13.3892371171786806
 51
23.0467639701256601
  0
ARC
  5
2C0E7
  8
0
 10
3180.7630827967368532
 20
146.7249536172060118
 30
0.0
 40
1.5555312455002439
 50
23.0467639701256601
 51
51.7994731955983312
  0
ARC
  5
2C0E8
  8
0
 10
3180.0444682962861407
 20
145.6797883618947083
 30
0.0
 40
2.8224585188852029
 50
53.4566362044513212
 51
75.3602598369603669
  0
ARC
  5
2C0E9
  8
0
 10
3178.4091391423330606
 20
139.7767771305456108
 30
0.0
 40
8.9475928387872532
 50
74.7819721879668151
 51
84.5292942799097489
  0
ARC
  5
2C0EA
  8
0
 10
3174.6692862631962271
 20
102.964314813190299
 30
0.0
 40
45.9494174867135783
 50
84.2634034809579333
 51
87.0198804937564319
  0
ARC
  5
2C0EB
  8
0
 10
3173.880912420615914
 20
83.9386877848593542
 30
0.0
 40
64.9906154053238936
 50
87.1978091455607967
 51
89.7721899831655037
  0
LINE
  5
2C0EC
  8
0
 10
3180.8799541841549399
 20
128.3321866029257876
 30
0.0
 11
3180.8799541841549399
 21
128.3558086501259083
 31
0.0
  0
LINE
  5
2C0ED
  8
0
 10
3180.8799541841549399
 20
128.3558086501259083
 30
0.0
 11
3180.8163394873658945
 21
128.3558086501259083
 31
0.0
  0
ARC
  5
2C0EE
  8
0
 10
3462.6138557535259679
 20
108.0442486319895039
 30
0.0
 40
282.5293248088328255
 50
175.8447639828571027
 51
175.8848142793702891
  0
ARC
  5
2C0EF
  8
0
 10
3643.2197817233991373
 20
94.9232349084283982
 30
0.0
 40
463.6112441066167094
 50
175.3344438505031064
 51
175.844763982885496
  0
ARC
  5
2C0F0
  8
0
 10
2800.5874347427879911
 20
163.6902699616611869
 30
0.0
 40
381.8224772980049124
 50
355.3344438505038738
 51
355.6896531115294238
  0
ARC
  5
2C0F1
  8
0
 10
3302.7144076818931353
 20
125.8439615790630057
 30
0.0
 40
121.7287514872898981
 50
173.7237290418603948
 51
175.6896531115293953
  0
ARC
  5
2C0F2
  8
0
 10
3106.4451762838989453
 20
147.4300145950954004
 30
0.0
 40
75.7239488699612053
 50
353.7237290418603948
 51
354.5190330151194757
  0
ARC
  5
2C0F3
  8
0
 10
2624.5999482347651792
 20
199.0035267043890883
 30
0.0
 40
560.3174220352265138
 50
353.9756135535860153
 51
354.3269792854957245
  0
ARC
  5
2C0F4
  8
0
 10
3182.0187961101619294
 20
143.6322864879784049
 30
0.0
 40
0.1551791195219923
 50
353.7835598239630031
 51
61.9661833111602789
  0
LINE
  5
2C0F5
  8
0
 10
3182.1786813049529883
 20
143.6360416442240933
 30
0.0
 11
3181.1206460271660035
 21
128.5000895437574968
 31
0.0
  0
ARC
  5
2C0F6
  8
0
 10
3181.112526250637984
 20
128.5008061554534891
 30
0.0
 40
0.0081513375096241
 50
279.0362624669003822
 51
354.9564228606244001
  0
LINE
  5
2C0F7
  8
0
 10
3181.1138064959659459
 20
128.4927559830892108
 30
0.0
 11
3180.8255155117508366
 21
128.4929808429461957
 31
0.0
  0
ARC
  5
2C0F8
  8
0
 10
3174.234408795255149
 20
111.8700571142289988
 30
0.0
 40
36.1170683089902127
 50
84.3906803465678053
 51
87.6964657636603135
  0
ARC
  5
2C0F9
  8
0
 10
3175.9268737250517916
 20
127.4801772453618014
 30
0.0
 40
20.4168830558163599
 50
78.0437550512946245
 51
84.835630656060772
  0
ARC
  5
2C0FA
  8
0
 10
3179.159935039534048
 20
142.5606547910383028
 30
0.0
 40
4.9939345886440289
 50
67.1511671907499732
 51
78.4887053607817364
  0
ARC
  5
2C0FB
  8
0
 10
3180.0215819378991
 20
144.6055513055324013
 30
0.0
 40
2.7749174340347511
 50
56.4525804087942191
 51
67.1511671907499732
  0
ARC
  5
2C0FC
  8
0
 10
3180.9112136552530501
 20
145.9472242881514887
 30
0.0
 40
1.1650941565245709
 50
45.2341090313467475
 51
56.4525804087942191
  0
ARC
  5
2C0FD
  8
0
 10
3180.687422544940091
 20
145.671676985307613
 30
0.0
 40
1.5187332333000041
 50
34.977914100960632
 51
46.5604542849378973
  0
ARC
  5
2C0FE
  8
0
 10
3180.6054245973809884
 20
145.6161028968402888
 30
0.0
 40
1.6177792495155821
 50
29.1458506169970484
 51
34.9258420770307225
  0
ARC
  5
2C0FF
  8
0
 10
3180.3219590864509883
 20
145.4691744101349116
 30
0.0
 40
1.9369368266679281
 50
15.5135519139981497
 51
28.8579512290155513
  0
ARC
  5
2C100
  8
0
 10
3179.5567086646628923
 20
145.2502244991650002
 30
0.0
 40
2.7328760154748299
 50
7.6161629774864101
 51
15.64551365420491
  0
ARC
  5
2C101
  8
0
 10
3176.6049372335728549
 20
144.9517141782384897
 30
0.0
 40
5.6989683779084457
 50
359.095750052693802
 51
6.6576068281635372
  0
ARC
  5
2C102
  8
0
 10
3182.0177522611029417
 20
143.6301087521499937
 30
0.0
 40
0.1575902497394067
 50
62.0030630455819676
 51
80.5123047448625329
  0
ARC
  5
2C103
  8
0
 10
3181.9501530571428702
 20
142.9199184149115922
 30
0.0
 40
0.870668080354582
 50
83.8301752347811941
 51
88.0371170391844799
  0
ARC
  5
2C104
  8
0
 10
3181.5777947233141276
 20
128.9402418374953072
 30
0.0
 40
14.8552789347261793
 50
88.4486281108544148
 51
88.9485167302945996
  0
ARC
  5
2C105
  8
0
 10
3179.1588135867609708
 20
-91.6623305387288383
 30
0.0
 40
235.4707336486017084
 50
89.3450567445043191
 51
89.5488829241419921
  0
LINE
  5
2C106
  8
0
 10
3182.3031958883548214
 20
144.7996053778257988
 30
0.0
 11
3182.2108124174478689
 21
143.8777116634794027
 31
0.0
  0
ARC
  5
2C107
  8
0
 10
3181.429932057411861
 20
143.9559641093966036
 30
0.0
 40
0.7847914257834216
 50
349.9412435603122162
 51
354.2774632501262886
  0
ARC
  5
2C108
  8
0
 10
3182.133031031532937
 20
143.8312452146442979
 30
0.0
 40
0.0707165206657959
 50
341.2155420032993902
 51
349.9412435603122162
  0
ARC
  5
2C109
  8
0
 10
3182.1898270833148672
 20
143.8119274518032
 30
0.0
 40
0.0107251257891717
 50
316.6414634578849814
 51
341.2155420032955249
  0
ARC
  5
2C10A
  8
0
 10
3182.1965887753258357
 20
143.8060740977680894
 30
0.0
 40
0.0018314521192229
 50
270.6261883027644899
 51
304.458163133215578
  0
ARC
  5
2C10B
  8
0
 10
3182.1962075322239798
 20
143.8082927021077921
 30
0.0
 40
0.0040697763988118
 50
250.0020122194420082
 51
275.6582577264799738
  0
LINE
  5
2C10C
  8
0
 10
3182.1948157210281352
 20
143.8044683143751001
 30
0.0
 11
3182.1786813049529883
 21
143.6360416442242069
 31
0.0
  0
ARC
  5
2C10D
  8
0
 10
3176.124916219474926
 20
143.8200764748399081
 30
0.0
 40
0.0807640289220644
 50
116.056934267049698
 51
193.5860695662771036
  0
ARC
  5
2C10E
  8
0
 10
3176.4766107344507873
 20
143.8069591028578031
 30
0.0
 40
0.0894709937339605
 50
106.6973325234168044
 51
183.7518503072064107
  0
ARC
  5
2C10F
  8
0
 10
3177.4773136605149375
 20
143.6747595771830106
 30
0.0
 40
0.224680693680449
 50
104.1414013118858009
 51
145.7828318488388959
  0
ARC
  5
2C110
  8
0
 10
3177.9319155329058049
 20
143.8919704494074949
 30
0.0
 40
0.0118287383255761
 50
176.7964160994723954
 51
270.0473772321461752
  0
LINE
  5
2C111
  8
0
 10
3177.931925313955162
 20
143.8801417151258022
 30
0.0
 11
3179.2065349403010259
 21
143.8801417151258022
 31
0.0
  0
ARC
  5
2C112
  8
0
 10
3179.2062683811418538
 20
143.8929071179969981
 30
0.0
 40
0.0127681856286333
 50
271.1962407861764746
 51
358.7630372688101943
  0
ARC
  5
2C113
  8
0
 10
3148.1002874897221773
 20
174.9403684189987018
 30
0.0
 40
43.935896275458127
 50
314.914244037340211
 51
315.0131728171821237
  0
ARC
  5
2C114
  8
0
 10
3179.0671344550978574
 20
143.8846964610384873
 30
0.0
 40
0.0793582376544351
 50
270.1682460438668727
 51
312.8688272308103819
  0
LINE
  5
2C115
  8
0
 10
3179.0673674860549909
 20
143.8053385655258012
 30
0.0
 11
3178.0710931964549673
 21
143.8053385655258012
 31
0.0
  0
ARC
  5
2C116
  8
0
 10
3178.071082698670125
 20
143.8840788118334046
 30
0.0
 40
0.0787402470073234
 50
224.999917774374893
 51
270.0076387719806803
  0
LINE
  5
2C117
  8
0
 10
3178.0154048561548734
 20
143.8284011291258082
 30
0.0
 11
3177.9636627848371973
 21
143.880143348954789
 31
0.0
  0
ARC
  5
2C118
  8
0
 10
3179.5813199792160049
 20
143.9422763734133071
 30
0.0
 40
0.0776969058627731
 50
219.7139988328536049
 51
266.8468650261074799
  0
LINE
  5
2C119
  8
0
 10
3179.5770462754549044
 20
143.8646970937257947
 30
0.0
 11
3181.4558908531548695
 21
143.8643936836257922
 31
0.0
  0
ARC
  5
2C11A
  8
0
 10
3181.4522450957670117
 20
143.9451931988523938
 30
0.0
 40
0.0808817235707961
 50
272.5834923134557926
 51
319.4690311273474208
  0
ARC
  5
2C11B
  8
0
 10
3182.1861906014441956
 20
143.8054939769814098
 30
0.0
 40
0.0086858892247699
 50
353.2184752217096957
 51
52.2532173785969576
  0
ARC
  5
2C11C
  8
0
 10
3182.1847829650710082
 20
143.8077073790105089
 30
0.0
 40
0.0081786857722775
 50
34.6896073746742317
 51
89.6307510766501565
  0
LINE
  5
2C11D
  8
0
 10
3182.1848356731429703
 20
143.815885894940692
 30
0.0
 11
3182.1027350755548468
 21
143.8142721010258072
 31
0.0
  0
ARC
  5
2C11E
  8
0
 10
3182.1037362007082265
 20
143.8060516858787139
 30
0.0
 40
0.0082811518982731
 50
96.9435861733838493
 51
171.8141301727694099
  0
LINE
  5
2C11F
  8
0
 10
3182.0955394223560688
 20
143.8072307963062997
 30
0.0
 11
3182.0917291492141885
 21
143.7692584958861062
 31
0.0
  0
LINE
  5
2C120
  8
0
 10
3181.8711682064549677
 20
143.8926314861259073
 30
0.0
 11
3181.8711676811522011
 21
143.8737592228906124
 31
0.0
  0
ARC
  5
2C121
  8
0
 10
3181.8836083720070746
 20
143.8737588766076954
 30
0.0
 40
0.0124406908606361
 50
179.9984051892475918
 51
267.1014206630554781
  0
ARC
  5
2C122
  8
0
 10
3181.9434732896070273
 20
141.2253844407258043
 30
0.0
 40
2.6366437272595298
 50
84.6329514320983662
 51
91.3146851043862142
  0
ARC
  5
2C123
  8
0
 10
3182.1904178234881329
 20
143.8665619199566947
 30
0.0
 40
0.0160962654360397
 50
268.8462158734212153
 51
343.6328026367206121
  0
ARC
  5
2C124
  8
0
 10
3181.9744642732589455
 20
143.9299861827574887
 30
0.0
 40
0.2411708596674832
 50
343.6328026367206121
 51
349.6438705573133916
  0
LINE
  5
2C125
  8
0
 10
3182.0210700083380289
 20
143.8608860805923086
 30
0.0
 11
3182.0222109589549291
 21
143.8132125749258137
 31
0.0
  0
LINE
  5
2C126
  8
0
 10
3182.0222109589549291
 20
143.8132125749258137
 30
0.0
 11
3179.2096718676730234
 21
143.8132125812257982
 31
0.0
  0
ARC
  5
2C127
  8
0
 10
3179.209671867221914
 20
143.6114924449323951
 30
0.0
 40
0.2017201362934453
 50
89.9999998716525624
 51
110.8002362634034057
  0
LINE
  5
2C128
  8
0
 10
3179.9762526816589343
 20
143.8646326268417113
 30
0.0
 11
3179.9762526816589343
 21
143.8132125812257982
 31
0.0
  0
LINE
  5
2C129
  8
0
 10
3180.0156395053140841
 20
143.8646262663581865
 30
0.0
 11
3180.0156395053140841
 21
143.8132125812257982
 31
0.0
  0
LINE
  5
2C12A
  8
0
 10
3180.0428516225551903
 20
143.8646218719387093
 30
0.0
 11
3180.0428516225551903
 21
143.8132125812257982
 31
0.0
  0
LINE
  5
2C12B
  8
0
 10
3180.0713416860548932
 20
143.8646172711466988
 30
0.0
 11
3180.0713416860548932
 21
143.8132125812257982
 31
0.0
  0
LINE
  5
2C12C
  8
0
 10
3181.4558908531548695
 20
143.8643936836257922
 30
0.0
 11
3181.4558908531548695
 21
143.8132125761943882
 31
0.0
  0
LINE
  5
2C12D
  8
0
 10
3181.4281558279549245
 20
143.8643981624884987
 30
0.0
 11
3181.4281558279549245
 21
143.8132125762564897
 31
0.0
  0
LINE
  5
2C12E
  8
0
 10
3181.4243082379562111
 20
143.8643987838266014
 30
0.0
 11
3181.4243082379562111
 21
143.8132125762651015
 31
0.0
  0
LINE
  5
2C12F
  8
0
 10
3181.3199997081551373
 20
143.8644156283606037
 30
0.0
 11
3181.3199997081551373
 21
143.8132125764988132
 31
0.0
  0
LINE
  5
2C130
  8
0
 10
3182.1094657854891921
 20
143.8567978700083074
 30
0.0
 11
3182.1027350755548468
 21
143.8142721010258072
 31
0.0
  0
ARC
  5
2C131
  8
0
 10
3182.0501889972902063
 20
143.7847265275617872
 30
0.0
 40
0.1098282156216336
 50
355.7654523006287945
 51
16.1701383469711502
  0
LINE
  5
2C132
  8
0
 10
3182.1597173967561503
 20
143.7766168631258097
 30
0.0
 11
3182.1533008493770467
 21
143.7096753390117101
 31
0.0
  0
LINE
  5
2C133
  8
0
 10
3181.8519648870560559
 20
143.8926314861259073
 30
0.0
 11
3181.8519648870560559
 21
143.8132125812257982
 31
0.0
  0
LINE
  5
2C134
  8
0
 10
3182.077197744446039
 20
143.7760571037096042
 30
0.0
 11
3182.0778370261550663
 21
143.7928862879257963
 31
0.0
  0
ARC
  5
2C135
  8
0
 10
3182.0518440142382133
 20
143.7938736713228991
 30
0.0
 40
0.0260117587737526
 50
357.8245801581264232
 51
11.5735462503034707
  0
ARC
  5
2C136
  8
0
 10
3182.0906033237652082
 20
143.7928209717462096
 30
0.0
 40
0.0146830816309833
 50
154.7155650640956139
 51
174.3101851921589969
  0
ARC
  5
2C137
  8
0
 10
3182.4828306876761417
 20
143.7294472689488884
 30
0.0
 40
0.411970991892171
 50
170.9460705198218875
 51
173.3092097675531988
  0
ARC
  5
2C138
  8
0
 10
3182.0485733512668958
 20
143.7927817310198861
 30
0.0
 40
0.0181563264101952
 50
358.7222576643778211
 51
19.7288889490432204
  0
ARC
  5
2C139
  8
0
 10
3181.8416780116672271
 20
143.7877245902660945
 30
0.0
 40
0.2250952331733118
 50
358.0142563340880884
 51
1.184274827839233
  0
ARC
  5
2C13A
  8
0
 10
3182.0880703169841581
 20
143.7877186640461105
 30
0.0
 40
0.0250461596450181
 50
153.4576752138025029
 51
166.3313400279332086
  0
ARC
  5
2C13B
  8
0
 10
3182.2640363137238637
 20
143.7526782370829039
 30
0.0
 40
0.204447686185137
 50
168.4431715808538002
 51
171.9047022863832979
  0
ARC
  5
2C13C
  8
0
 10
3181.9458901101002084
 20
143.783138532166987
 30
0.0
 40
0.1044887355571141
 50
0.6291844746522802
 51
6.3809489726159008
  0
ARC
  5
2C13D
  8
0
 10
3182.0367914695939362
 20
143.7933041491916129
 30
0.0
 40
0.0130207251522206
 50
6.3809489726159008
 51
21.4298333837875283
  0
ARC
  5
2C13E
  8
0
 10
3182.048124523280876
 20
143.7977523330631016
 30
0.0
 40
0.0008459789284925
 50
21.4298333837966197
 51
123.8516506318842971
  0
ARC
  5
2C13F
  8
0
 10
3182.0599995547140679
 20
143.7903572292489969
 30
0.0
 40
0.0147649228945885
 50
146.739942368954388
 51
167.0634842045114965
  0
ARC
  5
2C140
  8
0
 10
3182.1438368141998581
 20
143.7666336715211912
 30
0.0
 40
0.1018783332891198
 50
164.6148246405419968
 51
169.3032899262414048
  0
ARC
  5
2C141
  8
0
 10
3181.9870090632530264
 20
143.7848340069452036
 30
0.0
 40
0.0392726326509468
 50
3.539327803067907
 51
16.7119280216120885
  0
ARC
  5
2C142
  8
0
 10
3182.0191923359661814
 20
143.794496755018713
 30
0.0
 40
0.0056700770498014
 50
16.7119280216128701
 51
40.2063440193715707
  0
ARC
  5
2C143
  8
0
 10
3182.0226666947100966
 20
143.7974334752759091
 30
0.0
 40
0.0011208469451283
 50
40.2063440193952317
 51
131.5235100033198989
  0
ARC
  5
2C144
  8
0
 10
3182.0432418264222179
 20
143.7828044020936034
 30
0.0
 40
0.0263387676698361
 50
144.0357702531395034
 51
168.6579937586778897
  0
ARC
  5
2C145
  8
0
 10
3181.970524677269168
 20
143.7838693377026971
 30
0.0
 40
0.0213556981468818
 50
15.6313270413337708
 51
42.7609004025524868
  0
ARC
  5
2C146
  8
0
 10
3182.0018831006418623
 20
143.7838693377026971
 30
0.0
 40
0.0213556981468818
 50
137.2390995974475061
 51
163.2487847726258963
  0
LINE
  5
2C147
  8
0
 10
3181.5652447255552033
 20
143.8132100529257968
 30
0.0
 11
3181.5652447255552033
 21
143.7961063332273
 31
0.0
  0
LINE
  5
2C148
  8
0
 10
3180.6143239940552121
 20
143.8132125812257982
 30
0.0
 11
3180.6143239940552121
 21
143.8011045367096017
 31
0.0
  0
LINE
  5
2C14A
  8
0
 10
3175.6860775374238983
 20
147.9579398603706863
 30
0.0
 11
3172.5925558473159072
 21
147.9579398603706863
 31
0.0
  0
ENDSEC
  0
EOF
