  0
SECTION
  2
HEADER
  9
$ACADVER
  1
AC1009
  9
$INSBASE
 10
4637.5344322437058509
 20
311.2213020141339825
 30
0.0
  9
$EXTMIN
 10
4619.2249895845916399
 20
301.593341574201304
 30
-0.0000000349181948
  9
$EXTMAX
 10
4655.8028758699038008
 20
320.2790897256131757
 30
0.0000000814935746
  9
$LIMMIN
 10
0.0
 20
0.0
  9
$LIMMAX
 10
11.6929133858000007
 20
8.2677165353999982
  9
$ORTHOMODE
 70
     0
  9
$REGENMODE
 70
     1
  9
$FILLMODE
 70
     1
  9
$QTEXTMODE
 70
     0
  9
$MIRRTEXT
 70
     0
  9
$DRAGMODE
 70
     2
  9
$LTSCALE
 40
0.6431102362
  9
$OSMODE
 70
  4095
  9
$ATTMODE
 70
     1
  9
$TEXTSIZE
 40
0.2
  9
$TRACEWID
 40
0.05
  9
$TEXTSTYLE
  7
STANDARD
  9
$CLAYER
  8
0
  9
$CELTYPE
  6
BYLAYER
  9
$CECOLOR
 62
   256
  9
$DIMSCALE
 40
1.0
  9
$DIMASZ
 40
0.1875
  9
$DIMEXO
 40
0.0625
  9
$DIMDLI
 40
0.4443307087
  9
$DIMRND
 40
0.0
  9
$DIMDLE
 40
0.0
  9
$DIMEXE
 40
0.125
  9
$DIMTP
 40
0.01
  9
$DIMTM
 40
0.01
  9
$DIMTXT
 40
2.0
  9
$DIMCEN
 40
0.1052362205
  9
$DIMTSZ
 40
0.0
  9
$DIMTOL
 70
     1
  9
$DIMLIM
 70
     0
  9
$DIMTIH
 70
     1
  9
$DIMTOH
 70
     1
  9
$DIMSE1
 70
     0
  9
$DIMSE2
 70
     0
  9
$DIMTAD
 70
     0
  9
$DIMZIN
 70
     0
  9
$DIMBLK
  1

  9
$DIMASO
 70
     1
  9
$DIMSHO
 70
     1
  9
$DIMPOST
  1
\X
  9
$DIMAPOST
  1

  9
$DIMALT
 70
     1
  9
$DIMALTD
 70
     2
  9
$DIMALTF
 40
25.3999999999999986
  9
$DIMLFAC
 40
1.0
  9
$DIMTOFL
 70
     0
  9
$DIMTVP
 40
0.0
  9
$DIMTIX
 70
     0
  9
$DIMSOXD
 70
     0
  9
$DIMSAH
 70
     0
  9
$DIMBLK1
  1

  9
$DIMBLK2
  1

  9
$DIMSTYLE
  2
STANDARD
  9
$DIMCLRD
 70
     0
  9
$DIMCLRE
 70
     0
  9
$DIMCLRT
 70
     0
  9
$DIMTFAC
 40
1.0
  9
$DIMGAP
 40
0.09
  9
$LUNITS
 70
     2
  9
$LUPREC
 70
     4
  9
$SKETCHINC
 40
0.1
  9
$FILLETRAD
 40
0.0
  9
$AUNITS
 70
     0
  9
$AUPREC
 70
     0
  9
$MENU
  1
.
  9
$ELEVATION
 40
0.0
  9
$PELEVATION
 40
0.0
  9
$THICKNESS
 40
0.0
  9
$LIMCHECK
 70
     0
  9
$BLIPMODE
 70
     0
  9
$CHAMFERA
 40
0.0
  9
$CHAMFERB
 40
0.0
  9
$SKPOLY
 70
     0
  9
$TDCREATE
 40
2458060.468368056230247
  9
$TDUPDATE
 40
2459405.5270370370708406
  9
$TDINDWG
 40
0.5506204861
  9
$TDUSRTIMER
 40
0.5506204861
  9
$USRTIMER
 70
     1
  9
$ANGBASE
 50
0.0
  9
$ANGDIR
 70
     0
  9
$PDMODE
 70
     0
  9
$PDSIZE
 40
0.3125
  9
$PLINEWID
 40
0.0
  9
$COORDS
 70
     1
  9
$SPLFRAME
 70
     0
  9
$SPLINETYPE
 70
     6
  9
$SPLINESEGS
 70
     8
  9
$ATTDIA
 70
     1
  9
$ATTREQ
 70
     1
  9
$HANDLING
 70
     1
  9
$HANDSEED
  5
21153
  9
$SURFTAB1
 70
     6
  9
$SURFTAB2
 70
     6
  9
$SURFTYPE
 70
     6
  9
$SURFU
 70
     6
  9
$SURFV
 70
     6
  9
$UCSNAME
  2

  9
$UCSORG
 10
0.0
 20
0.0
 30
0.0
  9
$UCSXDIR
 10
1.0
 20
0.0
 30
0.0
  9
$UCSYDIR
 10
0.0
 20
1.0
 30
0.0
  9
$PUCSNAME
  2

  9
$PUCSORG
 10
0.0
 20
0.0
 30
0.0
  9
$PUCSXDIR
 10
1.0
 20
0.0
 30
0.0
  9
$PUCSYDIR
 10
0.0
 20
1.0
 30
0.0
  9
$USERI1
 70
     0
  9
$USERI2
 70
     0
  9
$USERI3
 70
     0
  9
$USERI4
 70
     0
  9
$USERI5
 70
     0
  9
$USERR1
 40
0.0
  9
$USERR2
 40
0.0
  9
$USERR3
 40
0.0
  9
$USERR4
 40
0.0
  9
$USERR5
 40
0.0
  9
$WORLDVIEW
 70
     1
  9
$SHADEDGE
 70
     3
  9
$SHADEDIF
 70
    70
  9
$TILEMODE
 70
     1
  9
$MAXACTVP
 70
    64
  9
$PLIMCHECK
 70
     0
  9
$PEXTMIN
 10
1.0000000000000000E+20
 20
1.0000000000000000E+20
 30
1.0000000000000000E+20
  9
$PEXTMAX
 10
-1.0000000000000000E+20
 20
-1.0000000000000000E+20
 30
-1.0000000000000000E+20
  9
$PLIMMIN
 10
0.0
 20
0.0
  9
$PLIMMAX
 10
12.0
 20
9.0
  9
$UNITMODE
 70
     0
  9
$VISRETAIN
 70
     1
  9
$PLINEGEN
 70
     0
  9
$PSLTSCALE
 70
     1
  0
ENDSEC
  0
SECTION
  2
TABLES
  0
TABLE
  2
VPORT
 70
     1
  0
VPORT
  2
*ACTIVE
 70
     0
 10
0.0
 20
0.0
 11
1.0
 21
1.0
 12
726.1485762819355614
 22
178.3566105473680921
 13
0.0
 23
0.0
 14
1.0
 24
1.0
 15
0.0
 25
0.0
 16
0.0
 26
0.0
 36
60.4960186965801583
 17
3911.3653564453120453
 27
132.5796051025390057
 37
0.0
 40
21.9984767261781506
 41
1.67063492063492
 42
50.0
 43
0.0
 44
0.0
 50
0.0
 51
0.0
 71
     0
 72
   100
 73
     1
 74
     1
 75
     0
 76
     0
 77
     0
 78
     0
  0
ENDTAB
  0
TABLE
  2
LTYPE
 70
     2
  0
LTYPE
  2
CONTINUOUS
 70
     0
  3
Solid line
 72
    65
 73
     0
 40
0.0
  0
LTYPE
  2
PHANTOM2
 70
     0
  3
___ _ _ ___ _ _ ___ _ _ ___ _ _
 72
    65
 73
     6
 40
1.25
 49
0.625
 49
-0.125
 49
0.125
 49
-0.125
 49
0.125
 49
-0.125
  0
ENDTAB
  0
TABLE
  2
LAYER
 70
     2
  0
LAYER
  2
0
 70
     0
 62
   255
  6
CONTINUOUS
  0
LAYER
  2
DEFPOINTS
 70
     0
 62
     7
  6
CONTINUOUS
  0
ENDTAB
  0
TABLE
  2
STYLE
 70
     1
  0
STYLE
  2
STANDARD
 70
     0
 40
0.0
 41
0.8
 50
0.0
 71
     0
 42
0.2
  3
txt
  4

  0
ENDTAB
  0
TABLE
  2
VIEW
 70
     0
  0
ENDTAB
  0
TABLE
  2
UCS
 70
     0
  0
ENDTAB
  0
TABLE
  2
APPID
 70
    11
  0
APPID
  2
ACAD
 70
     0
  0
APPID
  2
ACAD_MLEADERVER
 70
     0
  0
APPID
  2
ACAD_EXEMPT_FROM_CAD_STANDARDS
 70
     0
  0
APPID
  2
ACAD_NAV_VCDISPLAY
 70
     0
  0
APPID
  2
ACAECLAYERSTANDARD
 70
     0
  0
APPID
  2
ACCMTRANSPARENCY
 70
     0
  0
APPID
  2
ACAD_DSTYLE_DIMJAG
 70
     0
  0
APPID
  2
ACAD_DSTYLE_DIMTALN
 70
     0
  0
APPID
  2
ACDBATTR
 70
     0
  0
APPID
  2
ACADANNOTATIVE
 70
     0
  0
APPID
  2
DCO15
 70
     0
  0
ENDTAB
  0
TABLE
  2
DIMSTYLE
 70
     1
  0
DIMSTYLE
  2
STANDARD
 70
     0
  3

  4

  5

  6

  7

 40
1.0
 41
0.1875
 42
0.0625
 43
0.38
 44
0.125
 45
0.0
 46
0.0
 47
0.01
 48
0.01
140
0.15625
141
0.09
142
0.0
143
25.3999999999999986
144
1.0
145
0.0
146
1.0
147
0.09
 71
     1
 72
     0
 73
     1
 74
     1
 75
     0
 76
     0
 77
     0
 78
     4
170
     0
171
     2
172
     0
173
     0
174
     0
175
     0
176
     0
177
     0
178
     0
  0
ENDTAB
  0
ENDSEC
  0
SECTION
  2
BLOCKS
  0
BLOCK
  8
0
  2
$MODEL_SPACE
 70
     0
 10
0.0
 20
0.0
 30
0.0
  3
$MODEL_SPACE
  1

  0
ENDBLK
  5
21
  8
0
  0
BLOCK
 67
     1
  8
0
  2
$PAPER_SPACE
 70
     0
 10
0.0
 20
0.0
 30
0.0
  3
$PAPER_SPACE
  1

  0
ENDBLK
  5
1D
 67
     1
  8
0
  0
ENDSEC
  0
SECTION
  2
ENTITIES
  0
ATTDEF
  5
20106
  8
DEFPOINTS
 10
4637.5300016452829368
 20
311.2275633635769054
 30
0.0
 40
0.001
  1
K-77838T-1
  3

  2
MODELNUMBER
 70
     0
1001
ACDBATTR
1070
     0
1070
     1
  0
ATTDEF
  5
20107
  8
DEFPOINTS
 10
4637.5298758356257167
 20
311.2258965231977754
 30
0.0
 40
0.001
  1
MODERNLIFE
  3

  2
TRADENAME
 70
     0
1001
ACDBATTR
1070
     0
1070
     1
  0
ATTDEF
  5
20108
  8
DEFPOINTS
 10
4637.5300016452829368
 20
311.2242300302435751
 30
0.0
 40
0.001
  1
BATHROOM SINK
  3

  2
PRODUCT
 70
     0
1001
ACDBATTR
1070
     0
1070
     1
  0
LINE
  5
210B7
  8
0
 10
4619.3137823784927605
 20
320.1979693829260896
 30
0.0
 11
4619.3137823784927605
 21
302.2446346453418187
 31
0.0
  0
LINE
  5
210B8
  8
0
 10
4655.677082108916693
 20
320.2759693829261209
 30
0.0
 11
4619.3917823784931898
 21
320.2759693829261209
 31
0.0
  0
LINE
  5
210B9
  8
0
 10
4655.1150821089177043
 20
301.6046346453417755
 30
0.0
 11
4619.9537823784930879
 21
301.6046346453417755
 31
0.0
  0
ARC
  5
210BA
  8
0
 10
4619.3917823784931898
 20
320.1979693829260896
 30
0.0
 40
0.078
 50
90.0
 51
180.0
  0
ARC
  5
210BB
  8
0
 10
4619.9537823784930879
 20
302.2446346453418187
 30
0.0
 40
0.6400000000000001
 50
180.0
 51
270.0
  0
CIRCLE
  5
210BC
  8
0
 10
4637.534433093905136
 20
312.7169142648260731
 30
0.0
 40
0.9129087347000002
  0
CIRCLE
  5
210BD
  8
0
 10
4637.5344322437058509
 20
317.5200638711261263
 30
0.0
 40
0.6889876878000045
  0
LINE
  5
210BE
  8
0
 10
4630.790640679900207
 20
315.1849827867260956
 30
0.0
 11
4644.2782238075096757
 21
315.1849827867260956
 31
0.0
  0
ARC
  5
210BF
  8
0
 10
4655.8351770120580113
 20
309.545690843848206
 30
0.0
 40
28.4662313755464105
 50
174.4073837594303882
 51
187.6176386438087036
  0
LINE
  5
210C0
  8
0
 10
4630.7721022461573739
 20
303.0137092722260945
 30
0.0
 11
4644.2967622412515993
 21
303.0137092722260945
 31
0.0
  0
ARC
  5
210C1
  8
0
 10
4630.7297295630060034
 20
311.9377098282482734
 30
0.0
 40
3.247844182072571
 50
88.9253934783586146
 51
173.2428181612920071
  0
ARC
  5
210C2
  8
0
 10
4630.8591318859926105
 20
306.2931533101830723
 30
0.0
 40
3.2805986277357668
 50
189.1377929468179104
 51
268.4798456969796234
  0
LINE
  5
210C3
  8
0
 10
4619.3137823784927605
 20
315.5139521606756148
 30
0.0
 11
4655.7550821089171222
 21
315.5139521606756148
 31
0.0
  0
LINE
  5
210C4
  8
0
 10
4655.7550821089171222
 20
320.1979693829260896
 30
0.0
 11
4655.7550821089171222
 21
302.2446346453418187
 31
0.0
  0
ARC
  5
210C5
  8
0
 10
4655.677082108916693
 20
320.1979693829260896
 30
0.0
 40
0.078
 50
0.0
 51
90.0
  0
ARC
  5
210C6
  8
0
 10
4655.1150821089177043
 20
302.2446346453418187
 30
0.0
 40
0.6400000000000001
 50
270.0
 51
0.0
  0
CIRCLE
  5
210C7
  8
0
 10
4637.5344313935056562
 20
312.7169142648260731
 30
0.0
 40
0.9129087347000002
  0
CIRCLE
  5
210C8
  8
0
 10
4637.5344322437058509
 20
317.5200638711261263
 30
0.0
 40
0.6889876878000045
  0
ARC
  5
210C9
  8
0
 10
4619.2336874753518714
 20
309.545690843848206
 30
0.0
 40
28.4662313755464105
 50
352.3823613561912111
 51
5.5926162405695869
  0
ARC
  5
210CA
  8
0
 10
4644.3391349244038793
 20
311.9377098282482734
 30
0.0
 40
3.247844182072571
 50
6.7571818387080302
 51
91.0746065216413854
  0
ARC
  5
210CB
  8
0
 10
4644.2097326014163627
 20
306.2931533101830723
 30
0.0
 40
3.2805986277357668
 50
271.5201543030203766
 51
350.8622070531820896
  0
POINT
  5
210CC
  8
DEFPOINTS
 10
4637.5344322437058509
 20
317.5200638711261263
 30
0.0
  0
CIRCLE
  5
210CE
  8
0
 10
4637.534433093905136
 20
312.7169142648260731
 30
0.0
 40
1.501132718756464
  0
ENDSEC
  0
EOF
