  0
SECTION
  2
HEADER
  9
$ACADVER
  1
AC1009
  9
$INSBASE
 10
4550.4230381377847152
 20
309.2552908281826944
 30
0.0
  9
$EXTMIN
 10
4531.9971906986756949
 20
304.2428430936074051
 30
-0.0000000349181948
  9
$EXTMAX
 10
4568.9458456283509804
 20
311.3936162036110886
 30
0.0000000814935746
  9
$LIMMIN
 10
0.0
 20
0.0
  9
$LIMMAX
 10
11.6929133858000007
 20
8.2677165353999982
  9
$ORTHOMODE
 70
     0
  9
$REGENMODE
 70
     1
  9
$FILLMODE
 70
     1
  9
$QTEXTMODE
 70
     0
  9
$MIRRTEXT
 70
     0
  9
$DRAGMODE
 70
     2
  9
$LTSCALE
 40
0.6431102362
  9
$OSMODE
 70
  4095
  9
$ATTMODE
 70
     1
  9
$TEXTSIZE
 40
0.2
  9
$TRACEWID
 40
0.05
  9
$TEXTSTYLE
  7
STANDARD
  9
$CLAYER
  8
0
  9
$CELTYPE
  6
BYLAYER
  9
$CECOLOR
 62
   256
  9
$DIMSCALE
 40
1.0
  9
$DIMASZ
 40
0.1875
  9
$DIMEXO
 40
0.0625
  9
$DIMDLI
 40
0.4443307087
  9
$DIMRND
 40
0.0
  9
$DIMDLE
 40
0.0
  9
$DIMEXE
 40
0.125
  9
$DIMTP
 40
0.01
  9
$DIMTM
 40
0.01
  9
$DIMTXT
 40
2.0
  9
$DIMCEN
 40
0.1052362205
  9
$DIMTSZ
 40
0.0
  9
$DIMTOL
 70
     1
  9
$DIMLIM
 70
     0
  9
$DIMTIH
 70
     1
  9
$DIMTOH
 70
     1
  9
$DIMSE1
 70
     0
  9
$DIMSE2
 70
     0
  9
$DIMTAD
 70
     0
  9
$DIMZIN
 70
     0
  9
$DIMBLK
  1

  9
$DIMASO
 70
     1
  9
$DIMSHO
 70
     1
  9
$DIMPOST
  1
\X
  9
$DIMAPOST
  1

  9
$DIMALT
 70
     1
  9
$DIMALTD
 70
     2
  9
$DIMALTF
 40
25.3999999999999986
  9
$DIMLFAC
 40
1.0
  9
$DIMTOFL
 70
     0
  9
$DIMTVP
 40
0.0
  9
$DIMTIX
 70
     0
  9
$DIMSOXD
 70
     0
  9
$DIMSAH
 70
     0
  9
$DIMBLK1
  1

  9
$DIMBLK2
  1

  9
$DIMSTYLE
  2
STANDARD
  9
$DIMCLRD
 70
     0
  9
$DIMCLRE
 70
     0
  9
$DIMCLRT
 70
     0
  9
$DIMTFAC
 40
1.0
  9
$DIMGAP
 40
0.09
  9
$LUNITS
 70
     2
  9
$LUPREC
 70
     4
  9
$SKETCHINC
 40
0.1
  9
$FILLETRAD
 40
0.0
  9
$AUNITS
 70
     0
  9
$AUPREC
 70
     0
  9
$MENU
  1
.
  9
$ELEVATION
 40
0.0
  9
$PELEVATION
 40
0.0
  9
$THICKNESS
 40
0.0
  9
$LIMCHECK
 70
     0
  9
$BLIPMODE
 70
     0
  9
$CHAMFERA
 40
0.0
  9
$CHAMFERB
 40
0.0
  9
$SKPOLY
 70
     0
  9
$TDCREATE
 40
2458060.468368056230247
  9
$TDUPDATE
 40
2459405.8967361110262573
  9
$TDINDWG
 40
0.553571875
  9
$TDUSRTIMER
 40
0.553571875
  9
$USRTIMER
 70
     1
  9
$ANGBASE
 50
0.0
  9
$ANGDIR
 70
     0
  9
$PDMODE
 70
     0
  9
$PDSIZE
 40
0.3125
  9
$PLINEWID
 40
0.0
  9
$COORDS
 70
     1
  9
$SPLFRAME
 70
     0
  9
$SPLINETYPE
 70
     6
  9
$SPLINESEGS
 70
     8
  9
$ATTDIA
 70
     1
  9
$ATTREQ
 70
     1
  9
$HANDLING
 70
     1
  9
$HANDSEED
  5
210E3
  9
$SURFTAB1
 70
     6
  9
$SURFTAB2
 70
     6
  9
$SURFTYPE
 70
     6
  9
$SURFU
 70
     6
  9
$SURFV
 70
     6
  9
$UCSNAME
  2

  9
$UCSORG
 10
0.0
 20
0.0
 30
0.0
  9
$UCSXDIR
 10
1.0
 20
0.0
 30
0.0
  9
$UCSYDIR
 10
0.0
 20
1.0
 30
0.0
  9
$PUCSNAME
  2

  9
$PUCSORG
 10
0.0
 20
0.0
 30
0.0
  9
$PUCSXDIR
 10
1.0
 20
0.0
 30
0.0
  9
$PUCSYDIR
 10
0.0
 20
1.0
 30
0.0
  9
$USERI1
 70
     0
  9
$USERI2
 70
     0
  9
$USERI3
 70
     0
  9
$USERI4
 70
     0
  9
$USERI5
 70
     0
  9
$USERR1
 40
0.0
  9
$USERR2
 40
0.0
  9
$USERR3
 40
0.0
  9
$USERR4
 40
0.0
  9
$USERR5
 40
0.0
  9
$WORLDVIEW
 70
     1
  9
$SHADEDGE
 70
     3
  9
$SHADEDIF
 70
    70
  9
$TILEMODE
 70
     1
  9
$MAXACTVP
 70
    64
  9
$PLIMCHECK
 70
     0
  9
$PEXTMIN
 10
1.0000000000000000E+20
 20
1.0000000000000000E+20
 30
1.0000000000000000E+20
  9
$PEXTMAX
 10
-1.0000000000000000E+20
 20
-1.0000000000000000E+20
 30
-1.0000000000000000E+20
  9
$PLIMMIN
 10
0.0
 20
0.0
  9
$PLIMMAX
 10
12.0
 20
9.0
  9
$UNITMODE
 70
     0
  9
$VISRETAIN
 70
     1
  9
$PLINEGEN
 70
     0
  9
$PSLTSCALE
 70
     1
  0
ENDSEC
  0
SECTION
  2
TABLES
  0
TABLE
  2
VPORT
 70
     1
  0
VPORT
  2
*ACTIVE
 70
     0
 10
0.0
 20
0.0
 11
1.0
 21
1.0
 12
639.1061617182011787
 22
175.2386245460702128
 13
0.0
 23
0.0
 14
1.0
 24
1.0
 15
0.0
 25
0.0
 16
0.0
 26
0.0
 36
60.4960186965801583
 17
3911.3653564453120453
 27
132.5796051025390057
 37
0.0
 40
18.1734663829558301
 41
2.0410052910052912
 42
50.0
 43
0.0
 44
0.0
 50
0.0
 51
0.0
 71
     0
 72
   100
 73
     1
 74
     1
 75
     0
 76
     0
 77
     0
 78
     0
  0
ENDTAB
  0
TABLE
  2
LTYPE
 70
     2
  0
LTYPE
  2
CONTINUOUS
 70
     0
  3
Solid line
 72
    65
 73
     0
 40
0.0
  0
LTYPE
  2
PHANTOM2
 70
     0
  3
___ _ _ ___ _ _ ___ _ _ ___ _ _
 72
    65
 73
     6
 40
1.25
 49
0.625
 49
-0.125
 49
0.125
 49
-0.125
 49
0.125
 49
-0.125
  0
ENDTAB
  0
TABLE
  2
LAYER
 70
     2
  0
LAYER
  2
0
 70
     0
 62
   255
  6
CONTINUOUS
  0
LAYER
  2
DEFPOINTS
 70
     0
 62
     7
  6
CONTINUOUS
  0
ENDTAB
  0
TABLE
  2
STYLE
 70
     1
  0
STYLE
  2
STANDARD
 70
     0
 40
0.0
 41
0.8
 50
0.0
 71
     0
 42
0.2
  3
txt
  4

  0
ENDTAB
  0
TABLE
  2
VIEW
 70
     0
  0
ENDTAB
  0
TABLE
  2
UCS
 70
     0
  0
ENDTAB
  0
TABLE
  2
APPID
 70
    11
  0
APPID
  2
ACAD
 70
     0
  0
APPID
  2
ACAD_MLEADERVER
 70
     0
  0
APPID
  2
ACAD_EXEMPT_FROM_CAD_STANDARDS
 70
     0
  0
APPID
  2
ACAD_NAV_VCDISPLAY
 70
     0
  0
APPID
  2
ACAECLAYERSTANDARD
 70
     0
  0
APPID
  2
ACCMTRANSPARENCY
 70
     0
  0
APPID
  2
ACAD_DSTYLE_DIMJAG
 70
     0
  0
APPID
  2
ACAD_DSTYLE_DIMTALN
 70
     0
  0
APPID
  2
ACDBATTR
 70
     0
  0
APPID
  2
ACADANNOTATIVE
 70
     0
  0
APPID
  2
DCO15
 70
     0
  0
ENDTAB
  0
TABLE
  2
DIMSTYLE
 70
     1
  0
DIMSTYLE
  2
STANDARD
 70
     0
  3

  4

  5

  6

  7

 40
1.0
 41
0.1875
 42
0.0625
 43
0.38
 44
0.125
 45
0.0
 46
0.0
 47
0.01
 48
0.01
140
0.15625
141
0.09
142
0.0
143
25.3999999999999986
144
1.0
145
0.0
146
1.0
147
0.09
 71
     1
 72
     0
 73
     1
 74
     1
 75
     0
 76
     0
 77
     0
 78
     4
170
     0
171
     2
172
     0
173
     0
174
     0
175
     0
176
     0
177
     0
178
     0
  0
ENDTAB
  0
ENDSEC
  0
SECTION
  2
BLOCKS
  0
BLOCK
  8
0
  2
$MODEL_SPACE
 70
     0
 10
0.0
 20
0.0
 30
0.0
  3
$MODEL_SPACE
  1

  0
ENDBLK
  5
21
  8
0
  0
BLOCK
 67
     1
  8
0
  2
$PAPER_SPACE
 70
     0
 10
0.0
 20
0.0
 30
0.0
  3
$PAPER_SPACE
  1

  0
ENDBLK
  5
1D
 67
     1
  8
0
  0
ENDSEC
  0
SECTION
  2
ENTITIES
  0
ATTDEF
  5
20106
  8
DEFPOINTS
 10
4550.4190865920463693
 20
309.2609845983351988
 30
0.0
 40
0.001
  1
K-77838T-8
  3

  2
MODELNUMBER
 70
     0
1001
ACDBATTR
1070
     0
1070
     1
  0
ATTDEF
  5
20107
  8
DEFPOINTS
 10
4550.4189607823882397
 20
309.2593177579561257
 30
0.0
 40
0.001
  1
MODERNLIFE
  3

  2
TRADENAME
 70
     0
1001
ACDBATTR
1070
     0
1070
     1
  0
ATTDEF
  5
20108
  8
DEFPOINTS
 10
4550.4190865920463693
 20
309.2576512650019254
 30
0.0
 40
0.001
  1
BATHROOM SINK
  3

  2
PRODUCT
 70
     0
1001
ACDBATTR
1070
     0
1070
     1
  0
LINE
  5
20EAD
  8
0
 10
4565.7268819138980689
 20
306.2595665435828209
 30
0.0
 11
4535.11919436167409
 21
306.2595665435827073
 31
0.0
  0
LINE
  5
20EAE
  8
0
 10
4568.2845343862882146
 20
309.2552908281826944
 30
0.0
 11
4532.5615418892830348
 21
309.2552908281826944
 31
0.0
  0
LINE
  5
20EAF
  8
0
 10
4532.4524401142816714
 20
311.3775605918826841
 30
0.0
 11
4568.393636161295035
 21
311.3775605918826841
 31
0.0
  0
LINE
  5
20EB0
  8
0
 10
4534.9293702724571631
 20
306.4392602949827165
 30
0.0
 11
4534.6829995245861937
 21
309.2552908281826944
 31
0.0
  0
ARC
  5
20EB1
  8
0
 10
4535.1278511287855508
 20
306.4588209818891187
 30
0.0
 40
0.1994423997088805
 50
185.6284389995632012
 51
267.5123038335651131
  0
LINE
  5
20EB2
  8
0
 10
4532.5231347593771716
 20
309.2875164372604218
 30
0.0
 11
4532.207286603207649
 21
311.0782077656828051
 31
0.0
  0
ARC
  5
20EB3
  8
0
 10
4532.4524854098526703
 20
311.1274634587047103
 30
0.0
 40
0.2500971372798019
 50
90.0103769481727483
 51
191.3584405091671954
  0
ARC
  5
20EB4
  8
0
 10
4532.5615418892830348
 20
309.2942908281826817
 30
0.0
 40
0.039
 50
190.0031506576690106
 51
270.0
  0
ARC
  5
20EB5
  8
0
 10
4550.458699014729973
 20
381.032421735698108
 30
0.0
 40
72.2480335964644951
 50
266.0068291897429731
 51
269.9717193988224722
  0
ARC
  5
20EB6
  8
0
 10
4533.9952160598486444
 20
248.2189607205143034
 30
0.0
 40
61.8073199256898391
 50
79.3408002580846698
 51
80.9407032948682712
  0
LINE
  5
20EB7
  8
0
 10
4549.1154747879481874
 20
304.2438072988828139
 30
0.0
 11
4551.7306014876221525
 21
304.2438072988828139
 31
0.0
  0
ARC
  5
20EB8
  8
0
 10
4549.1154747879481874
 20
304.3538072988827139
 30
0.0
 40
0.11
 50
185.4999999989225898
 51
270.0
  0
LINE
  5
20EB9
  8
0
 10
4549.0059812061281264
 20
304.3432642661076102
 30
0.0
 11
4548.8826875808354089
 21
305.623717522482707
 31
0.0
  0
LINE
  5
20EBA
  8
0
 10
4551.9633886947349311
 20
305.623717522482707
 30
0.0
 11
4551.8400950694431231
 21
304.3432642661077239
 31
0.0
  0
ARC
  5
20EBB
  8
0
 10
4551.7306014876221525
 20
304.3538072988827139
 30
0.0
 40
0.11
 50
270.0
 51
354.5000000011324914
  0
ARC
  5
20EBC
  8
0
 10
4548.6872693048289875
 20
305.509717661665718
 30
0.0
 40
0.2240961838500306
 50
50.7069717956967523
 51
81.5128822253204959
  0
LINE
  5
20EBD
  8
0
 10
4548.8826875808354089
 20
305.623717522482707
 30
0.0
 11
4551.9633886947349311
 21
305.623717522482707
 31
0.0
  0
LINE
  5
20EBE
  8
0
 10
4548.8975598714350781
 20
305.623717522482707
 30
0.0
 11
4548.8291864390275805
 21
305.6831495694480054
 31
0.0
  0
ARC
  5
20EBF
  8
0
 10
4552.1530200754596081
 20
305.5117997267731766
 30
0.0
 40
0.221248677986997
 50
97.136615195065005
 51
122.1791861794066989
  0
LINE
  5
20EC0
  8
0
 10
4551.9485164041352618
 20
305.623717522482707
 30
0.0
 11
4552.0351899226589012
 21
305.6990616625798225
 31
0.0
  0
ARC
  5
20EC1
  8
0
 10
4553.0499503990913581
 20
346.9033910606527229
 30
0.0
 40
41.3990538500871281
 50
259.0391485789132844
 51
263.996899590066505
  0
LINE
  5
20EC2
  8
0
 10
4568.6387896723626909
 20
311.0782077656828051
 30
0.0
 11
4532.207286603207649
 21
311.0782077656828051
 31
0.0
  0
LINE
  5
20EC3
  8
0
 10
4565.9167060031149958
 20
306.4392602949827165
 30
0.0
 11
4566.1630767509859652
 21
309.2552908281826944
 31
0.0
  0
ARC
  5
20EC4
  8
0
 10
4565.7182251467856986
 20
306.4588209818891187
 30
0.0
 40
0.1994423997088805
 50
272.4876961664350006
 51
354.3715610004368273
  0
LINE
  5
20EC5
  8
0
 10
4568.3229415161940778
 20
309.2875164372604218
 30
0.0
 11
4568.6387896723626909
 21
311.0782077656828051
 31
0.0
  0
ARC
  5
20EC6
  8
0
 10
4568.3935908657167602
 20
311.1274634587047103
 30
0.0
 40
0.2500971372798019
 50
348.6415594908327762
 51
89.9896230518272375
  0
ARC
  5
20EC7
  8
0
 10
4568.2845343862882146
 20
309.2942908281826817
 30
0.0
 40
0.039
 50
270.0
 51
349.9968493423309042
  0
ARC
  5
20EC8
  8
0
 10
4550.3873772608421859
 20
381.032421735698108
 30
0.0
 40
72.2480335964644951
 50
270.0282806011775278
 51
273.9931708102570269
  0
ARC
  5
20EC9
  8
0
 10
4566.8508602157244241
 20
248.2189607205143034
 30
0.0
 40
61.8073199256898391
 50
99.059296705131743
 51
100.6591997419153017
  0
ARC
  5
20ECA
  8
0
 10
4547.7961258764789818
 20
346.9033910606527229
 30
0.0
 40
41.3990538500871281
 50
276.0031004099336087
 51
280.9608514210867156
  0
ENDSEC
  0
EOF
