  0
SECTION
  2
HEADER
  9
$ACADVER
  1
AC1009
  9
$INSBASE
 10
4583.6116893095158957
 20
310.3999145354583789
 30
0.0
  9
$EXTMIN
 10
4573.8645313901870395
 20
305.3662991259885757
 30
-0.0000000000112498
  9
$EXTMAX
 10
4593.1375098654843896
 20
312.5434773901939138
 30
0.0000000000002956
  9
$LIMMIN
 10
0.0
 20
0.0
  9
$LIMMAX
 10
11.6929133858000007
 20
8.2677165353999982
  9
$ORTHOMODE
 70
     0
  9
$REGENMODE
 70
     1
  9
$FILLMODE
 70
     1
  9
$QTEXTMODE
 70
     0
  9
$MIRRTEXT
 70
     0
  9
$DRAGMODE
 70
     2
  9
$LTSCALE
 40
0.6431102362
  9
$OSMODE
 70
  4095
  9
$ATTMODE
 70
     1
  9
$TEXTSIZE
 40
0.2
  9
$TRACEWID
 40
0.05
  9
$TEXTSTYLE
  7
STANDARD
  9
$CLAYER
  8
0
  9
$CELTYPE
  6
BYLAYER
  9
$CECOLOR
 62
   256
  9
$DIMSCALE
 40
1.0
  9
$DIMASZ
 40
0.1875
  9
$DIMEXO
 40
0.0625
  9
$DIMDLI
 40
0.4443307087
  9
$DIMRND
 40
0.0
  9
$DIMDLE
 40
0.0
  9
$DIMEXE
 40
0.125
  9
$DIMTP
 40
0.01
  9
$DIMTM
 40
0.01
  9
$DIMTXT
 40
2.0
  9
$DIMCEN
 40
0.1052362205
  9
$DIMTSZ
 40
0.0
  9
$DIMTOL
 70
     1
  9
$DIMLIM
 70
     0
  9
$DIMTIH
 70
     1
  9
$DIMTOH
 70
     1
  9
$DIMSE1
 70
     0
  9
$DIMSE2
 70
     0
  9
$DIMTAD
 70
     0
  9
$DIMZIN
 70
     0
  9
$DIMBLK
  1

  9
$DIMASO
 70
     1
  9
$DIMSHO
 70
     1
  9
$DIMPOST
  1
\X
  9
$DIMAPOST
  1

  9
$DIMALT
 70
     1
  9
$DIMALTD
 70
     2
  9
$DIMALTF
 40
25.3999999999999986
  9
$DIMLFAC
 40
1.0
  9
$DIMTOFL
 70
     0
  9
$DIMTVP
 40
0.0
  9
$DIMTIX
 70
     0
  9
$DIMSOXD
 70
     0
  9
$DIMSAH
 70
     0
  9
$DIMBLK1
  1

  9
$DIMBLK2
  1

  9
$DIMSTYLE
  2
STANDARD
  9
$DIMCLRD
 70
     0
  9
$DIMCLRE
 70
     0
  9
$DIMCLRT
 70
     0
  9
$DIMTFAC
 40
1.0
  9
$DIMGAP
 40
0.09
  9
$LUNITS
 70
     2
  9
$LUPREC
 70
     4
  9
$SKETCHINC
 40
0.1
  9
$FILLETRAD
 40
0.0
  9
$AUNITS
 70
     0
  9
$AUPREC
 70
     0
  9
$MENU
  1
.
  9
$ELEVATION
 40
0.0
  9
$PELEVATION
 40
0.0
  9
$THICKNESS
 40
0.0
  9
$LIMCHECK
 70
     0
  9
$BLIPMODE
 70
     0
  9
$CHAMFERA
 40
0.0
  9
$CHAMFERB
 40
0.0
  9
$SKPOLY
 70
     0
  9
$TDCREATE
 40
2458060.468368056230247
  9
$TDUPDATE
 40
2459405.8964120368473232
  9
$TDINDWG
 40
0.5543357638999999
  9
$TDUSRTIMER
 40
0.5543357638999999
  9
$USRTIMER
 70
     1
  9
$ANGBASE
 50
0.0
  9
$ANGDIR
 70
     0
  9
$PDMODE
 70
     0
  9
$PDSIZE
 40
0.3125
  9
$PLINEWID
 40
0.0
  9
$COORDS
 70
     1
  9
$SPLFRAME
 70
     0
  9
$SPLINETYPE
 70
     6
  9
$SPLINESEGS
 70
     8
  9
$ATTDIA
 70
     1
  9
$ATTREQ
 70
     1
  9
$HANDLING
 70
     1
  9
$HANDSEED
  5
211AA
  9
$SURFTAB1
 70
     6
  9
$SURFTAB2
 70
     6
  9
$SURFTYPE
 70
     6
  9
$SURFU
 70
     6
  9
$SURFV
 70
     6
  9
$UCSNAME
  2

  9
$UCSORG
 10
0.0
 20
0.0
 30
0.0
  9
$UCSXDIR
 10
1.0
 20
0.0
 30
0.0
  9
$UCSYDIR
 10
0.0
 20
1.0
 30
0.0
  9
$PUCSNAME
  2

  9
$PUCSORG
 10
0.0
 20
0.0
 30
0.0
  9
$PUCSXDIR
 10
1.0
 20
0.0
 30
0.0
  9
$PUCSYDIR
 10
0.0
 20
1.0
 30
0.0
  9
$USERI1
 70
     0
  9
$USERI2
 70
     0
  9
$USERI3
 70
     0
  9
$USERI4
 70
     0
  9
$USERI5
 70
     0
  9
$USERR1
 40
0.0
  9
$USERR2
 40
0.0
  9
$USERR3
 40
0.0
  9
$USERR4
 40
0.0
  9
$USERR5
 40
0.0
  9
$WORLDVIEW
 70
     1
  9
$SHADEDGE
 70
     3
  9
$SHADEDIF
 70
    70
  9
$TILEMODE
 70
     1
  9
$MAXACTVP
 70
    64
  9
$PLIMCHECK
 70
     0
  9
$PEXTMIN
 10
1.0000000000000000E+20
 20
1.0000000000000000E+20
 30
1.0000000000000000E+20
  9
$PEXTMAX
 10
-1.0000000000000000E+20
 20
-1.0000000000000000E+20
 30
-1.0000000000000000E+20
  9
$PLIMMIN
 10
0.0
 20
0.0
  9
$PLIMMAX
 10
12.0
 20
9.0
  9
$UNITMODE
 70
     0
  9
$VISRETAIN
 70
     1
  9
$PLINEGEN
 70
     0
  9
$PSLTSCALE
 70
     1
  0
ENDSEC
  0
SECTION
  2
TABLES
  0
TABLE
  2
VPORT
 70
     1
  0
VPORT
  2
*ACTIVE
 70
     0
 10
0.0
 20
0.0
 11
1.0
 21
1.0
 12
672.1356641825232145
 22
176.375283155552097
 13
0.0
 23
0.0
 14
1.0
 24
1.0
 15
0.0
 25
0.0
 16
0.0
 26
0.0
 36
60.4960186965801583
 17
3911.3653564453120453
 27
132.5796051025390057
 37
0.0
 40
9.4795555369170614
 41
2.0410052910052912
 42
50.0
 43
0.0
 44
0.0
 50
0.0
 51
0.0
 71
     0
 72
   100
 73
     1
 74
     1
 75
     0
 76
     0
 77
     0
 78
     0
  0
ENDTAB
  0
TABLE
  2
LTYPE
 70
     2
  0
LTYPE
  2
CONTINUOUS
 70
     0
  3
Solid line
 72
    65
 73
     0
 40
0.0
  0
LTYPE
  2
PHANTOM2
 70
     0
  3
___ _ _ ___ _ _ ___ _ _ ___ _ _
 72
    65
 73
     6
 40
1.25
 49
0.625
 49
-0.125
 49
0.125
 49
-0.125
 49
0.125
 49
-0.125
  0
ENDTAB
  0
TABLE
  2
LAYER
 70
     2
  0
LAYER
  2
0
 70
     0
 62
   255
  6
CONTINUOUS
  0
LAYER
  2
DEFPOINTS
 70
     0
 62
     7
  6
CONTINUOUS
  0
ENDTAB
  0
TABLE
  2
STYLE
 70
     1
  0
STYLE
  2
STANDARD
 70
     0
 40
0.0
 41
0.8
 50
0.0
 71
     0
 42
0.2
  3
txt
  4

  0
ENDTAB
  0
TABLE
  2
VIEW
 70
     0
  0
ENDTAB
  0
TABLE
  2
UCS
 70
     0
  0
ENDTAB
  0
TABLE
  2
APPID
 70
    11
  0
APPID
  2
ACAD
 70
     0
  0
APPID
  2
ACAD_MLEADERVER
 70
     0
  0
APPID
  2
ACAD_EXEMPT_FROM_CAD_STANDARDS
 70
     0
  0
APPID
  2
ACAD_NAV_VCDISPLAY
 70
     0
  0
APPID
  2
ACAECLAYERSTANDARD
 70
     0
  0
APPID
  2
ACCMTRANSPARENCY
 70
     0
  0
APPID
  2
ACAD_DSTYLE_DIMJAG
 70
     0
  0
APPID
  2
ACAD_DSTYLE_DIMTALN
 70
     0
  0
APPID
  2
ACDBATTR
 70
     0
  0
APPID
  2
ACADANNOTATIVE
 70
     0
  0
APPID
  2
DCO15
 70
     0
  0
ENDTAB
  0
TABLE
  2
DIMSTYLE
 70
     1
  0
DIMSTYLE
  2
STANDARD
 70
     0
  3

  4

  5

  6

  7

 40
1.0
 41
0.1875
 42
0.0625
 43
0.38
 44
0.125
 45
0.0
 46
0.0
 47
0.01
 48
0.01
140
0.15625
141
0.09
142
0.0
143
25.3999999999999986
144
1.0
145
0.0
146
1.0
147
0.09
 71
     1
 72
     0
 73
     1
 74
     1
 75
     0
 76
     0
 77
     0
 78
     4
170
     0
171
     2
172
     0
173
     0
174
     0
175
     0
176
     0
177
     0
178
     0
  0
ENDTAB
  0
ENDSEC
  0
SECTION
  2
BLOCKS
  0
BLOCK
  8
0
  2
$MODEL_SPACE
 70
     0
 10
0.0
 20
0.0
 30
0.0
  3
$MODEL_SPACE
  1

  0
ENDBLK
  5
21
  8
0
  0
BLOCK
 67
     1
  8
0
  2
$PAPER_SPACE
 70
     0
 10
0.0
 20
0.0
 30
0.0
  3
$PAPER_SPACE
  1

  0
ENDBLK
  5
1D
 67
     1
  8
0
  0
ENDSEC
  0
SECTION
  2
ENTITIES
  0
ATTDEF
  5
20106
  8
DEFPOINTS
 10
4583.6082490489279735
 20
310.4040721208273226
 30
0.0
 40
0.001
  1
K-77838T-8
  3

  2
MODELNUMBER
 70
     0
1001
ACDBATTR
1070
     0
1070
     1
  0
ATTDEF
  5
20107
  8
DEFPOINTS
 10
4583.6081232392707534
 20
310.4024052804481926
 30
0.0
 40
0.001
  1
MODERNLIFE
  3

  2
TRADENAME
 70
     0
1001
ACDBATTR
1070
     0
1070
     1
  0
ATTDEF
  5
20108
  8
DEFPOINTS
 10
4583.6082490489279735
 20
310.4007387874938786
 30
0.0
 40
0.001
  1
BATHROOM SINK
  3

  2
PRODUCT
 70
     0
1001
ACDBATTR
1070
     0
1070
     1
  0
LINE
  5
20FF9
  8
0
 10
4574.392484137860265
 20
312.5221842991584253
 30
0.0
 11
4592.7338188754438306
 21
312.5221842991584253
 31
0.0
  0
LINE
  5
20FFA
  8
0
 10
4583.9372004074602955
 20
305.3884310061583847
 30
0.0
 11
4586.5523271071324416
 21
305.3884310061583847
 31
0.0
  0
ARC
  5
20FFB
  8
0
 10
4583.9372004074602955
 20
305.4984310061583983
 30
0.0
 40
0.11
 50
185.4999999989225898
 51
270.0
  0
LINE
  5
20FFC
  8
0
 10
4592.8038188754453586
 20
307.4431902508583789
 30
0.0
 11
4592.8038188754453586
 21
312.4521842991583753
 31
0.0
  0
LINE
  5
20FFD
  8
0
 10
4577.0472183436431806
 20
307.404190250858278
 30
0.0
 11
4592.7648188754437797
 21
307.404190250858278
 31
0.0
  0
LINE
  5
20FFE
  8
0
 10
4574.1354795560528146
 20
312.2228314729583758
 30
0.0
 11
4574.4511522163220434
 21
310.4321423977203267
 31
0.0
  0
ARC
  5
20FFF
  8
0
 10
4574.392484137860265
 20
312.2621842991583776
 30
0.0
 40
0.2600000000000087
 50
90.0
 51
188.7055762623498936
  0
LINE
  5
21000
  8
0
 10
4574.4895597435861418
 20
310.3999145354583789
 30
0.0
 11
4592.7338188754438306
 21
310.3999145354583789
 31
0.0
  0
LINE
  5
21001
  8
0
 10
4576.8573942544244346
 20
307.5838840022856857
 30
0.0
 11
4576.6110235066307723
 21
310.3999145354583789
 31
0.0
  0
ARC
  5
21002
  8
0
 10
4577.0536869043617116
 20
307.6011331213854874
 30
0.0
 40
0.1970490713736709
 50
185.0219383228640879
 51
268.1188045022597066
  0
ARC
  5
21003
  8
0
 10
4592.7648188754437797
 20
307.4431902508583789
 30
0.0
 40
0.039
 50
270.0
 51
0.0000000000097707
  0
ARC
  5
21004
  8
0
 10
4592.7338188754438306
 20
312.4521842991583753
 30
0.0
 40
0.07
 50
0.0
 51
90.0
  0
ARC
  5
21005
  8
0
 10
4574.4895597435861418
 20
310.438914535458423
 30
0.0
 40
0.039
 50
189.9997893734166041
 51
270.0
  0
LINE
  5
21006
  8
0
 10
4576.650221949452316
 20
309.9518742838291132
 30
0.0
 11
4576.3057116637446597
 21
310.3998833208584074
 31
0.0
  0
LINE
  5
21007
  8
0
 10
4583.8277068256384155
 20
305.4878879733831809
 30
0.0
 11
4583.7044132003447885
 21
306.7683412297582777
 31
0.0
  0
LINE
  5
21008
  8
0
 10
4586.7851143142452202
 20
306.7683412297582777
 30
0.0
 11
4586.6618206889515932
 21
305.4878879733832946
 31
0.0
  0
ARC
  5
21009
  8
0
 10
4586.5523271071324416
 20
305.4984310061583983
 30
0.0
 40
0.11
 50
270.0
 51
354.5000000011324914
  0
ARC
  5
2100A
  8
0
 10
4592.7338188754438306
 20
310.469914535458372
 30
0.0
 40
0.07
 50
270.0
 51
0.0
  0
ARC
  5
2100B
  8
0
 10
4585.3005976801550787
 20
326.9556869770128174
 30
0.0
 40
20.1588177229117989
 50
255.9002748207707043
 51
264.9984792464931047
  0
ARC
  5
2100C
  8
0
 10
4583.5234433208879636
 20
306.6777385721214273
 30
0.0
 40
0.1968722724591285
 50
49.648937076543632
 51
84.2674461433159934
  0
LINE
  5
2100D
  8
0
 10
4583.7044132003447885
 20
306.7683412297582777
 30
0.0
 11
4586.7851143142452202
 21
306.7683412297582777
 31
0.0
  0
LINE
  5
2100E
  8
0
 10
4583.7192854909453672
 20
306.7683412297582777
 30
0.0
 11
4583.6509120585360506
 21
306.8277732767235761
 31
0.0
  0
ARC
  5
2100F
  8
0
 10
4586.6619452135273605
 20
308.0634307063183996
 30
0.0
 40
1.210110359376257
 50
283.196012173593374
 51
326.9905648179903892
  0
ARC
  5
21010
  8
0
 10
4586.9815667576049236
 20
306.7002905495505161
 30
0.0
 40
0.19
 50
103.1960121735934024
 51
130.9999999712422891
  0
LINE
  5
21011
  8
0
 10
4586.7702420236446414
 20
306.7683412297582777
 30
0.0
 11
4586.8569155421700998
 21
306.8436853698553932
 31
0.0
  0
LINE
  5
21012
  8
0
 10
4574.392484137860265
 20
312.5221842991584253
 30
0.0
 11
4592.7338188754438306
 21
312.5221842991584253
 31
0.0
  0
LINE
  5
21013
  8
0
 10
4592.8038188754453586
 20
312.2228314729583758
 30
0.0
 11
4574.1354075070530598
 21
312.2228314729583758
 31
0.0
  0
ENDSEC
  0
EOF
