  0
SECTION
  2
HEADER
  9
$ACADVER
  1
AC1009
  9
$INSBASE
 10
3333.7002390513757746
 20
196.2152059814266067
 30
0.0
  9
$EXTMIN
 10
3321.3378544430729562
 20
192.3597492308228993
 30
0.0
  9
$EXTMAX
 10
3340.806079685520217
 20
204.4404427601643022
 30
0.0
  9
$LIMMIN
 10
0.0
 20
0.0
  9
$LIMMAX
 10
11.6929133858000007
 20
8.2677165353999982
  9
$ORTHOMODE
 70
     0
  9
$REGENMODE
 70
     1
  9
$FILLMODE
 70
     1
  9
$QTEXTMODE
 70
     0
  9
$MIRRTEXT
 70
     0
  9
$DRAGMODE
 70
     2
  9
$LTSCALE
 40
0.6431102362
  9
$OSMODE
 70
  4095
  9
$ATTMODE
 70
     1
  9
$TEXTSIZE
 40
0.2
  9
$TRACEWID
 40
0.05
  9
$TEXTSTYLE
  7
STANDARD
  9
$CLAYER
  8
0
  9
$CELTYPE
  6
BYLAYER
  9
$CECOLOR
 62
   256
  9
$DIMSCALE
 40
1.0
  9
$DIMASZ
 40
0.1875
  9
$DIMEXO
 40
0.0625
  9
$DIMDLI
 40
0.4443307087
  9
$DIMRND
 40
0.0
  9
$DIMDLE
 40
0.0
  9
$DIMEXE
 40
0.125
  9
$DIMTP
 40
0.01
  9
$DIMTM
 40
0.01
  9
$DIMTXT
 40
2.0
  9
$DIMCEN
 40
0.1052362205
  9
$DIMTSZ
 40
0.0
  9
$DIMTOL
 70
     1
  9
$DIMLIM
 70
     0
  9
$DIMTIH
 70
     1
  9
$DIMTOH
 70
     1
  9
$DIMSE1
 70
     0
  9
$DIMSE2
 70
     0
  9
$DIMTAD
 70
     0
  9
$DIMZIN
 70
     0
  9
$DIMBLK
  1

  9
$DIMASO
 70
     1
  9
$DIMSHO
 70
     1
  9
$DIMPOST
  1
\X
  9
$DIMAPOST
  1

  9
$DIMALT
 70
     1
  9
$DIMALTD
 70
     2
  9
$DIMALTF
 40
25.3999999999999986
  9
$DIMLFAC
 40
1.0
  9
$DIMTOFL
 70
     0
  9
$DIMTVP
 40
0.0
  9
$DIMTIX
 70
     0
  9
$DIMSOXD
 70
     0
  9
$DIMSAH
 70
     0
  9
$DIMBLK1
  1

  9
$DIMBLK2
  1

  9
$DIMSTYLE
  2
STANDARD
  9
$DIMCLRD
 70
     0
  9
$DIMCLRE
 70
     0
  9
$DIMCLRT
 70
     0
  9
$DIMTFAC
 40
1.0
  9
$DIMGAP
 40
0.09
  9
$LUNITS
 70
     2
  9
$LUPREC
 70
     4
  9
$SKETCHINC
 40
0.1
  9
$FILLETRAD
 40
0.0
  9
$AUNITS
 70
     0
  9
$AUPREC
 70
     0
  9
$MENU
  1
.
  9
$ELEVATION
 40
0.0
  9
$PELEVATION
 40
0.0
  9
$THICKNESS
 40
0.0
  9
$LIMCHECK
 70
     0
  9
$BLIPMODE
 70
     0
  9
$CHAMFERA
 40
0.0
  9
$CHAMFERB
 40
0.0
  9
$SKPOLY
 70
     0
  9
$TDCREATE
 40
2458060.468368056230247
  9
$TDUPDATE
 40
2459425.6509722229093313
  9
$TDINDWG
 40
0.4225880787
  9
$TDUSRTIMER
 40
0.4225880787
  9
$USRTIMER
 70
     1
  9
$ANGBASE
 50
0.0
  9
$ANGDIR
 70
     0
  9
$PDMODE
 70
     0
  9
$PDSIZE
 40
0.3125
  9
$PLINEWID
 40
0.0
  9
$COORDS
 70
     1
  9
$SPLFRAME
 70
     0
  9
$SPLINETYPE
 70
     6
  9
$SPLINESEGS
 70
     8
  9
$ATTDIA
 70
     1
  9
$ATTREQ
 70
     1
  9
$HANDLING
 70
     1
  9
$HANDSEED
  5
86BB
  9
$SURFTAB1
 70
     6
  9
$SURFTAB2
 70
     6
  9
$SURFTYPE
 70
     6
  9
$SURFU
 70
     6
  9
$SURFV
 70
     6
  9
$UCSNAME
  2

  9
$UCSORG
 10
0.0
 20
0.0
 30
0.0
  9
$UCSXDIR
 10
1.0
 20
0.0
 30
0.0
  9
$UCSYDIR
 10
0.0
 20
1.0
 30
0.0
  9
$PUCSNAME
  2

  9
$PUCSORG
 10
0.0
 20
0.0
 30
0.0
  9
$PUCSXDIR
 10
1.0
 20
0.0
 30
0.0
  9
$PUCSYDIR
 10
0.0
 20
1.0
 30
0.0
  9
$USERI1
 70
     0
  9
$USERI2
 70
     0
  9
$USERI3
 70
     0
  9
$USERI4
 70
     0
  9
$USERI5
 70
     0
  9
$USERR1
 40
0.0
  9
$USERR2
 40
0.0
  9
$USERR3
 40
0.0
  9
$USERR4
 40
0.0
  9
$USERR5
 40
0.0
  9
$WORLDVIEW
 70
     1
  9
$SHADEDGE
 70
     3
  9
$SHADEDIF
 70
    70
  9
$TILEMODE
 70
     1
  9
$MAXACTVP
 70
    64
  9
$PLIMCHECK
 70
     0
  9
$PEXTMIN
 10
1.0000000000000000E+20
 20
1.0000000000000000E+20
 30
1.0000000000000000E+20
  9
$PEXTMAX
 10
-1.0000000000000000E+20
 20
-1.0000000000000000E+20
 30
-1.0000000000000000E+20
  9
$PLIMMIN
 10
0.0
 20
0.0
  9
$PLIMMAX
 10
12.0
 20
9.0
  9
$UNITMODE
 70
     0
  9
$VISRETAIN
 70
     1
  9
$PLINEGEN
 70
     0
  9
$PSLTSCALE
 70
     1
  0
ENDSEC
  0
SECTION
  2
TABLES
  0
TABLE
  2
VPORT
 70
     1
  0
VPORT
  2
*ACTIVE
 70
     0
 10
0.0
 20
0.0
 11
1.0
 21
1.0
 12
258.948527931612773
 22
-7.0015923713815758
 13
0.0
 23
0.0
 14
1.0
 24
1.0
 15
0.0
 25
0.0
 16
0.0
 26
0.0
 36
95.5902297660485658
 17
3089.811279296875
 27
197.161570589386713
 37
0.0
 40
43.0192272014490271
 41
2.0416666666666661
 42
50.0
 43
0.0
 44
0.0
 50
0.0
 51
0.0
 71
     0
 72
   100
 73
     1
 74
     1
 75
     0
 76
     0
 77
     0
 78
     0
  0
ENDTAB
  0
TABLE
  2
LTYPE
 70
     2
  0
LTYPE
  2
CONTINUOUS
 70
     0
  3
Solid line
 72
    65
 73
     0
 40
0.0
  0
LTYPE
  2
PHANTOM2
 70
     0
  3
___ _ _ ___ _ _ ___ _ _ ___ _ _
 72
    65
 73
     6
 40
1.25
 49
0.625
 49
-0.125
 49
0.125
 49
-0.125
 49
0.125
 49
-0.125
  0
ENDTAB
  0
TABLE
  2
LAYER
 70
     2
  0
LAYER
  2
0
 70
     0
 62
   255
  6
CONTINUOUS
  0
LAYER
  2
DEFPOINTS
 70
     0
 62
     7
  6
CONTINUOUS
  0
ENDTAB
  0
TABLE
  2
STYLE
 70
     1
  0
STYLE
  2
STANDARD
 70
     0
 40
0.0
 41
0.8
 50
0.0
 71
     0
 42
0.2
  3
txt
  4

  0
ENDTAB
  0
TABLE
  2
VIEW
 70
     0
  0
ENDTAB
  0
TABLE
  2
UCS
 70
     0
  0
ENDTAB
  0
TABLE
  2
APPID
 70
     9
  0
APPID
  2
ACAD
 70
     0
  0
APPID
  2
ACAD_MLEADERVER
 70
     0
  0
APPID
  2
ACAD_EXEMPT_FROM_CAD_STANDARDS
 70
     0
  0
APPID
  2
ACAD_NAV_VCDISPLAY
 70
     0
  0
APPID
  2
ACAECLAYERSTANDARD
 70
     0
  0
APPID
  2
ACCMTRANSPARENCY
 70
     0
  0
APPID
  2
ACAD_DSTYLE_DIMJAG
 70
     0
  0
APPID
  2
ACAD_DSTYLE_DIMTALN
 70
     0
  0
APPID
  2
ACDBATTR
 70
     0
  0
ENDTAB
  0
TABLE
  2
DIMSTYLE
 70
     1
  0
DIMSTYLE
  2
STANDARD
 70
     0
  3

  4

  5

  6

  7

 40
1.0
 41
0.1875
 42
0.0625
 43
0.38
 44
0.125
 45
0.0
 46
0.0
 47
0.01
 48
0.01
140
0.15625
141
0.09
142
0.0
143
25.3999999999999986
144
1.0
145
0.0
146
1.0
147
0.09
 71
     1
 72
     0
 73
     1
 74
     1
 75
     0
 76
     0
 77
     0
 78
     4
170
     0
171
     2
172
     0
173
     0
174
     0
175
     0
176
     0
177
     0
178
     0
  0
ENDTAB
  0
ENDSEC
  0
SECTION
  2
BLOCKS
  0
BLOCK
  8
0
  2
$MODEL_SPACE
 70
     0
 10
0.0
 20
0.0
 30
0.0
  3
$MODEL_SPACE
  1

  0
ENDBLK
  5
21
  8
0
  0
BLOCK
 67
     1
  8
0
  2
$PAPER_SPACE
 70
     0
 10
0.0
 20
0.0
 30
0.0
  3
$PAPER_SPACE
  1

  0
ENDBLK
  5
1D
 67
     1
  8
0
  0
BLOCK
  8
0
  2
_FILLED
 70
     0
 10
0.0
 20
0.0
 30
0.0
  3
_FILLED
  1

  0
SOLID
  5
7FAE
  8
0
  6
BYBLOCK
 62
     0
 10
0.0
 20
0.0
 30
0.0
 11
-1.0
 21
0.1666666667
 31
0.0
 12
-1.0
 22
-0.1666666667
 32
0.0
 13
-1.0
 23
-0.1666666667
 33
0.0
  0
ENDBLK
  5
7FAF
  8
0
  6
BYBLOCK
 62
     0
  0
ENDSEC
  0
SECTION
  2
ENTITIES
  0
ATTDEF
  5
3930
  8
DEFPOINTS
 10
3333.701822432508834
 20
196.2187054621680034
 30
0.0
 40
0.001
  1
K-77921A
  3

  2
MODELNUMBER
 70
     0
1001
ACDBATTR
1070
     0
1070
     1
  0
ATTDEF
  5
3931
  8
DEFPOINTS
 10
3333.701822432508834
 20
196.2170387955013098
 30
0.0
 40
0.001
  1
AVID
  3

  2
TRADENAME
 70
     0
1001
ACDBATTR
1070
     0
1070
     1
  0
ATTDEF
  5
3932
  8
DEFPOINTS
 10
3333.701822432508834
 20
196.2153721288347015
 30
0.0
 40
0.001
  1
VALVE TRIM
  3

  2
PRODUCT
 70
     0
1001
ACDBATTR
1070
     0
1070
     1
  0
ARC
  5
85EA
  8
0
 10
3333.6575379987561973
 20
193.4896862365953893
 30
0.0
 40
0.8925826298824834
 50
192.5198242258589119
 51
216.534887170626007
  0
ARC
  5
85EB
  8
0
 10
3329.0479359059750095
 20
190.261947422211108
 30
0.0
 40
4.7351176408545408
 50
33.1059702986072466
 51
34.711304414209927
  0
ARC
  5
85EC
  8
0
 10
3351.6471968267751436
 20
203.2903241489213997
 30
0.0
 40
21.3593089301462484
 50
209.2668936126773076
 51
209.9047333221325005
  0
ARC
  5
85ED
  8
0
 10
2379.8466190699300569
 20
-387.4039842567303253
 30
0.0
 40
1115.8876543298870274
 50
31.3176572324593216
 51
31.3192589210199799
  0
ARC
  5
85EE
  8
0
 10
3333.179026592369155
 20
192.634309185235594
 30
0.0
 40
0.0366754371807965
 50
212.1518192265093887
 51
238.0801995480287019
  0
ARC
  5
85EF
  8
0
 10
3333.20850367266803
 20
192.6989811043503948
 30
0.0
 40
0.1075457420464635
 50
242.9738070485171022
 51
266.2325759990990264
  0
ARC
  5
85F0
  8
0
 10
3333.3330383996690216
 20
193.8329906461351015
 30
0.0
 40
1.248279358185272
 50
263.9482850362322779
 51
270.2967088216367983
  0
ARC
  5
85F1
  8
0
 10
3332.9704314717428133
 20
193.1401839883025957
 30
0.0
 40
0.269452660146926
 50
107.4422131148697019
 51
127.8490243026832047
  0
ARC
  5
85F2
  8
0
 10
3333.6976464717267845
 20
188.6984075746169083
 30
0.0
 40
4.7882372754523308
 50
89.9648005465071918
 51
94.2584675174059612
  0
ARC
  5
85F3
  8
0
 10
3333.5013548170300055
 20
191.0476538631837968
 30
0.0
 40
2.4309942810556149
 50
93.7563402437137938
 51
103.3186307571705953
  0
ARC
  5
85F4
  8
0
 10
3333.1523403862770465
 20
192.6412043287533038
 30
0.0
 40
0.8003744433826258
 50
105.2856892711905061
 51
109.1590115953035962
  0
ARC
  5
85F5
  8
0
 10
3332.8526764604562231
 20
193.2991575270131079
 30
0.0
 40
0.0718148262188735
 50
131.4899804487135953
 51
160.7161833744804085
  0
ARC
  5
85F6
  8
0
 10
3332.8675198666019242
 20
193.3157503383056905
 30
0.0
 40
0.0836576287157424
 50
183.0821438670942882
 51
193.5185642012135929
  0
LINE
  5
85F7
  8
0
 10
3332.7848908575761016
 20
193.3228742153766007
 30
0.0
 11
3332.7839832507029314
 21
193.3112522668739928
 31
0.0
  0
ARC
  5
85F8
  8
0
 10
3330.2412300932760445
 20
195.703394957826589
 30
0.0
 40
0.0393700786999996
 50
184.9999999253026886
 51
270.0
  0
LINE
  5
85F9
  8
0
 10
3330.2020098296070501
 20
195.6999636294266054
 30
0.0
 11
3330.1569319647760494
 21
196.2152059814266067
 31
0.0
  0
ARC
  5
85FA
  8
0
 10
3332.3979597165598534
 20
194.0404321387505036
 30
0.0
 40
2.267684088090832
 50
348.5510255434526812
 51
359.5005122638390276
  0
ARC
  5
85FB
  8
0
 10
3333.7436382165960822
 20
193.4896862365953893
 30
0.0
 40
0.8925826298824834
 50
323.465112829373993
 51
347.4801757741411166
  0
ARC
  5
85FC
  8
0
 10
3338.3532403093759058
 20
190.261947422211108
 30
0.0
 40
4.7351176408545408
 50
145.2886955857900944
 51
146.8940297013926966
  0
ARC
  5
85FD
  8
0
 10
3315.753979388577136
 20
203.2903241489213997
 30
0.0
 40
21.3593089301462484
 50
330.0952666778674143
 51
330.7331063873227208
  0
ARC
  5
85FE
  8
0
 10
4287.5545571454213132
 20
-387.4039842567303253
 30
0.0
 40
1115.8876543298870274
 50
148.6807410789799917
 51
148.682342767540689
  0
ARC
  5
85FF
  8
0
 10
3334.2221496229831246
 20
192.634309185235594
 30
0.0
 40
0.0366754371807965
 50
301.9198004519714118
 51
327.8481807734905829
  0
ARC
  5
8600
  8
0
 10
3334.1926725426828853
 20
192.6989811043503948
 30
0.0
 40
0.1075457420464635
 50
273.7674240009009736
 51
297.0261929514828125
  0
ARC
  5
8601
  8
0
 10
3334.06804365434391
 20
193.834196592678893
 30
0.0
 40
1.2494885116709871
 50
269.6908086110989871
 51
276.0501787341319755
  0
ARC
  5
8602
  8
0
 10
3334.4307447435799077
 20
193.1401839882599063
 30
0.0
 40
0.2694526601973986
 50
52.1509756982751611
 51
72.5577868822640255
  0
ARC
  5
8603
  8
0
 10
3333.7035297436250403
 20
188.6984075746171072
 30
0.0
 40
4.7882372754521301
 50
85.7415324825940388
 51
90.035199453492794
  0
ARC
  5
8604
  8
0
 10
3333.8998213983209098
 20
191.0476538631837968
 30
0.0
 40
2.4309942810556149
 50
76.6813692428293336
 51
86.2436597562862204
  0
ARC
  5
8605
  8
0
 10
3334.2488358290738688
 20
192.6412043287533038
 30
0.0
 40
0.8003744433826258
 50
70.8409884046963896
 51
74.7143107288094086
  0
ARC
  5
8606
  8
0
 10
3334.5484997548951469
 20
193.2991575270131079
 30
0.0
 40
0.0718148262188735
 50
19.2838166255195382
 51
48.5100195512863195
  0
ARC
  5
8607
  8
0
 10
3334.5606376463010747
 20
193.3114483831151915
 30
0.0
 40
0.0564582241164515
 50
344.3250186112392157
 51
359.9456839560896242
  0
LINE
  5
8608
  8
0
 10
3334.616285357776178
 20
193.3228742153766007
 30
0.0
 11
3334.6170958450479702
 21
193.3113948610767068
 31
0.0
  0
ARC
  5
8609
  8
0
 10
3334.1298004827399382
 20
193.552743434585409
 30
0.0
 40
0.4085443855489196
 50
337.8078278005714878
 51
4.0161147617624682
  0
ARC
  5
860A
  8
0
 10
3333.7292476469178837
 20
189.90907358775641
 30
0.0
 40
3.791592559311872
 50
81.4426644945010167
 51
90.4410419547853337
  0
ARC
  5
860B
  8
0
 10
3334.0692986459471285
 20
192.2985609248389949
 30
0.0
 40
1.3782420043590671
 50
75.6479726429221841
 51
80.6408023789116299
  0
ARC
  5
860C
  8
0
 10
3334.3307098778727777
 20
193.2617919991178042
 30
0.0
 40
0.3805499550630488
 50
57.1131337015297831
 51
77.8298613302507647
  0
ARC
  5
860D
  8
0
 10
3334.5031410964420502
 20
193.5362371736995897
 30
0.0
 40
0.0566166650871427
 50
25.478113315459801
 51
52.83790089340566
  0
ARC
  5
860E
  8
0
 10
3334.5038972805718913
 20
193.5618508908029867
 30
0.0
 40
0.0553814823319727
 50
306.4557980386771874
 51
337.2633246723896718
  0
ARC
  5
860F
  8
0
 10
3334.5289381856068758
 20
193.5495970574694127
 30
0.0
 40
0.0275982068548446
 50
340.635513667733278
 51
23.4772217100861909
  0
ARC
  5
8610
  8
0
 10
3334.5224398848267811
 20
193.5257038734536934
 30
0.0
 40
0.1271712206555925
 50
46.2846074735745105
 51
65.1053959985378725
  0
ARC
  5
8611
  8
0
 10
3334.3461485881211956
 20
193.1373988090772116
 30
0.0
 40
0.553617648176196
 50
65.472408130903645
 51
77.0835766930806159
  0
ARC
  5
8612
  8
0
 10
3333.9439213435312013
 20
191.3271929552053052
 30
0.0
 40
2.4079627016756411
 50
77.3830216594411553
 51
85.8466559853815312
  0
ARC
  5
8613
  8
0
 10
3333.7061448829940673
 20
188.6342684702939891
 30
0.0
 40
5.1112097021863097
 50
85.374558841959967
 51
90.0682356112695999
  0
ARC
  5
8614
  8
0
 10
3334.527034788425226
 20
193.6100208933540898
 30
0.0
 40
0.0955421409785811
 50
318.3880641953188047
 51
348.092704405052018
  0
ARC
  5
8615
  8
0
 10
3334.4772214021108994
 20
193.6529839920241898
 30
0.0
 40
0.1613194722125586
 50
300.0716185987835729
 51
318.7284578966825848
  0
ARC
  5
8616
  8
0
 10
3334.4011915513669919
 20
193.7770946258090987
 30
0.0
 40
0.3068431775938865
 50
295.8652214649688972
 51
300.7450808888335132
  0
ARC
  5
8617
  8
0
 10
3337.1598408300419578
 20
195.7033989880249862
 30
0.0
 40
0.0393785714286765
 50
269.1374141231505064
 51
354.9951948130939741
  0
LINE
  5
8618
  8
0
 10
3337.1990692661438516
 20
195.6999636294266054
 30
0.0
 11
3337.2435461379759545
 21
196.2152059814266067
 31
0.0
  0
LINE
  5
8619
  8
0
 10
3333.3395026426760523
 20
192.5847280256766112
 30
0.0
 11
3334.0613009375761067
 21
192.5847262742765906
 31
0.0
  0
LINE
  5
861A
  8
0
 10
3330.1569319647760494
 20
196.2152059814266067
 30
0.0
 11
3337.2435461379759545
 21
196.2152059814266067
 31
0.0
  0
LINE
  5
861B
  8
0
 10
3330.2412300932760445
 20
195.6640248791266004
 30
0.0
 11
3337.1592480094759594
 21
195.6640248791266004
 31
0.0
  0
LINE
  5
861C
  8
0
 10
3332.7355214607259768
 20
195.6640248791266004
 30
0.0
 11
3332.7355214607259768
 21
194.3770406270267017
 31
0.0
  0
ARC
  5
861D
  8
0
 10
3332.74845728843502
 20
194.3773823242455876
 30
0.0
 40
0.0129403398522111
 50
181.5131043363732033
 51
221.6398594452219015
  0
ARC
  5
861E
  8
0
 10
3332.7440929579379372
 20
194.3620169996329139
 30
0.0
 40
0.0085995893952225
 50
94.9771405981501431
 51
175.3675599193589107
  0
LINE
  5
861F
  8
0
 10
3334.6655576350249248
 20
195.6640248791266004
 30
0.0
 11
3334.6655576350249248
 21
194.377040627026588
 31
0.0
  0
ARC
  5
8620
  8
0
 10
3334.645382551106195
 20
194.3818925527517933
 30
0.0
 40
0.0207503058869881
 50
321.1070189835123188
 51
346.4776706453831139
  0
ARC
  5
8621
  8
0
 10
3334.6559396404009021
 20
194.3608126727401952
 30
0.0
 40
0.0098035946056963
 50
11.1666133403415895
 51
85.3618676527263744
  0
LINE
  5
8622
  8
0
 10
3332.7433468723379519
 20
194.3705841633432101
 30
0.0
 11
3334.6567323815870623
 21
194.3705841633432101
 31
0.0
  0
LINE
  5
8623
  8
0
 10
3334.6655576350249248
 20
194.3627112634266041
 30
0.0
 11
3334.6655576350249248
 21
194.0206633869474047
 31
0.0
  0
ARC
  5
8624
  8
0
 10
3334.5892343388341033
 20
193.5941879016218081
 30
0.0
 40
0.0315264653755065
 50
352.9304301892938724
 51
48.0115434756237605
  0
ARC
  5
8625
  8
0
 10
3334.8843712819621032
 20
194.0224110747176951
 30
0.0
 40
2.1488505319447722
 50
180.0465993993985876
 51
191.6004593788447039
  0
ARC
  5
8626
  8
0
 10
3333.2606365590618225
 20
193.5523227694185948
 30
0.0
 40
0.3991006147208946
 50
175.8281420983730072
 51
202.7133307823710027
  0
ARC
  5
8627
  8
0
 10
3333.6707133330678516
 20
189.9088392123937865
 30
0.0
 40
3.7918281804781482
 50
89.5565328991983733
 51
98.5571956456396236
  0
ARC
  5
8628
  8
0
 10
3333.3306364267041317
 20
192.2985609248389949
 30
0.0
 40
1.3782420043590671
 50
99.3591976210883843
 51
104.3520273570778016
  0
ARC
  5
8629
  8
0
 10
3333.0692251947789373
 20
193.2617919991178042
 30
0.0
 40
0.3805499550630488
 50
102.1701386697492069
 51
122.8868662984701956
  0
ARC
  5
862A
  8
0
 10
3332.8967939762092101
 20
193.5362371736995897
 30
0.0
 40
0.0566166650871427
 50
127.1620991065942974
 51
154.5218866845401919
  0
ARC
  5
862B
  8
0
 10
3332.8960377920789142
 20
193.5618508908029867
 30
0.0
 40
0.0553814823319727
 50
202.7366753276102997
 51
233.5442019613228126
  0
ARC
  5
862C
  8
0
 10
3332.8709968870439297
 20
193.5495970574694127
 30
0.0
 40
0.0275982068548446
 50
156.5227782899137878
 51
199.3644863322666083
  0
ARC
  5
862D
  8
0
 10
3332.877495187824934
 20
193.5257038734536934
 30
0.0
 40
0.1271712206555925
 50
114.8946040014620991
 51
133.7153925264254895
  0
ARC
  5
862E
  8
0
 10
3333.0537864845300646
 20
193.1373988090772116
 30
0.0
 40
0.553617648176196
 50
102.9164233069193983
 51
114.5275918690963977
  0
ARC
  5
862F
  8
0
 10
3333.4560137291209685
 20
191.3271929552053052
 30
0.0
 40
2.4079627016756411
 50
94.153344014618483
 51
102.6169783405588021
  0
ARC
  5
8630
  8
0
 10
3332.8729002842269438
 20
193.6100208933540898
 30
0.0
 40
0.0955421409785811
 50
191.9072955949478967
 51
221.6119358046811953
  0
ARC
  5
8631
  8
0
 10
3332.9227136705408157
 20
193.6529839920241898
 30
0.0
 40
0.1613194722125586
 50
221.2715421033173016
 51
239.9283814012163987
  0
ARC
  5
8632
  8
0
 10
3332.9987435212838136
 20
193.7770946258090987
 30
0.0
 40
0.3068431775938865
 50
239.2549191111664868
 51
244.1347785350309891
  0
LINE
  5
8633
  8
0
 10
3332.7355214607259768
 20
194.3627115306267115
 30
0.0
 11
3332.7355214607259768
 21
194.0206633869474047
 31
0.0
  0
ARC
  5
8634
  8
0
 10
3332.8107007338180665
 20
193.5941879016218081
 30
0.0
 40
0.0315264653755065
 50
131.988456524376204
 51
187.0695698107060991
  0
ARC
  5
8635
  8
0
 10
3333.693798141086063
 20
188.6341355273933971
 30
0.0
 40
5.1113428533303624
 50
89.9298325574855255
 51
94.6254098253055531
  0
ENDSEC
  0
EOF
