  0
SECTION
  2
HEADER
  9
$ACADVER
  1
AC1009
  9
$INSBASE
 10
3341.5164798011610401
 20
191.3485393696126948
 30
0.0
  9
$EXTMIN
 10
3338.0322278326611922
 20
187.0511232498126901
 30
0.0
  9
$EXTMAX
 10
3345.0007317696608879
 20
191.3531558213018968
 30
0.0
  9
$LIMMIN
 10
0.0
 20
0.0
  9
$LIMMAX
 10
11.6929133858000007
 20
8.2677165353999982
  9
$ORTHOMODE
 70
     0
  9
$REGENMODE
 70
     1
  9
$FILLMODE
 70
     1
  9
$QTEXTMODE
 70
     0
  9
$MIRRTEXT
 70
     0
  9
$DRAGMODE
 70
     2
  9
$LTSCALE
 40
0.6431102362
  9
$OSMODE
 70
  4095
  9
$ATTMODE
 70
     1
  9
$TEXTSIZE
 40
0.2
  9
$TRACEWID
 40
0.05
  9
$TEXTSTYLE
  7
STANDARD
  9
$CLAYER
  8
0
  9
$CELTYPE
  6
BYLAYER
  9
$CECOLOR
 62
   256
  9
$DIMSCALE
 40
1.0
  9
$DIMASZ
 40
0.1875
  9
$DIMEXO
 40
0.0625
  9
$DIMDLI
 40
0.4443307087
  9
$DIMRND
 40
0.0
  9
$DIMDLE
 40
0.0
  9
$DIMEXE
 40
0.125
  9
$DIMTP
 40
0.01
  9
$DIMTM
 40
0.01
  9
$DIMTXT
 40
2.0
  9
$DIMCEN
 40
0.1052362205
  9
$DIMTSZ
 40
0.0
  9
$DIMTOL
 70
     1
  9
$DIMLIM
 70
     0
  9
$DIMTIH
 70
     1
  9
$DIMTOH
 70
     1
  9
$DIMSE1
 70
     0
  9
$DIMSE2
 70
     0
  9
$DIMTAD
 70
     0
  9
$DIMZIN
 70
     0
  9
$DIMBLK
  1

  9
$DIMASO
 70
     1
  9
$DIMSHO
 70
     1
  9
$DIMPOST
  1
\X
  9
$DIMAPOST
  1

  9
$DIMALT
 70
     1
  9
$DIMALTD
 70
     2
  9
$DIMALTF
 40
25.3999999999999986
  9
$DIMLFAC
 40
1.0
  9
$DIMTOFL
 70
     0
  9
$DIMTVP
 40
0.0
  9
$DIMTIX
 70
     0
  9
$DIMSOXD
 70
     0
  9
$DIMSAH
 70
     0
  9
$DIMBLK1
  1

  9
$DIMBLK2
  1

  9
$DIMSTYLE
  2
STANDARD
  9
$DIMCLRD
 70
     0
  9
$DIMCLRE
 70
     0
  9
$DIMCLRT
 70
     0
  9
$DIMTFAC
 40
1.0
  9
$DIMGAP
 40
0.09
  9
$LUNITS
 70
     2
  9
$LUPREC
 70
     4
  9
$SKETCHINC
 40
0.1
  9
$FILLETRAD
 40
0.0
  9
$AUNITS
 70
     0
  9
$AUPREC
 70
     0
  9
$MENU
  1
.
  9
$ELEVATION
 40
0.0
  9
$PELEVATION
 40
0.0
  9
$THICKNESS
 40
0.0
  9
$LIMCHECK
 70
     0
  9
$BLIPMODE
 70
     0
  9
$CHAMFERA
 40
0.0
  9
$CHAMFERB
 40
0.0
  9
$SKPOLY
 70
     0
  9
$TDCREATE
 40
2458060.468368056230247
  9
$TDUPDATE
 40
2459562.7543865740299225
  9
$TDINDWG
 40
0.4231899306
  9
$TDUSRTIMER
 40
0.4231899306
  9
$USRTIMER
 70
     1
  9
$ANGBASE
 50
0.0
  9
$ANGDIR
 70
     0
  9
$PDMODE
 70
     0
  9
$PDSIZE
 40
0.3125
  9
$PLINEWID
 40
0.0
  9
$COORDS
 70
     1
  9
$SPLFRAME
 70
     0
  9
$SPLINETYPE
 70
     6
  9
$SPLINESEGS
 70
     8
  9
$ATTDIA
 70
     1
  9
$ATTREQ
 70
     1
  9
$HANDLING
 70
     1
  9
$HANDSEED
  5
87C0
  9
$SURFTAB1
 70
     6
  9
$SURFTAB2
 70
     6
  9
$SURFTYPE
 70
     6
  9
$SURFU
 70
     6
  9
$SURFV
 70
     6
  9
$UCSNAME
  2

  9
$UCSORG
 10
0.0
 20
0.0
 30
0.0
  9
$UCSXDIR
 10
1.0
 20
0.0
 30
0.0
  9
$UCSYDIR
 10
0.0
 20
1.0
 30
0.0
  9
$PUCSNAME
  2

  9
$PUCSORG
 10
0.0
 20
0.0
 30
0.0
  9
$PUCSXDIR
 10
1.0
 20
0.0
 30
0.0
  9
$PUCSYDIR
 10
0.0
 20
1.0
 30
0.0
  9
$USERI1
 70
     0
  9
$USERI2
 70
     0
  9
$USERI3
 70
     0
  9
$USERI4
 70
     0
  9
$USERI5
 70
     0
  9
$USERR1
 40
0.0
  9
$USERR2
 40
0.0
  9
$USERR3
 40
0.0
  9
$USERR4
 40
0.0
  9
$USERR5
 40
0.0
  9
$WORLDVIEW
 70
     1
  9
$SHADEDGE
 70
     3
  9
$SHADEDIF
 70
    70
  9
$TILEMODE
 70
     1
  9
$MAXACTVP
 70
    64
  9
$PLIMCHECK
 70
     0
  9
$PEXTMIN
 10
1.0000000000000000E+20
 20
1.0000000000000000E+20
 30
1.0000000000000000E+20
  9
$PEXTMAX
 10
-1.0000000000000000E+20
 20
-1.0000000000000000E+20
 30
-1.0000000000000000E+20
  9
$PLIMMIN
 10
0.0
 20
0.0
  9
$PLIMMAX
 10
12.0
 20
9.0
  9
$UNITMODE
 70
     0
  9
$VISRETAIN
 70
     1
  9
$PLINEGEN
 70
     0
  9
$PSLTSCALE
 70
     1
  0
ENDSEC
  0
SECTION
  2
TABLES
  0
TABLE
  2
VPORT
 70
     1
  0
VPORT
  2
*ACTIVE
 70
     0
 10
0.0
 20
0.0
 11
1.0
 21
1.0
 12
254.4314259814437094
 22
-7.5757448689039002
 13
0.0
 23
0.0
 14
1.0
 24
1.0
 15
0.0
 25
0.0
 16
0.0
 26
0.0
 36
95.5902297660485658
 17
3089.811279296875
 27
197.161570589386713
 37
0.0
 40
11.5099152337559403
 41
2.000833333333333
 42
50.0
 43
0.0
 44
0.0
 50
0.0
 51
0.0
 71
     0
 72
   100
 73
     1
 74
     1
 75
     0
 76
     0
 77
     0
 78
     0
  0
ENDTAB
  0
TABLE
  2
LTYPE
 70
     2
  0
LTYPE
  2
CONTINUOUS
 70
     0
  3
Solid line
 72
    65
 73
     0
 40
0.0
  0
LTYPE
  2
PHANTOM2
 70
     0
  3
___ _ _ ___ _ _ ___ _ _ ___ _ _
 72
    65
 73
     6
 40
1.25
 49
0.625
 49
-0.125
 49
0.125
 49
-0.125
 49
0.125
 49
-0.125
  0
ENDTAB
  0
TABLE
  2
LAYER
 70
     2
  0
LAYER
  2
0
 70
     0
 62
   255
  6
CONTINUOUS
  0
LAYER
  2
DEFPOINTS
 70
     0
 62
     7
  6
CONTINUOUS
  0
ENDTAB
  0
TABLE
  2
STYLE
 70
     1
  0
STYLE
  2
STANDARD
 70
     0
 40
0.0
 41
0.8
 50
0.0
 71
     0
 42
0.2
  3
txt
  4

  0
ENDTAB
  0
TABLE
  2
VIEW
 70
     0
  0
ENDTAB
  0
TABLE
  2
UCS
 70
     0
  0
ENDTAB
  0
TABLE
  2
APPID
 70
     9
  0
APPID
  2
ACAD
 70
     0
  0
APPID
  2
ACAD_MLEADERVER
 70
     0
  0
APPID
  2
ACAD_EXEMPT_FROM_CAD_STANDARDS
 70
     0
  0
APPID
  2
ACAD_NAV_VCDISPLAY
 70
     0
  0
APPID
  2
ACAECLAYERSTANDARD
 70
     0
  0
APPID
  2
ACCMTRANSPARENCY
 70
     0
  0
APPID
  2
ACAD_DSTYLE_DIMJAG
 70
     0
  0
APPID
  2
ACAD_DSTYLE_DIMTALN
 70
     0
  0
APPID
  2
ACDBATTR
 70
     0
  0
ENDTAB
  0
TABLE
  2
DIMSTYLE
 70
     1
  0
DIMSTYLE
  2
STANDARD
 70
     0
  3

  4

  5

  6

  7

 40
1.0
 41
0.1875
 42
0.0625
 43
0.38
 44
0.125
 45
0.0
 46
0.0
 47
0.01
 48
0.01
140
0.15625
141
0.09
142
0.0
143
25.3999999999999986
144
1.0
145
0.0
146
1.0
147
0.09
 71
     1
 72
     0
 73
     1
 74
     1
 75
     0
 76
     0
 77
     0
 78
     4
170
     0
171
     2
172
     0
173
     0
174
     0
175
     0
176
     0
177
     0
178
     0
  0
ENDTAB
  0
ENDSEC
  0
SECTION
  2
BLOCKS
  0
BLOCK
  8
0
  2
$MODEL_SPACE
 70
     0
 10
0.0
 20
0.0
 30
0.0
  3
$MODEL_SPACE
  1

  0
ENDBLK
  5
21
  8
0
  0
BLOCK
 67
     1
  8
0
  2
$PAPER_SPACE
 70
     0
 10
0.0
 20
0.0
 30
0.0
  3
$PAPER_SPACE
  1

  0
ENDBLK
  5
1D
 67
     1
  8
0
  0
BLOCK
  8
0
  2
_FILLED
 70
     0
 10
0.0
 20
0.0
 30
0.0
  3
_FILLED
  1

  0
SOLID
  5
7FAE
  8
0
  6
BYBLOCK
 62
     0
 10
0.0
 20
0.0
 30
0.0
 11
-1.0
 21
0.1666666667
 31
0.0
 12
-1.0
 22
-0.1666666667
 32
0.0
 13
-1.0
 23
-0.1666666667
 33
0.0
  0
ENDBLK
  5
7FAF
  8
0
  6
BYBLOCK
 62
     0
  0
ENDSEC
  0
SECTION
  2
ENTITIES
  0
ATTDEF
  5
3930
  8
DEFPOINTS
 10
3341.5182201059228646
 20
191.3521558213018068
 30
0.0
 40
0.001
  1
K-77927A
  3

  2
MODELNUMBER
 70
     0
1001
ACDBATTR
1070
     0
1070
     1
  0
ATTDEF
  5
3931
  8
DEFPOINTS
 10
3341.5182201059228646
 20
191.3504891546351132
 30
0.0
 40
0.001
  1
PURIST
  3

  2
TRADENAME
 70
     0
1001
ACDBATTR
1070
     0
1070
     1
  0
ATTDEF
  5
3932
  8
DEFPOINTS
 10
3341.5182201059228646
 20
191.3488224879683912
 30
0.0
 40
0.001
  1
VALVE TRIM
  3

  2
PRODUCT
 70
     0
1001
ACDBATTR
1070
     0
1070
     1
  0
LINE
  5
8671
  8
0
 10
3340.551893948309953
 20
191.0729488184126978
 30
0.0
 11
3340.551893948309953
 21
189.6673703932127069
 31
0.0
  0
ARC
  5
8672
  8
0
 10
3338.0715979115320806
 20
191.1123188972833873
 30
0.0
 40
0.0393700788707103
 50
180.0000002484385959
 51
269.9999998970823185
  0
LINE
  5
8673
  8
0
 10
3338.0322278326611922
 20
191.3485393696126948
 30
0.0
 11
3338.0322278327607819
 21
191.112318897096003
 31
0.0
  0
LINE
  5
8674
  8
0
 10
3342.4810654806469756
 20
191.0729488184126978
 30
0.0
 11
3342.4810654806469756
 21
189.6673703933126944
 31
0.0
  0
ARC
  5
8675
  8
0
 10
3344.9613616248429935
 20
191.1123189245265053
 30
0.0
 40
0.0393701448171201
 50
269.9196606601390727
 51
359.9999601044053179
  0
LINE
  5
8676
  8
0
 10
3345.0007317696608879
 20
191.3485393696126948
 30
0.0
 11
3345.0007317695608435
 21
191.112318897096003
 31
0.0
  0
LINE
  5
8677
  8
0
 10
3338.0322278326611922
 20
191.3485393696126948
 30
0.0
 11
3345.0007317696608879
 21
191.3485393696126948
 31
0.0
  0
LINE
  5
8678
  8
0
 10
3344.9613064205959745
 20
191.0729488184126978
 30
0.0
 11
3338.0715979115320806
 21
191.0729488184126978
 31
0.0
  0
ARC
  5
8679
  8
0
 10
3341.5164798011610401
 20
187.3511232498127015
 30
0.0
 40
0.3000000000000007
 50
150.0000000000027001
 51
29.9999999999972893
  0
CIRCLE
  5
867A
  8
0
 10
3341.5164798011610401
 20
187.3511232498127015
 30
0.0
 40
0.2617474349000002
  0
ARC
  5
867B
  8
0
 10
3340.5962605969511969
 20
189.4833741461418128
 30
0.0
 40
0.0427529698120283
 50
1.567438929617778
 51
90.068338942263594
  0
ARC
  5
867C
  8
0
 10
3340.7803118070150958
 20
189.4729783545913904
 30
0.0
 40
0.1417867004881252
 50
175.3213080696347959
 51
205.4484741984192908
  0
ARC
  5
867D
  8
0
 10
3341.5020212572608216
 20
191.4179424007870125
 30
0.0
 40
2.277671505461706
 50
256.5829820408528121
 51
270.3637059154106055
  0
ARC
  5
867E
  8
0
 10
3341.0585440299119
 20
189.6836896171595015
 30
0.0
 40
0.4887076186262914
 50
213.7676967212289014
 51
259.9805644275962209
  0
ARC
  5
867F
  8
0
 10
3341.4638751504649008
 20
191.205737277023303
 30
0.0
 40
2.1146581269728322
 50
252.4340143391708864
 51
271.4254480991805849
  0
ARC
  5
8680
  8
0
 10
3340.6062774601741694
 20
189.4771078260127126
 30
0.0
 40
0.0544389138519891
 50
135.4078047704097969
 51
177.4148697975861921
  0
ARC
  5
8681
  8
0
 10
3340.5962084538441559
 20
189.4825985464023859
 30
0.0
 40
0.0435285391558777
 50
89.9984863292047947
 51
131.2460865920072877
  0
ARC
  5
8682
  8
0
 10
3340.779078169047807
 20
189.4786481642537979
 30
0.0
 40
0.2271860635818174
 50
179.7692235281058117
 51
199.4081909088289137
  0
ARC
  5
8683
  8
0
 10
3340.9425099034738196
 20
189.5985949705587075
 30
0.0
 40
0.4252764354643763
 50
207.3586855304450864
 51
254.0525672506103945
  0
ARC
  5
8684
  8
0
 10
3340.8464798011609673
 20
188.1211232498127117
 30
0.0
 40
0.4000000000000022
 50
0.0
 51
90.0
  0
ARC
  5
8685
  8
0
 10
3340.5639488411279672
 20
189.6676163403749911
 30
0.0
 40
0.0120574014970806
 50
181.1688017342468129
 51
269.51569714954951
  0
ARC
  5
8686
  8
0
 10
3341.5143369211391473
 20
189.6562390015756989
 30
0.0
 40
0.8049415537614146
 50
180.7109243268901082
 51
192.3135657705686867
  0
ARC
  5
8687
  8
0
 10
3341.515952879211909
 20
189.6561874527961891
 30
0.0
 40
0.8065094402333217
 50
192.2855053821365061
 51
208.5951114449318027
  0
LINE
  5
8688
  8
0
 10
3340.5968355431109558
 20
189.5261232498127129
 30
0.0
 11
3340.7199813357019593
 21
189.5261232498127129
 31
0.0
  0
LINE
  5
8689
  8
0
 10
3340.551893948309953
 20
189.4795632239126917
 30
0.0
 11
3340.5599907819610053
 21
188.550861453712713
 31
0.0
  0
ARC
  5
868A
  8
0
 10
3340.5899896396790609
 20
188.5511232498323864
 30
0.0
 40
0.0300000000270465
 50
180.5000001042060944
 51
270.0012637185810718
  0
ARC
  5
868B
  8
0
 10
3342.4363907686570201
 20
189.4831898558612124
 30
0.0
 40
0.0427529698120283
 50
89.9201846356697985
 51
178.4210846483213118
  0
ARC
  5
868C
  8
0
 10
3342.252337479993912
 20
189.4728309302252001
 30
0.0
 40
0.1417867004881252
 50
334.5400493795083889
 51
4.6672155083029461
  0
ARC
  5
868D
  8
0
 10
3341.5310464181839052
 20
191.4177755287574882
 30
0.0
 40
2.2775053291232181
 50
269.6335341726542083
 51
283.405793215382289
  0
ARC
  5
868E
  8
0
 10
3341.9741474684278728
 20
189.6835979188562078
 30
0.0
 40
0.4887076186262914
 50
280.0079591503409233
 51
326.2208268567146092
  0
ARC
  5
868F
  8
0
 10
3341.5691998878978666
 20
191.2053806829686096
 30
0.0
 40
2.1143044631603352
 50
268.57122605844188
 51
287.5553052455402963
  0
ARC
  5
8690
  8
0
 10
3342.4312411614801022
 20
189.4786213615180941
 30
0.0
 40
0.0498299441586472
 50
0.8609094257241435
 51
47.1219838667042623
  0
ARC
  5
8691
  8
0
 10
3342.4364427564091784
 20
189.4824142456930076
 30
0.0
 40
0.0435285391558777
 50
48.7424369859331392
 51
89.9900372487269493
  0
ARC
  5
8692
  8
0
 10
3342.2428409774779539
 20
189.4812778558454909
 30
0.0
 40
0.2382321422118396
 50
340.8084830564804975
 51
359.5411633954403214
  0
ARC
  5
8693
  8
0
 10
3342.0901645479661966
 20
189.5984800321701869
 30
0.0
 40
0.4252764354643763
 50
285.9359563273312119
 51
332.6298380474901251
  0
ARC
  5
8694
  8
0
 10
3342.185854864340854
 20
188.1210072773515947
 30
0.0
 40
0.3999561523418151
 50
89.9822417473461087
 51
179.9911254447031013
  0
ARC
  5
8695
  8
0
 10
3342.4687362416038923
 20
189.6678939783525095
 30
0.0
 40
0.0123403515628025
 50
271.7480482816025074
 51
357.5682847544289871
  0
ARC
  5
8696
  8
0
 10
3341.491152663621051
 20
189.6607527798857973
 30
0.0
 40
0.8324759192383131
 50
347.7709793466995052
 51
359.0018926723034269
  0
ARC
  5
8697
  8
0
 10
3341.5167331195839324
 20
189.6561873746545928
 30
0.0
 40
0.8065094402333954
 50
331.4048948775771919
 51
347.7030181958022013
  0
LINE
  5
8698
  8
0
 10
3342.4358243852120722
 20
189.5259390738370087
 30
0.0
 11
3342.312678595089892
 21
189.5259637401055102
 31
0.0
  0
LINE
  5
8699
  8
0
 10
3342.4810654806469756
 20
189.4793700633379103
 30
0.0
 11
3342.4729688204611193
 21
188.5508614538127006
 31
0.0
  0
ARC
  5
869A
  8
0
 10
3342.4426476023631949
 20
188.5512610439193963
 30
0.0
 40
0.0303238509957008
 50
269.6612582202836279
 51
359.2449676231133253
  0
LINE
  5
869B
  8
0
 10
3340.5899903013601033
 20
188.521123249812689
 30
0.0
 11
3342.4424683239672049
 21
188.5209377228864014
 31
0.0
  0
LINE
  5
869C
  8
0
 10
3340.8078183837587858
 20
189.2701783680126937
 30
0.0
 11
3342.2248676576327853
 21
189.2701783680126937
 31
0.0
  0
LINE
  5
869D
  8
0
 10
3340.563846924993868
 20
189.6555593696126891
 30
0.0
 11
3342.4691126774278018
 21
189.6555593696126891
 31
0.0
  0
LINE
  5
869E
  8
0
 10
3341.256672180024907
 20
187.5011232498127072
 30
0.0
 11
3341.2464798011601488
 21
187.5011232498127072
 31
0.0
  0
LINE
  5
869F
  8
0
 10
3341.2464798011601488
 20
187.5011232498127072
 30
0.0
 11
3341.2464798011601488
 21
188.1211232498127117
 31
0.0
  0
LINE
  5
86A0
  8
0
 10
3341.7858987167969644
 20
188.1210692266436126
 30
0.0
 11
3341.7864798011610219
 21
187.5011232498127072
 31
0.0
  0
LINE
  5
86A1
  8
0
 10
3341.7864798011610219
 20
187.5011232498127072
 30
0.0
 11
3341.7762874222971732
 21
187.5011232498127072
 31
0.0
  0
ARC
  5
86A2
  8
0
 10
3341.5164798011610401
 20
187.3511232498127015
 30
0.0
 40
0.3000000000000006
 50
29.9999999999972893
 51
150.0000000000027001
  0
ARC
  5
86A3
  8
0
 10
3342.4022361718612046
 20
189.645258868312709
 30
0.0
 40
0.0787401575000476
 50
172.4832304533852039
 51
179.2776372427991873
  0
ARC
  5
86A4
  8
0
 10
3340.63072343056092
 20
189.645258868312709
 30
0.0
 40
0.0787401574999085
 50
0.7223627571975558
 51
7.5167695466228572
  0
LINE
  5
86A5
  8
0
 10
3340.9001967309609427
 20
189.2701783680126937
 30
0.0
 11
3340.9350643247607877
 21
189.2500475586126925
 31
0.0
  0
LINE
  5
86A6
  8
0
 10
3340.9350643247607877
 20
189.2500475586126925
 30
0.0
 11
3342.0978952776608821
 21
189.2500475586126925
 31
0.0
  0
LINE
  5
86A7
  8
0
 10
3342.0978952776608821
 20
189.2500475586126925
 30
0.0
 11
3342.1327628714611819
 21
189.2701783680126937
 31
0.0
  0
LINE
  5
86A8
  8
0
 10
3341.3196294074609796
 20
189.147585446491405
 30
0.0
 11
3341.3196294074609796
 21
189.2500475586126925
 31
0.0
  0
LINE
  5
86A9
  8
0
 10
3341.7133301948611006
 20
189.2500475586126925
 30
0.0
 11
3341.7133301948611006
 21
189.1475766059878083
 31
0.0
  0
LINE
  5
86AA
  8
0
 10
3341.3294719537611854
 20
189.1634333609125918
 30
0.0
 11
3341.7034876752609307
 21
189.1634333854127021
 31
0.0
  0
ARC
  5
86AB
  8
0
 10
3341.3276584010709485
 20
189.1736934758264965
 30
0.0
 40
0.0080399163499821
 50
182.9869423451258967
 51
221.6086537123476035
  0
ARC
  5
86AC
  8
0
 10
3341.3321339334452205
 20
189.1763476248131894
 30
0.0
 40
0.0131857630772323
 50
217.3140783347008949
 51
258.352914258259716
  0
ARC
  5
86AD
  8
0
 10
3341.3294718853371705
 20
189.1535908830365997
 30
0.0
 40
0.009842477876276
 50
89.9996016865326709
 51
180.0001008475564959
  0
ARC
  5
86AE
  8
0
 10
3341.7010995189848472
 20
189.1756644106532121
 30
0.0
 40
0.0124619929718434
 50
281.0482268750527055
 51
348.9433944169189203
  0
ARC
  5
86AF
  8
0
 10
3341.7034876753318713
 20
189.1535908658838991
 30
0.0
 40
0.0098425195288137
 50
359.9999990034850725
 51
90.0000004143803665
  0
LINE
  5
86B0
  8
0
 10
3341.3983695649608308
 20
189.2701783680126937
 30
0.0
 11
3341.3983695649608308
 21
189.2500475586126925
 31
0.0
  0
LINE
  5
86B1
  8
0
 10
3341.6345900374608391
 20
189.2701783680126937
 30
0.0
 11
3341.6345900374608391
 21
189.2500475586126925
 31
0.0
  0
ARC
  5
86B2
  8
0
 10
3341.5031933001610014
 20
190.4166699722125884
 30
0.0
 40
1.1620483130999271
 50
276.4925133390576093
 51
279.3769967497908056
  0
ARC
  5
86B3
  8
0
 10
3341.5297657229612014
 20
190.4166660354113958
 30
0.0
 40
1.162044335998734
 50
260.6230022955081722
 51
263.5074930907080102
  0
ARC
  5
86B4
  8
0
 10
3341.0050474889721954
 20
189.5240071158279136
 30
0.0
 40
0.2686832716266775
 50
250.8588441499283022
 51
289.1411558500716978
  0
ARC
  5
86B5
  8
0
 10
3342.0279121134490197
 20
189.5240071158279136
 30
0.0
 40
0.2686832716266775
 50
250.8588441499283022
 51
289.1411558500716978
  0
ENDSEC
  0
EOF
