  0
SECTION
  2
HEADER
  9
$ACADVER
  1
AC1009
  9
$INSBASE
 10
4465.4597202292761722
 20
264.2854297514865038
 30
0.0
  9
$EXTMIN
 10
4464.5148383394762277
 20
258.8712166850364724
 30
0.0
  9
$EXTMAX
 10
4466.8429237914697296
 20
265.668620559736496
 30
0.0
  9
$LIMMIN
 10
0.0
 20
0.0
  9
$LIMMAX
 10
11.6929133858000007
 20
8.2677165353999982
  9
$ORTHOMODE
 70
     0
  9
$REGENMODE
 70
     1
  9
$FILLMODE
 70
     1
  9
$QTEXTMODE
 70
     0
  9
$MIRRTEXT
 70
     0
  9
$DRAGMODE
 70
     2
  9
$LTSCALE
 40
0.6431102362
  9
$OSMODE
 70
   563
  9
$ATTMODE
 70
     1
  9
$TEXTSIZE
 40
0.2
  9
$TRACEWID
 40
0.05
  9
$TEXTSTYLE
  7
STANDARD
  9
$CLAYER
  8
0
  9
$CELTYPE
  6
BYLAYER
  9
$CECOLOR
 62
   256
  9
$DIMSCALE
 40
1.0
  9
$DIMASZ
 40
0.1875
  9
$DIMEXO
 40
0.0625
  9
$DIMDLI
 40
0.4443307087
  9
$DIMRND
 40
0.0
  9
$DIMDLE
 40
0.0
  9
$DIMEXE
 40
0.125
  9
$DIMTP
 40
0.01
  9
$DIMTM
 40
0.01
  9
$DIMTXT
 40
2.0
  9
$DIMCEN
 40
0.1052362205
  9
$DIMTSZ
 40
0.0
  9
$DIMTOL
 70
     1
  9
$DIMLIM
 70
     0
  9
$DIMTIH
 70
     1
  9
$DIMTOH
 70
     1
  9
$DIMSE1
 70
     0
  9
$DIMSE2
 70
     0
  9
$DIMTAD
 70
     0
  9
$DIMZIN
 70
     0
  9
$DIMBLK
  1

  9
$DIMASO
 70
     1
  9
$DIMSHO
 70
     1
  9
$DIMPOST
  1
\X
  9
$DIMAPOST
  1

  9
$DIMALT
 70
     1
  9
$DIMALTD
 70
     2
  9
$DIMALTF
 40
25.3999999999999986
  9
$DIMLFAC
 40
1.0
  9
$DIMTOFL
 70
     0
  9
$DIMTVP
 40
0.0
  9
$DIMTIX
 70
     0
  9
$DIMSOXD
 70
     0
  9
$DIMSAH
 70
     0
  9
$DIMBLK1
  1

  9
$DIMBLK2
  1

  9
$DIMSTYLE
  2
STANDARD
  9
$DIMCLRD
 70
     0
  9
$DIMCLRE
 70
     0
  9
$DIMCLRT
 70
     0
  9
$DIMTFAC
 40
1.0
  9
$DIMGAP
 40
0.09
  9
$LUNITS
 70
     2
  9
$LUPREC
 70
     4
  9
$SKETCHINC
 40
0.1
  9
$FILLETRAD
 40
0.0
  9
$AUNITS
 70
     0
  9
$AUPREC
 70
     0
  9
$MENU
  1
.
  9
$ELEVATION
 40
0.0
  9
$PELEVATION
 40
0.0
  9
$THICKNESS
 40
0.0
  9
$LIMCHECK
 70
     0
  9
$BLIPMODE
 70
     0
  9
$CHAMFERA
 40
0.0
  9
$CHAMFERB
 40
0.0
  9
$SKPOLY
 70
     0
  9
$TDCREATE
 40
2458060.468368056230247
  9
$TDUPDATE
 40
2459214.6514467587694526
  9
$TDINDWG
 40
0.4871945602
  9
$TDUSRTIMER
 40
0.4871945602
  9
$USRTIMER
 70
     1
  9
$ANGBASE
 50
0.0
  9
$ANGDIR
 70
     0
  9
$PDMODE
 70
     0
  9
$PDSIZE
 40
0.3125
  9
$PLINEWID
 40
0.0
  9
$COORDS
 70
     1
  9
$SPLFRAME
 70
     0
  9
$SPLINETYPE
 70
     6
  9
$SPLINESEGS
 70
     8
  9
$ATTDIA
 70
     1
  9
$ATTREQ
 70
     1
  9
$HANDLING
 70
     1
  9
$HANDSEED
  5
21A4D
  9
$SURFTAB1
 70
     6
  9
$SURFTAB2
 70
     6
  9
$SURFTYPE
 70
     6
  9
$SURFU
 70
     6
  9
$SURFV
 70
     6
  9
$UCSNAME
  2

  9
$UCSORG
 10
0.0
 20
0.0
 30
0.0
  9
$UCSXDIR
 10
1.0
 20
0.0
 30
0.0
  9
$UCSYDIR
 10
0.0
 20
1.0
 30
0.0
  9
$PUCSNAME
  2

  9
$PUCSORG
 10
0.0
 20
0.0
 30
0.0
  9
$PUCSXDIR
 10
1.0
 20
0.0
 30
0.0
  9
$PUCSYDIR
 10
0.0
 20
1.0
 30
0.0
  9
$USERI1
 70
     0
  9
$USERI2
 70
     0
  9
$USERI3
 70
     0
  9
$USERI4
 70
     0
  9
$USERI5
 70
     0
  9
$USERR1
 40
0.0
  9
$USERR2
 40
0.0
  9
$USERR3
 40
0.0
  9
$USERR4
 40
0.0
  9
$USERR5
 40
0.0
  9
$WORLDVIEW
 70
     1
  9
$SHADEDGE
 70
     3
  9
$SHADEDIF
 70
    70
  9
$TILEMODE
 70
     1
  9
$MAXACTVP
 70
    64
  9
$PLIMCHECK
 70
     0
  9
$PEXTMIN
 10
1.0000000000000000E+20
 20
1.0000000000000000E+20
 30
1.0000000000000000E+20
  9
$PEXTMAX
 10
-1.0000000000000000E+20
 20
-1.0000000000000000E+20
 30
-1.0000000000000000E+20
  9
$PLIMMIN
 10
0.0
 20
0.0
  9
$PLIMMAX
 10
12.0
 20
9.0
  9
$UNITMODE
 70
     0
  9
$VISRETAIN
 70
     1
  9
$PLINEGEN
 70
     0
  9
$PSLTSCALE
 70
     1
  0
ENDSEC
  0
SECTION
  2
TABLES
  0
TABLE
  2
VPORT
 70
     1
  0
VPORT
  2
*ACTIVE
 70
     0
 10
0.0
 20
0.0
 11
1.0
 21
1.0
 12
556.4800853372908023
 22
129.3185996654142969
 13
0.0
 23
0.0
 14
1.0
 24
1.0
 15
0.0
 25
0.0
 16
0.0
 26
0.0
 36
60.4960186965801583
 17
3911.3653564453120453
 27
132.5796051025390057
 37
0.0
 40
9.5795971051219322
 41
1.9002217294900221
 42
50.0
 43
0.0
 44
0.0
 50
0.0
 51
0.0
 71
     0
 72
   100
 73
     1
 74
     1
 75
     0
 76
     0
 77
     0
 78
     0
  0
ENDTAB
  0
TABLE
  2
LTYPE
 70
     2
  0
LTYPE
  2
CONTINUOUS
 70
     0
  3
Solid line
 72
    65
 73
     0
 40
0.0
  0
LTYPE
  2
PHANTOM2
 70
     0
  3
___ _ _ ___ _ _ ___ _ _ ___ _ _
 72
    65
 73
     6
 40
1.25
 49
0.625
 49
-0.125
 49
0.125
 49
-0.125
 49
0.125
 49
-0.125
  0
ENDTAB
  0
TABLE
  2
LAYER
 70
     2
  0
LAYER
  2
0
 70
     0
 62
   255
  6
CONTINUOUS
  0
LAYER
  2
DEFPOINTS
 70
     0
 62
     7
  6
CONTINUOUS
  0
ENDTAB
  0
TABLE
  2
STYLE
 70
     1
  0
STYLE
  2
STANDARD
 70
     0
 40
0.0
 41
0.8
 50
0.0
 71
     0
 42
0.2
  3
txt
  4

  0
ENDTAB
  0
TABLE
  2
VIEW
 70
     0
  0
ENDTAB
  0
TABLE
  2
UCS
 70
     0
  0
ENDTAB
  0
TABLE
  2
APPID
 70
    11
  0
APPID
  2
ACAD
 70
     0
  0
APPID
  2
ACAD_MLEADERVER
 70
     0
  0
APPID
  2
ACAD_EXEMPT_FROM_CAD_STANDARDS
 70
     0
  0
APPID
  2
ACAD_NAV_VCDISPLAY
 70
     0
  0
APPID
  2
ACAECLAYERSTANDARD
 70
     0
  0
APPID
  2
ACCMTRANSPARENCY
 70
     0
  0
APPID
  2
ACAD_DSTYLE_DIMJAG
 70
     0
  0
APPID
  2
ACAD_DSTYLE_DIMTALN
 70
     0
  0
APPID
  2
ACDBATTR
 70
     0
  0
APPID
  2
ACADANNOTATIVE
 70
     0
  0
APPID
  2
DCO15
 70
     0
  0
ENDTAB
  0
TABLE
  2
DIMSTYLE
 70
     1
  0
DIMSTYLE
  2
STANDARD
 70
     0
  3

  4

  5

  6

  7

 40
1.0
 41
0.1875
 42
0.0625
 43
0.38
 44
0.125
 45
0.0
 46
0.0
 47
0.01
 48
0.01
140
0.15625
141
0.09
142
0.0
143
25.3999999999999986
144
1.0
145
0.0
146
1.0
147
0.09
 71
     1
 72
     0
 73
     1
 74
     1
 75
     0
 76
     0
 77
     0
 78
     4
170
     0
171
     2
172
     0
173
     0
174
     0
175
     0
176
     0
177
     0
178
     0
  0
ENDTAB
  0
ENDSEC
  0
SECTION
  2
BLOCKS
  0
BLOCK
  8
0
  2
$MODEL_SPACE
 70
     0
 10
0.0
 20
0.0
 30
0.0
  3
$MODEL_SPACE
  1

  0
ENDBLK
  5
21
  8
0
  0
BLOCK
 67
     1
  8
0
  2
$PAPER_SPACE
 70
     0
 10
0.0
 20
0.0
 30
0.0
  3
$PAPER_SPACE
  1

  0
ENDBLK
  5
1D
 67
     1
  8
0
  0
ENDSEC
  0
SECTION
  2
ENTITIES
  0
LINE
  5
218E9
  8
0
 10
4465.9557240058929892
 20
264.9345472010530784
 30
0.0
 11
4466.6840317499763842
 21
265.6628549452365178
 31
0.0
  0
LINE
  5
218EA
  8
0
 10
4466.1088376789366521
 20
264.7814335279963984
 30
0.0
 11
4466.8371581769170007
 21
265.5096934257067005
 31
0.0
  0
LINE
  5
218EB
  8
0
 10
4465.3809800717772305
 20
260.692399779836478
 30
0.0
 11
4465.5384591347756214
 21
260.692399779836478
 31
0.0
  0
LINE
  5
218EC
  8
0
 10
4464.9675942449766808
 20
259.2249479010365008
 30
0.0
 11
4464.9675942449766808
 21
263.6333674650010721
 31
0.0
  0
LINE
  5
218ED
  8
0
 10
4465.3612950323758923
 20
263.4744515208842017
 30
0.0
 11
4465.3612950323758923
 21
260.7120848192365088
 31
0.0
  0
LINE
  5
218EE
  8
0
 10
4465.5581454260764076
 20
263.4744515208719804
 30
0.0
 11
4465.5581454260764076
 21
260.7120848192365088
 31
0.0
  0
LINE
  5
218EF
  8
0
 10
4465.9518462134756192
 20
259.2249479010365008
 30
0.0
 11
4465.9518462134756192
 21
263.633367464925584
 31
0.0
  0
LINE
  5
218F0
  8
0
 10
4466.8371581769170007
 20
265.5375322754020999
 30
0.0
 11
4466.7118705995762866
 21
265.6628549452365178
 31
0.0
  0
ARC
  5
218F1
  8
0
 10
4465.5384603867087208
 20
260.7120848192645894
 30
0.0
 40
0.0196850394679608
 50
269.9963560945964787
 51
359.9999999180665213
  0
ARC
  5
218F2
  8
0
 10
4465.3809800717772305
 20
260.7120848192365088
 30
0.0
 40
0.0196850394
 50
180.0
 51
270.0
  0
ARC
  5
218F3
  8
0
 10
4465.4597202292761722
 20
264.2854297514364816
 30
0.0
 40
0.9448818898
 50
51.5795929413157026
 51
238.6118335335916925
  0
ARC
  5
218F4
  8
0
 10
4465.4597202292761722
 20
264.2854297514364816
 30
0.0
 40
0.9448818898
 50
301.3881664593210985
 51
38.4204070549061072
  0
CIRCLE
  5
218F5
  8
0
 10
4465.4597202292761722
 20
264.2854297514364816
 30
0.0
 40
0.8169291339
  0
ARC
  5
218F6
  8
0
 10
4466.823238752069301
 20
265.5236128505544002
 30
0.0
 40
0.0196850394
 50
315.0000000000046043
 51
44.9999999999953886
  0
ARC
  5
218F7
  8
0
 10
4466.6979511747767901
 20
265.6489355203365221
 30
0.0
 40
0.0196850394
 50
44.9999999999953886
 51
135.0000000000046043
  0
ARC
  5
218F8
  8
0
 10
4465.2317421670268232
 20
259.2257081688750873
 30
0.0
 40
0.2641490161463227
 50
180.1649076909523046
 51
201.7184379560671914
  0
ARC
  5
218F9
  8
0
 10
4465.2872422404871031
 20
259.2502573778838268
 30
0.0
 40
0.3248015912153195
 50
202.1186950753132976
 51
225.9941572550357876
  0
ARC
  5
218FA
  8
0
 10
4465.3995242323344428
 20
259.370834720364428
 30
0.0
 40
0.4895442334036934
 50
226.346207398561404
 51
253.029254955668705
  0
ARC
  5
218FB
  8
0
 10
4465.4591129272112084
 20
259.5388993686665913
 30
0.0
 40
0.6677304659642141
 50
252.3480566730362966
 51
259.8007594445439281
  0
ARC
  5
218FC
  8
0
 10
4465.5244103442082633
 20
259.3629907722609005
 30
0.0
 40
0.480734297569321
 50
286.7313159984964841
 51
314.2280144582193202
  0
ARC
  5
218FD
  8
0
 10
4465.6355818174970409
 20
259.2479260012248119
 30
0.0
 40
0.3207391002734799
 50
314.3347255886915264
 51
339.0814211888110776
  0
ARC
  5
218FE
  8
0
 10
4465.6894812988566628
 20
259.2254276659712104
 30
0.0
 40
0.262365353272203
 50
339.468204701212926
 51
359.8952280603156737
  0
ARC
  5
218FF
  8
0
 10
4465.460327531242001
 20
259.5388993686665913
 30
0.0
 40
0.6677304659642141
 50
280.1992405554560719
 51
287.6519433269637034
  0
ARC
  5
21900
  8
0
 10
4465.45972022922615
 20
259.5487905314075761
 30
0.0
 40
0.677573846371111
 50
259.8983199380389237
 51
280.1016800619610763
  0
ATTDEF
  5
21902
  8
DEFPOINTS
 10
4465.4599382757269268
 20
264.284140946751279
 30
0.0
 40
0.001
  1
K-77958T-4AMU
  3

  2
MODELNUMBER
 70
     0
1001
ACDBATTR
1070
     0
1070
     1
  0
ATTDEF
  5
21903
  8
DEFPOINTS
 10
4465.4598124660697067
 20
264.2824741063719785
 30
0.0
 40
0.001
  1
COMPONENTS
  3

  2
TRADENAME
 70
     0
1001
ACDBATTR
1070
     0
1070
     1
  0
ATTDEF
  5
21904
  8
DEFPOINTS
 10
4465.4599382757269268
 20
264.2808076134178918
 30
0.0
 40
0.001
  1
BATHROOM SINK FAUCET
  3

  2
PRODUCT
 70
     0
1001
ACDBATTR
1070
     0
1070
     1
  0
ENDSEC
  0
EOF
