  0
SECTION
  2
HEADER
  9
$ACADVER
  1
AC1009
  9
$INSBASE
 10
3555.5526235614897814
 20
210.7422627655629128
 30
0.0
  9
$EXTMIN
 10
3550.1281516950930381
 20
210.7377238697683026
 30
-0.0000000349181948
  9
$EXTMAX
 10
3557.1663593078778831
 20
217.7592231696756073
 30
0.0000000814935746
  9
$LIMMIN
 10
0.0
 20
0.0
  9
$LIMMAX
 10
11.6929133858000007
 20
8.2677165353999982
  9
$ORTHOMODE
 70
     0
  9
$REGENMODE
 70
     1
  9
$FILLMODE
 70
     1
  9
$QTEXTMODE
 70
     0
  9
$MIRRTEXT
 70
     0
  9
$DRAGMODE
 70
     2
  9
$LTSCALE
 40
0.6431102362
  9
$OSMODE
 70
  4095
  9
$ATTMODE
 70
     1
  9
$TEXTSIZE
 40
0.2
  9
$TRACEWID
 40
0.05
  9
$TEXTSTYLE
  7
STANDARD
  9
$CLAYER
  8
0
  9
$CELTYPE
  6
BYLAYER
  9
$CECOLOR
 62
     1
  9
$DIMSCALE
 40
1.0
  9
$DIMASZ
 40
0.1875
  9
$DIMEXO
 40
0.0625
  9
$DIMDLI
 40
0.4443307087
  9
$DIMRND
 40
0.0
  9
$DIMDLE
 40
0.0
  9
$DIMEXE
 40
0.125
  9
$DIMTP
 40
0.01
  9
$DIMTM
 40
0.01
  9
$DIMTXT
 40
2.0
  9
$DIMCEN
 40
0.1052362205
  9
$DIMTSZ
 40
0.0
  9
$DIMTOL
 70
     1
  9
$DIMLIM
 70
     0
  9
$DIMTIH
 70
     1
  9
$DIMTOH
 70
     1
  9
$DIMSE1
 70
     0
  9
$DIMSE2
 70
     0
  9
$DIMTAD
 70
     0
  9
$DIMZIN
 70
     0
  9
$DIMBLK
  1

  9
$DIMASO
 70
     1
  9
$DIMSHO
 70
     1
  9
$DIMPOST
  1
\X
  9
$DIMAPOST
  1

  9
$DIMALT
 70
     1
  9
$DIMALTD
 70
     2
  9
$DIMALTF
 40
25.3999999999999986
  9
$DIMLFAC
 40
1.0
  9
$DIMTOFL
 70
     0
  9
$DIMTVP
 40
0.0
  9
$DIMTIX
 70
     0
  9
$DIMSOXD
 70
     0
  9
$DIMSAH
 70
     0
  9
$DIMBLK1
  1

  9
$DIMBLK2
  1

  9
$DIMSTYLE
  2
STANDARD
  9
$DIMCLRD
 70
     0
  9
$DIMCLRE
 70
     0
  9
$DIMCLRT
 70
     0
  9
$DIMTFAC
 40
1.0
  9
$DIMGAP
 40
0.09
  9
$LUNITS
 70
     2
  9
$LUPREC
 70
     4
  9
$SKETCHINC
 40
0.1
  9
$FILLETRAD
 40
0.0
  9
$AUNITS
 70
     0
  9
$AUPREC
 70
     0
  9
$MENU
  1
.
  9
$ELEVATION
 40
0.0
  9
$PELEVATION
 40
0.0
  9
$THICKNESS
 40
0.0
  9
$LIMCHECK
 70
     0
  9
$BLIPMODE
 70
     0
  9
$CHAMFERA
 40
0.0
  9
$CHAMFERB
 40
0.0
  9
$SKPOLY
 70
     0
  9
$TDCREATE
 40
2458060.468368056230247
  9
$TDUPDATE
 40
2460152.4390624999068677
  9
$TDINDWG
 40
0.716222338
  9
$TDUSRTIMER
 40
0.716222338
  9
$USRTIMER
 70
     1
  9
$ANGBASE
 50
0.0
  9
$ANGDIR
 70
     0
  9
$PDMODE
 70
     0
  9
$PDSIZE
 40
0.3125
  9
$PLINEWID
 40
0.0
  9
$COORDS
 70
     1
  9
$SPLFRAME
 70
     0
  9
$SPLINETYPE
 70
     6
  9
$SPLINESEGS
 70
     8
  9
$ATTDIA
 70
     1
  9
$ATTREQ
 70
     1
  9
$HANDLING
 70
     1
  9
$HANDSEED
  5
B3E6
  9
$SURFTAB1
 70
     6
  9
$SURFTAB2
 70
     6
  9
$SURFTYPE
 70
     6
  9
$SURFU
 70
     6
  9
$SURFV
 70
     6
  9
$UCSNAME
  2

  9
$UCSORG
 10
0.0
 20
0.0
 30
0.0
  9
$UCSXDIR
 10
1.0
 20
0.0
 30
0.0
  9
$UCSYDIR
 10
0.0
 20
1.0
 30
0.0
  9
$PUCSNAME
  2

  9
$PUCSORG
 10
0.0
 20
0.0
 30
0.0
  9
$PUCSXDIR
 10
1.0
 20
0.0
 30
0.0
  9
$PUCSYDIR
 10
0.0
 20
1.0
 30
0.0
  9
$USERI1
 70
     0
  9
$USERI2
 70
     0
  9
$USERI3
 70
     0
  9
$USERI4
 70
     0
  9
$USERI5
 70
     0
  9
$USERR1
 40
0.0
  9
$USERR2
 40
0.0
  9
$USERR3
 40
0.0
  9
$USERR4
 40
0.0
  9
$USERR5
 40
0.0
  9
$WORLDVIEW
 70
     1
  9
$SHADEDGE
 70
     3
  9
$SHADEDIF
 70
    70
  9
$TILEMODE
 70
     1
  9
$MAXACTVP
 70
    64
  9
$PLIMCHECK
 70
     0
  9
$PEXTMIN
 10
1.0000000000000000E+20
 20
1.0000000000000000E+20
 30
1.0000000000000000E+20
  9
$PEXTMAX
 10
-1.0000000000000000E+20
 20
-1.0000000000000000E+20
 30
-1.0000000000000000E+20
  9
$PLIMMIN
 10
0.0
 20
0.0
  9
$PLIMMAX
 10
12.0
 20
9.0
  9
$UNITMODE
 70
     0
  9
$VISRETAIN
 70
     1
  9
$PLINEGEN
 70
     0
  9
$PSLTSCALE
 70
     1
  0
ENDSEC
  0
SECTION
  2
TABLES
  0
TABLE
  2
VPORT
 70
     1
  0
VPORT
  2
*ACTIVE
 70
     0
 10
0.0
 20
0.0
 11
1.0
 21
1.0
 12
9.0293355796102333
 22
0.7015680021438016
 13
0.0
 23
0.0
 14
1.0
 24
1.0
 15
0.0
 25
0.0
 16
0.0
 26
0.0
 36
27.4770297227429801
 17
3544.6179199218759095
 27
213.5469055175780966
 37
0.0
 40
7.0754416760909713
 41
1.4307692307692299
 42
50.0
 43
0.0
 44
0.0
 50
0.0
 51
0.0
 71
     0
 72
   100
 73
     1
 74
     1
 75
     0
 76
     0
 77
     0
 78
     0
  0
ENDTAB
  0
TABLE
  2
LTYPE
 70
     3
  0
LTYPE
  2
CONTINUOUS
 70
     0
  3
Solid line
 72
    65
 73
     0
 40
0.0
  0
LTYPE
  2
PHANTOM2
 70
     0
  3
___ _ _ ___ _ _ ___ _ _ ___ _ _
 72
    65
 73
     6
 40
1.25
 49
0.625
 49
-0.125
 49
0.125
 49
-0.125
 49
0.125
 49
-0.125
  0
ENDTAB
  0
TABLE
  2
LAYER
 70
     2
  0
LAYER
  2
0
 70
     0
 62
   255
  6
CONTINUOUS
  0
LAYER
  2
DEFPOINTS
 70
     0
 62
     7
  6
CONTINUOUS
  0
ENDTAB
  0
TABLE
  2
STYLE
 70
     1
  0
STYLE
  2
STANDARD
 70
     0
 40
0.0
 41
0.8
 50
0.0
 71
     0
 42
0.2
  3
txt
  4

  0
ENDTAB
  0
TABLE
  2
VIEW
 70
     0
  0
ENDTAB
  0
TABLE
  2
UCS
 70
     0
  0
ENDTAB
  0
TABLE
  2
APPID
 70
     9
  0
APPID
  2
ACAD
 70
     0
  0
APPID
  2
ACAD_MLEADERVER
 70
     0
  0
APPID
  2
ACAD_EXEMPT_FROM_CAD_STANDARDS
 70
     0
  0
APPID
  2
ACAD_NAV_VCDISPLAY
 70
     0
  0
APPID
  2
ACAECLAYERSTANDARD
 70
     0
  0
APPID
  2
ACCMTRANSPARENCY
 70
     0
  0
APPID
  2
ACAD_DSTYLE_DIMJAG
 70
     0
  0
APPID
  2
ACAD_DSTYLE_DIMTALN
 70
     0
  0
APPID
  2
ACDBATTR
 70
     0
  0
ENDTAB
  0
TABLE
  2
DIMSTYLE
 70
     2
  0
DIMSTYLE
  2
STANDARD
 70
     0
  3

  4

  5

  6

  7

 40
1.0
 41
0.1875
 42
0.0625
 43
0.38
 44
0.125
 45
0.0
 46
0.0
 47
0.01
 48
0.01
140
0.15625
141
0.09
142
0.0
143
25.3999999999999986
144
1.0
145
0.0
146
1.0
147
0.09
 71
     1
 72
     0
 73
     1
 74
     1
 75
     0
 76
     0
 77
     0
 78
     4
170
     0
171
     2
172
     0
173
     0
174
     0
175
     0
176
     0
177
     0
178
     0
  0
ENDTAB
  0
ENDSEC
  0
SECTION
  2
BLOCKS
  0
BLOCK
  8
0
  2
$MODEL_SPACE
 70
     0
 10
0.0
 20
0.0
 30
0.0
  3
$MODEL_SPACE
  1

  0
ENDBLK
  5
21
  8
0
  0
BLOCK
 67
     1
  8
0
  2
$PAPER_SPACE
 70
     0
 10
0.0
 20
0.0
 30
0.0
  3
$PAPER_SPACE
  1

  0
ENDBLK
  5
1D
 67
     1
  8
0
  0
ENDSEC
  0
SECTION
  2
ENTITIES
  0
ATTDEF
  5
3930
  8
DEFPOINTS
 10
3555.5486760566109297
 20
210.7465029662529048
 30
0.0
 40
0.001
  1
K-77958T-4A
  3

  2
MODELNUMBER
 70
     0
1001
ACDBATTR
1070
     0
1070
     1
  0
ATTDEF
  5
3931
  8
DEFPOINTS
 10
3555.5486760566109297
 20
210.7448362995862965
 30
0.0
 40
0.001
  1
COMPONENTS
  3

  2
TRADENAME
 70
     0
1001
ACDBATTR
1070
     0
1070
     1
  0
ATTDEF
  5
3932
  8
DEFPOINTS
 10
3555.5486760566109297
 20
210.7431696329196029
 30
0.0
 40
0.001
  1
BATHROOM SINK FAUCET
  3

  2
PRODUCT
 70
     0
1001
ACDBATTR
1070
     0
1070
     1
  0
LINE
  5
B35B
  8
0
 10
3554.6152865008398294
 20
210.9007577299628906
 30
0.0
 11
3554.7235864047402174
 21
210.9267582364628879
 31
0.0
  0
LINE
  5
B35C
  8
0
 10
3554.6077416717398592
 20
210.7422627655629128
 30
0.0
 11
3556.4975054512401584
 21
210.7422627655629128
 31
0.0
  0
LINE
  5
B35D
  8
0
 10
3556.3770587815401996
 20
210.9273021356628988
 30
0.0
 11
3554.7281850637400566
 21
210.9273021356628988
 31
0.0
  0
LINE
  5
B35E
  8
0
 10
3550.1441769438401934
 20
214.7530067266629032
 30
0.0
 11
3550.5478644522399918
 21
215.156645856762907
 31
0.0
  0
LINE
  5
B35F
  8
0
 10
3556.4899606221401882
 20
210.9007577299628906
 30
0.0
 11
3556.3816607183398446
 21
210.9267582364628879
 31
0.0
  0
LINE
  5
B360
  8
0
 10
3550.1441752756400092
 20
214.7251678770628871
 30
0.0
 11
3550.8122676288398907
 21
214.056995449362887
 31
0.0
  0
LINE
  5
B361
  8
0
 10
3550.8401064784397931
 20
214.0569937811629018
 30
0.0
 11
3551.2437939868400463
 21
214.4606329111628895
 31
0.0
  0
LINE
  5
B362
  8
0
 10
3551.9595935900401855
 20
217.6706092222628968
 30
0.0
 11
3551.9595935900401855
 21
217.5131289073628977
 31
0.0
  0
LINE
  5
B363
  8
0
 10
3556.8534919187018204
 20
213.2025530830715923
 30
0.0
 11
3556.5333451477399649
 21
213.2025530829629076
 31
0.0
  0
LINE
  5
B364
  8
0
 10
3556.8534919187400192
 20
213.4190885160629136
 30
0.0
 11
3556.5333451477399649
 21
213.4190885160629136
 31
0.0
  0
LINE
  5
B365
  8
0
 10
3552.0093164749400785
 20
214.7776958364628968
 30
0.0
 11
3554.7356944276398281
 21
214.7776958364628968
 31
0.0
  0
LINE
  5
B366
  8
0
 10
3554.6077416717398592
 20
210.7422627655629128
 30
0.0
 11
3554.6077416717398592
 21
210.8911871598629091
 31
0.0
  0
LINE
  5
B367
  8
0
 10
3554.7356944276398281
 20
210.9469871750629011
 30
0.0
 11
3554.7356944276398281
 21
214.7776958364628968
 31
0.0
  0
LINE
  5
B368
  8
0
 10
3554.7356944276398281
 20
215.7619478049628867
 30
0.0
 11
3554.7356944276398281
 21
217.3367509545628877
 31
0.0
  0
LINE
  5
B369
  8
0
 10
3554.7356944276398281
 20
217.4442312695628914
 30
0.0
 11
3554.7356944276398281
 21
217.7296643403628877
 31
0.0
  0
LINE
  5
B36A
  8
0
 10
3554.755379467039802
 20
217.3749266380629024
 30
0.0
 11
3554.755379467039802
 21
217.3564359939628901
 31
0.0
  0
LINE
  5
B36B
  8
0
 10
3552.0093164749400785
 20
215.7619478049628867
 30
0.0
 11
3554.7356944276398281
 21
215.7619478049628867
 31
0.0
  0
LINE
  5
B36C
  8
0
 10
3556.3498676560398053
 20
217.3749266380629024
 30
0.0
 11
3556.3498676560398053
 21
217.3564359939628901
 31
0.0
  0
LINE
  5
B36D
  8
0
 10
3556.3695526953401895
 20
210.9469871750629011
 30
0.0
 11
3556.3695526953401895
 21
212.9962310134062022
 31
0.0
  0
LINE
  5
B36E
  8
0
 10
3556.3695526953401895
 20
213.3543704570751913
 30
0.0
 11
3556.3695526953401895
 21
217.3367509545628877
 31
0.0
  0
LINE
  5
B36F
  8
0
 10
3556.3695526953401895
 20
217.4442312695628914
 30
0.0
 11
3556.3695526953401895
 21
217.7296643403628877
 31
0.0
  0
LINE
  5
B370
  8
0
 10
3556.1666943566160626
 20
213.0772948796629862
 30
0.0
 11
3556.0333808747641342
 21
212.5606185534738017
 31
0.0
  0
LINE
  5
B371
  8
0
 10
3556.4975054512401584
 20
210.7422627655629128
 30
0.0
 11
3556.4975054512401584
 21
210.8911871598629091
 31
0.0
  0
LINE
  5
B372
  8
0
 10
3556.3807963779081547
 20
213.0398626701295086
 30
0.0
 11
3556.1473028565401364
 21
212.1337797111856105
 31
0.0
  0
LINE
  5
B373
  8
0
 10
3556.3498676560398053
 20
217.3564359939628901
 30
0.0
 11
3554.755379467039802
 21
217.3564359939628901
 31
0.0
  0
LINE
  5
B374
  8
0
 10
3554.755379467039802
 20
217.3564359939628901
 30
0.0
 11
3556.3498676560398053
 21
217.3564359939628901
 31
0.0
  0
LINE
  5
B375
  8
0
 10
3554.7455404107399772
 20
217.4343887498629044
 30
0.0
 11
3556.3597101757400196
 21
217.4343887498629044
 31
0.0
  0
LINE
  5
B376
  8
0
 10
3551.979278629340115
 20
217.4934438679628954
 30
0.0
 11
3554.7356944276398281
 21
217.4934438679628954
 31
0.0
  0
LINE
  5
B377
  8
0
 10
3551.979278629340115
 20
217.6902942616628991
 30
0.0
 11
3554.7356944276398281
 21
217.6902942616628991
 31
0.0
  0
LINE
  5
B378
  8
0
 10
3556.3498676560398053
 20
217.7493493797628901
 30
0.0
 11
3554.755379467039802
 21
217.7493493797628901
 31
0.0
  0
ARC
  5
B379
  8
0
 10
3552.0093164749400785
 20
213.6950186710629112
 30
0.0
 40
2.0669291338999991
 50
90.0
 51
134.9965665998084035
  0
ARC
  5
B37A
  8
0
 10
3555.5526235615329824
 20
215.5802220475831916
 30
0.0
 40
1.9685039369783359
 50
109.6233001597080943
 51
113.7414721693729973
  0
ARC
  5
B37B
  8
0
 10
3555.5526235615479891
 20
215.5802220475831916
 30
0.0
 40
1.9685039369783599
 50
66.2585278306269458
 51
70.3784432475104325
  0
ARC
  5
B37C
  8
0
 10
3552.0093164749400785
 20
213.6950186710629112
 30
0.0
 40
1.0826771654
 50
90.0
 51
134.9965665998084035
  0
ARC
  5
B37D
  8
0
 10
3554.7281817893990592
 20
210.9076170768915972
 30
0.0
 40
0.0196850590435901
 50
89.9904696295355393
 51
103.4999966285963069
  0
ARC
  5
B37E
  8
0
 10
3556.3770653233318626
 20
210.9076170189410107
 30
0.0
 40
0.0196851178088171
 50
76.5000134583148963
 51
90.0190406319404275
  0
ARC
  5
B37F
  8
0
 10
3551.979278629340115
 20
217.6706092222628968
 30
0.0
 40
0.0196850394
 50
90.0
 51
180.0
  0
ARC
  5
B380
  8
0
 10
3551.979278629340115
 20
217.5131289073628977
 30
0.0
 40
0.0196850394
 50
180.0
 51
270.0
  0
ARC
  5
B381
  8
0
 10
3554.755379467039802
 20
217.7296643403628877
 30
0.0
 40
0.0196850394
 50
90.0
 51
180.0
  0
ARC
  5
B382
  8
0
 10
3556.3498676560398053
 20
217.7296643403628877
 30
0.0
 40
0.0196850394
 50
0.0
 51
90.0
  0
ARC
  5
B383
  8
0
 10
3550.1580955345398252
 20
214.7390864677628883
 30
0.0
 40
0.0196850394
 50
134.9965665996990083
 51
224.9965666037074072
  0
ARC
  5
B384
  8
0
 10
3550.8261878877401614
 20
214.0709140400628883
 30
0.0
 40
0.0196850394
 50
224.9965666034125888
 51
314.996566599699122
  0
ARC
  5
B385
  8
0
 10
3556.3498676560398053
 20
210.9469871750629011
 30
0.0
 40
0.0196850394
 50
270.0
 51
0.0
  0
ARC
  5
B386
  8
0
 10
3554.755379467039802
 20
210.9469871750629011
 30
0.0
 40
0.0196850394
 50
180.0
 51
270.0
  0
ARC
  5
B387
  8
0
 10
3554.755379467039802
 20
217.3367509545628877
 30
0.0
 40
0.0196850394
 50
90.0
 51
180.0
  0
ARC
  5
B388
  8
0
 10
3556.3498676560398053
 20
217.3367509545628877
 30
0.0
 40
0.0196850394
 50
0.0
 51
90.0
  0
ARC
  5
B389
  8
0
 10
3554.6175841914400735
 20
210.8911871598629091
 30
0.0
 40
0.0098425197
 50
103.4999999991977973
 51
180.0
  0
ARC
  5
B38A
  8
0
 10
3556.487662931639079
 20
210.8911871598629091
 30
0.0
 40
0.0098425197
 50
0.0
 51
76.5000000008021743
  0
ARC
  5
B38B
  8
0
 10
3556.3597101757400196
 20
217.4442312695628914
 30
0.0
 40
0.0098425197
 50
270.0
 51
0.0
  0
ARC
  5
B38C
  8
0
 10
3554.7455369473400424
 20
217.4442312695628914
 30
0.0
 40
0.0098425197
 50
180.0
 51
270.0
  0
ARC
  5
B38D
  8
0
 10
3554.7632534827398558
 20
217.3749266380629024
 30
0.0
 40
0.0078740156999955
 50
113.7416255142882022
 51
180.0000000000260059
  0
ARC
  5
B38E
  8
0
 10
3556.3419936402401618
 20
217.3749266380629024
 30
0.0
 40
0.0078740157000023
 50
0.0000000000195413
 51
66.2583744856859767
  0
ARC
  5
B38F
  8
0
 10
3554.0836304401768757
 20
215.2698218207129059
 30
0.0
 40
0.8169304916088393
 50
322.957400941217486
 51
37.042599058782443
  0
ARC
  5
B390
  8
0
 10
3556.6210788159469303
 20
212.9574196951440967
 30
0.0
 40
0.4699311617095738
 50
100.7599545209325953
 51
165.2210258160642979
  0
ARC
  5
B391
  8
0
 10
3556.6410780012370196
 20
212.9486711094986902
 30
0.0
 40
0.2757941699397036
 50
112.993564896798901
 51
160.6917193526909955
  0
ARC
  5
B392
  8
0
 10
3555.2888443896699755
 20
212.4490471440261103
 30
0.0
 40
0.9263885106716216
 50
342.0566143747743126
 51
356.3517768109484223
  0
ARC
  5
B393
  8
0
 10
3556.1297618178359699
 20
212.1709030821114936
 30
0.0
 40
0.0410588931623809
 50
197.9748562831146899
 51
349.8225169924368743
  0
ARC
  5
B394
  8
0
 10
3557.0385837438661838
 20
212.4985484224640118
 30
0.0
 40
1.007117425733115
 50
160.9602427612940971
 51
199.7496544459920926
  0
ARC
  5
B395
  8
0
 10
3556.1838097981221836
 20
212.7925626622136122
 30
0.0
 40
0.1031956158807066
 50
133.7368878341466996
 51
160.4502817070618903
  0
ARC
  5
B396
  8
0
 10
3556.8234739304648429
 20
213.3108207995724115
 30
0.0
 40
0.1123520273698218
 50
285.4964092590519158
 51
74.503590721264672
  0
ARC
  5
B397
  8
0
 10
3556.8917768038550093
 20
213.3108207995607017
 30
0.0
 40
0.1148374105634806
 50
109.4742626125051999
 51
250.525737367790299
  0
LINE
  5
B398
  8
0
 10
3554.7600833024321219
 20
217.3821342784578121
 30
0.0
 11
3556.3451638205469862
 21
217.3821342784578121
 31
0.0
  0
ENDSEC
  0
EOF
