  0
SECTION
  2
HEADER
  9
$ACADVER
  1
AC1009
  9
$INSBASE
 10
6377.4342883740300749
 20
398.168482132584586
 30
0.0
  9
$EXTMIN
 10
6376.4894064842301304
 20
390.8212234789494914
 30
0.0
  9
$EXTMAX
 10
6378.8174791824303611
 20
399.551698219849527
 30
0.0
  9
$LIMMIN
 10
0.0
 20
0.0
  9
$LIMMAX
 10
11.6929133858000007
 20
8.2677165353999982
  9
$ORTHOMODE
 70
     0
  9
$REGENMODE
 70
     1
  9
$FILLMODE
 70
     1
  9
$QTEXTMODE
 70
     0
  9
$MIRRTEXT
 70
     0
  9
$DRAGMODE
 70
     2
  9
$LTSCALE
 40
0.6431102362
  9
$OSMODE
 70
  3839
  9
$ATTMODE
 70
     1
  9
$TEXTSIZE
 40
0.2
  9
$TRACEWID
 40
0.05
  9
$TEXTSTYLE
  7
STANDARD
  9
$CLAYER
  8
0
  9
$CELTYPE
  6
BYLAYER
  9
$CECOLOR
 62
   256
  9
$DIMSCALE
 40
1.0
  9
$DIMASZ
 40
0.1875
  9
$DIMEXO
 40
0.0625
  9
$DIMDLI
 40
0.4443307087
  9
$DIMRND
 40
0.0
  9
$DIMDLE
 40
0.0
  9
$DIMEXE
 40
0.125
  9
$DIMTP
 40
0.01
  9
$DIMTM
 40
0.01
  9
$DIMTXT
 40
2.0
  9
$DIMCEN
 40
0.1052362205
  9
$DIMTSZ
 40
0.0
  9
$DIMTOL
 70
     1
  9
$DIMLIM
 70
     0
  9
$DIMTIH
 70
     1
  9
$DIMTOH
 70
     1
  9
$DIMSE1
 70
     0
  9
$DIMSE2
 70
     0
  9
$DIMTAD
 70
     0
  9
$DIMZIN
 70
     0
  9
$DIMBLK
  1

  9
$DIMASO
 70
     1
  9
$DIMSHO
 70
     1
  9
$DIMPOST
  1
\X
  9
$DIMAPOST
  1

  9
$DIMALT
 70
     1
  9
$DIMALTD
 70
     2
  9
$DIMALTF
 40
25.3999999999999986
  9
$DIMLFAC
 40
1.0
  9
$DIMTOFL
 70
     0
  9
$DIMTVP
 40
0.0
  9
$DIMTIX
 70
     0
  9
$DIMSOXD
 70
     0
  9
$DIMSAH
 70
     0
  9
$DIMBLK1
  1

  9
$DIMBLK2
  1

  9
$DIMSTYLE
  2
STANDARD
  9
$DIMCLRD
 70
     0
  9
$DIMCLRE
 70
     0
  9
$DIMCLRT
 70
     0
  9
$DIMTFAC
 40
1.0
  9
$DIMGAP
 40
0.09
  9
$LUNITS
 70
     2
  9
$LUPREC
 70
     4
  9
$SKETCHINC
 40
0.1
  9
$FILLETRAD
 40
0.0
  9
$AUNITS
 70
     0
  9
$AUPREC
 70
     0
  9
$MENU
  1
.
  9
$ELEVATION
 40
0.0
  9
$PELEVATION
 40
0.0
  9
$THICKNESS
 40
0.0
  9
$LIMCHECK
 70
     0
  9
$BLIPMODE
 70
     0
  9
$CHAMFERA
 40
0.0
  9
$CHAMFERB
 40
0.0
  9
$SKPOLY
 70
     0
  9
$TDCREATE
 40
2458060.468368056230247
  9
$TDUPDATE
 40
2460271.4736226862296462
  9
$TDINDWG
 40
0.7308982639
  9
$TDUSRTIMER
 40
0.7308982639
  9
$USRTIMER
 70
     1
  9
$ANGBASE
 50
0.0
  9
$ANGDIR
 70
     0
  9
$PDMODE
 70
     0
  9
$PDSIZE
 40
0.3125
  9
$PLINEWID
 40
0.0
  9
$COORDS
 70
     1
  9
$SPLFRAME
 70
     0
  9
$SPLINETYPE
 70
     6
  9
$SPLINESEGS
 70
     8
  9
$ATTDIA
 70
     1
  9
$ATTREQ
 70
     1
  9
$HANDLING
 70
     1
  9
$HANDSEED
  5
3208F
  9
$SURFTAB1
 70
     6
  9
$SURFTAB2
 70
     6
  9
$SURFTYPE
 70
     6
  9
$SURFU
 70
     6
  9
$SURFV
 70
     6
  9
$UCSNAME
  2

  9
$UCSORG
 10
0.0
 20
0.0
 30
0.0
  9
$UCSXDIR
 10
1.0
 20
0.0
 30
0.0
  9
$UCSYDIR
 10
0.0
 20
1.0
 30
0.0
  9
$PUCSNAME
  2

  9
$PUCSORG
 10
0.0
 20
0.0
 30
0.0
  9
$PUCSXDIR
 10
1.0
 20
0.0
 30
0.0
  9
$PUCSYDIR
 10
0.0
 20
1.0
 30
0.0
  9
$USERI1
 70
     0
  9
$USERI2
 70
     0
  9
$USERI3
 70
     0
  9
$USERI4
 70
     0
  9
$USERI5
 70
     0
  9
$USERR1
 40
0.0
  9
$USERR2
 40
0.0
  9
$USERR3
 40
0.0
  9
$USERR4
 40
0.0
  9
$USERR5
 40
0.0
  9
$WORLDVIEW
 70
     1
  9
$SHADEDGE
 70
     3
  9
$SHADEDIF
 70
    70
  9
$TILEMODE
 70
     1
  9
$MAXACTVP
 70
    64
  9
$PLIMCHECK
 70
     0
  9
$PEXTMIN
 10
1.0000000000000000E+20
 20
1.0000000000000000E+20
 30
1.0000000000000000E+20
  9
$PEXTMAX
 10
-1.0000000000000000E+20
 20
-1.0000000000000000E+20
 30
-1.0000000000000000E+20
  9
$PLIMMIN
 10
0.0
 20
0.0
  9
$PLIMMAX
 10
12.0
 20
9.0
  9
$UNITMODE
 70
     0
  9
$VISRETAIN
 70
     1
  9
$PLINEGEN
 70
     0
  9
$PSLTSCALE
 70
     1
  0
ENDSEC
  0
SECTION
  2
TABLES
  0
TABLE
  2
VPORT
 70
     1
  0
VPORT
  2
*ACTIVE
 70
     0
 10
0.0
 20
0.0
 11
1.0
 21
1.0
 12
2466.2880863880182005
 22
262.6068557468605036
 13
0.0
 23
0.0
 14
1.0
 24
1.0
 15
0.0
 25
0.0
 16
0.0
 26
0.0
 36
60.4960186965801583
 17
3911.3653564453120453
 27
132.5796051025390057
 37
0.0
 40
8.7929841065866867
 41
2.2831541218637992
 42
50.0
 43
0.0
 44
0.0
 50
0.0
 51
0.0
 71
     0
 72
   100
 73
     1
 74
     1
 75
     0
 76
     0
 77
     0
 78
     0
  0
ENDTAB
  0
TABLE
  2
LTYPE
 70
     2
  0
LTYPE
  2
CONTINUOUS
 70
     0
  3
Solid line
 72
    65
 73
     0
 40
0.0
  0
LTYPE
  2
PHANTOM2
 70
     0
  3
___ _ _ ___ _ _ ___ _ _ ___ _ _
 72
    65
 73
     6
 40
1.25
 49
0.625
 49
-0.125
 49
0.125
 49
-0.125
 49
0.125
 49
-0.125
  0
ENDTAB
  0
TABLE
  2
LAYER
 70
     2
  0
LAYER
  2
0
 70
     0
 62
   255
  6
CONTINUOUS
  0
LAYER
  2
DEFPOINTS
 70
     0
 62
     7
  6
CONTINUOUS
  0
ENDTAB
  0
TABLE
  2
STYLE
 70
     1
  0
STYLE
  2
STANDARD
 70
     0
 40
0.0
 41
0.8
 50
0.0
 71
     0
 42
0.2
  3
txt
  4

  0
ENDTAB
  0
TABLE
  2
VIEW
 70
     0
  0
ENDTAB
  0
TABLE
  2
UCS
 70
     0
  0
ENDTAB
  0
TABLE
  2
APPID
 70
    11
  0
APPID
  2
ACAD
 70
     0
  0
APPID
  2
ACAD_MLEADERVER
 70
     0
  0
APPID
  2
ACAD_EXEMPT_FROM_CAD_STANDARDS
 70
     0
  0
APPID
  2
ACAD_NAV_VCDISPLAY
 70
     0
  0
APPID
  2
ACAECLAYERSTANDARD
 70
     0
  0
APPID
  2
ACCMTRANSPARENCY
 70
     0
  0
APPID
  2
ACAD_DSTYLE_DIMJAG
 70
     0
  0
APPID
  2
ACAD_DSTYLE_DIMTALN
 70
     0
  0
APPID
  2
ACDBATTR
 70
     0
  0
APPID
  2
ACADANNOTATIVE
 70
     0
  0
APPID
  2
DCO15
 70
     0
  0
ENDTAB
  0
TABLE
  2
DIMSTYLE
 70
     1
  0
DIMSTYLE
  2
STANDARD
 70
     0
  3

  4

  5

  6

  7

 40
1.0
 41
0.1875
 42
0.0625
 43
0.38
 44
0.125
 45
0.0
 46
0.0
 47
0.01
 48
0.01
140
0.15625
141
0.09
142
0.0
143
25.3999999999999986
144
1.0
145
0.0
146
1.0
147
0.09
 71
     1
 72
     0
 73
     1
 74
     1
 75
     0
 76
     0
 77
     0
 78
     4
170
     0
171
     2
172
     0
173
     0
174
     0
175
     0
176
     0
177
     0
178
     0
  0
ENDTAB
  0
ENDSEC
  0
SECTION
  2
BLOCKS
  0
BLOCK
  8
0
  2
$MODEL_SPACE
 70
     0
 10
0.0
 20
0.0
 30
0.0
  3
$MODEL_SPACE
  1

  0
ENDBLK
  5
21
  8
0
  0
BLOCK
 67
     1
  8
0
  2
$PAPER_SPACE
 70
     0
 10
0.0
 20
0.0
 30
0.0
  3
$PAPER_SPACE
  1

  0
ENDBLK
  5
1D
 67
     1
  8
0
  0
ENDSEC
  0
SECTION
  2
ENTITIES
  0
CIRCLE
  5
31C38
  8
0
 10
6377.4342883740300749
 20
398.1645704036495204
 30
0.0
 40
0.8169291338999983
  0
LINE
  5
31C39
  8
0
 10
6376.9421623897305835
 20
397.5125081172141108
 30
0.0
 11
6376.9421623897305835
 21
391.1749546949495198
 31
0.0
  0
ARC
  5
31C3A
  8
0
 10
6377.2546179132732505
 20
391.1881121966230808
 30
0.0
 40
0.3127324320292388
 50
182.4113005899255029
 51
237.3203031024677045
  0
ARC
  5
31C3B
  8
0
 10
6377.4544909890355484
 20
391.5268863636478045
 30
0.0
 40
0.705952018549225
 50
238.5122248511200098
 51
268.3601114552890863
  0
ARC
  5
31C3C
  8
0
 10
6377.4301298292293723
 20
391.443934884720079
 30
0.0
 40
0.6227252912573958
 50
270.3826227074766848
 51
311.6722237956877279
  0
ARC
  5
31C3D
  8
0
 10
6377.6465770501454244
 20
391.1769599715534014
 30
0.0
 40
0.2798444927637265
 50
314.9141138891292826
 51
359.589433158794975
  0
LINE
  5
31C3E
  8
0
 10
6377.9264143582286124
 20
391.1749546949495198
 30
0.0
 11
6377.9264143582286124
 21
397.5125081171386228
 31
0.0
  0
LINE
  5
31C3F
  8
0
 10
6377.5327135708303103
 20
397.3535921730850191
 30
0.0
 11
6377.5327135708303103
 21
394.5912254714494907
 31
0.0
  0
ARC
  5
31C40
  8
0
 10
6377.5130285314298817
 20
394.5912254714494907
 30
0.0
 40
0.0196850394000019
 50
270.0000002910355192
 51
359.9999999999968168
  0
LINE
  5
31C41
  8
0
 10
6377.5130285315299261
 20
394.5715404320495168
 30
0.0
 11
6377.3555482165311332
 21
394.5715404312495025
 31
0.0
  0
ARC
  5
31C42
  8
0
 10
6377.3555482164310888
 20
394.5912254705494888
 30
0.0
 40
0.019685039299997
 50
179.999997380367688
 51
270.0000002910355192
  0
LINE
  5
31C43
  8
0
 10
6377.3358631771297951
 20
394.5912254714494907
 30
0.0
 11
6377.3358633034285958
 21
397.3535921577687873
 31
0.0
  0
ARC
  5
31C44
  8
0
 10
6377.4342883740300749
 20
398.1645704036495204
 30
0.0
 40
0.9448818897999993
 50
301.3881664593228038
 51
38.5771844668924686
  0
ARC
  5
31C45
  8
0
 10
6377.4342883740300749
 20
398.1645704036495204
 30
0.0
 40
0.9448818897999929
 50
51.7276656268396025
 51
179.9999993307681052
  0
ARC
  5
31C46
  8
0
 10
6377.4342883740300749
 20
398.1645704036495204
 30
0.0
 40
0.9448818898000007
 50
179.9999993307681052
 51
238.6118335335883103
  0
LINE
  5
31C47
  8
0
 10
6377.9283862504362332
 20
398.8151397683952837
 30
0.0
 11
6378.6585998947302869
 21
399.5459326052495044
 31
0.0
  0
ARC
  5
31C48
  8
0
 10
6378.6725193195306929
 20
399.5320131806797121
 30
0.0
 40
0.0196850391698707
 50
44.9999995263532568
 51
135.0000004736305925
  0
LINE
  5
31C49
  8
0
 10
6378.6864387443301894
 20
399.5459326052495044
 30
0.0
 11
6378.8117135678312479
 21
399.4206577818495134
 31
0.0
  0
ARC
  5
31C4A
  8
0
 10
6378.7977941431463478
 20
399.4067383570019274
 30
0.0
 40
0.0196850392849318
 50
314.9999996554299742
 51
45.0000003349343984
  0
LINE
  5
31C4B
  8
0
 10
6378.8117135678267005
 20
399.3928189321517834
 30
0.0
 11
6378.0818481872747725
 21
398.6626060430212988
 31
0.0
  0
ATTDEF
  5
31D35
  8
DEFPOINTS
 10
6377.4231680162138218
 20
398.1669698742214791
 30
0.0
 40
0.001
  1
K-77960T-4A
  3

  2
MODELNUMBER
 70
     0
1001
ACDBATTR
1070
     0
1070
     1
  0
ATTDEF
  5
31D36
  8
DEFPOINTS
 10
6377.4230422065584207
 20
398.165303033842406
 30
0.0
 40
0.001
  1
COMPONENTS
  3

  2
TRADENAME
 70
     0
1001
ACDBATTR
1070
     0
1070
     1
  0
ATTDEF
  5
31D37
  8
DEFPOINTS
 10
6377.4231680162138218
 20
398.1636365408882057
 30
0.0
 40
0.001
  1
BATHROOM SINK FAUCET
  3

  2
PRODUCT
 70
     0
1001
ACDBATTR
1070
     0
1070
     1
  0
ENDSEC
  0
EOF
