  0
SECTION
  2
HEADER
  9
$ACADVER
  1
AC1009
  9
$INSBASE
 10
315.2819042982482074
 20
-3.5692079502174661
 30
0.0
  9
$EXTMIN
 10
308.502147061048106
 20
-3.5692079502174661
 30
0.0
  9
$EXTMAX
 10
316.463006660548217
 20
7.1000833884825321
 30
0.0
  9
$LIMMIN
 10
0.0
 20
0.0
  9
$LIMMAX
 10
22.0
 20
17.0
  9
$ORTHOMODE
 70
     0
  9
$REGENMODE
 70
     1
  9
$FILLMODE
 70
     1
  9
$QTEXTMODE
 70
     0
  9
$MIRRTEXT
 70
     0
  9
$DRAGMODE
 70
     2
  9
$LTSCALE
 40
1.2099999999999991
  9
$OSMODE
 70
  4095
  9
$ATTMODE
 70
     1
  9
$TEXTSIZE
 40
0.2
  9
$TRACEWID
 40
0.05
  9
$TEXTSTYLE
  7
STANDARD
  9
$CLAYER
  8
0
  9
$CELTYPE
  6
BYLAYER
  9
$CECOLOR
 62
   256
  9
$DIMSCALE
 40
1.0
  9
$DIMASZ
 40
0.1875
  9
$DIMEXO
 40
0.0625
  9
$DIMDLI
 40
0.38
  9
$DIMRND
 40
0.0
  9
$DIMDLE
 40
0.0
  9
$DIMEXE
 40
0.125
  9
$DIMTP
 40
1.5
  9
$DIMTM
 40
1.5
  9
$DIMTXT
 40
1.5
  9
$DIMCEN
 40
0.09
  9
$DIMTSZ
 40
0.0
  9
$DIMTOL
 70
     0
  9
$DIMLIM
 70
     0
  9
$DIMTIH
 70
     1
  9
$DIMTOH
 70
     1
  9
$DIMSE1
 70
     0
  9
$DIMSE2
 70
     0
  9
$DIMTAD
 70
     0
  9
$DIMZIN
 70
     4
  9
$DIMBLK
  1

  9
$DIMASO
 70
     1
  9
$DIMSHO
 70
     1
  9
$DIMPOST
  1

  9
$DIMAPOST
  1

  9
$DIMALT
 70
     0
  9
$DIMALTD
 70
     2
  9
$DIMALTF
 40
25.3999999999999986
  9
$DIMLFAC
 40
1.0
  9
$DIMTOFL
 70
     0
  9
$DIMTVP
 40
0.0
  9
$DIMTIX
 70
     0
  9
$DIMSOXD
 70
     0
  9
$DIMSAH
 70
     0
  9
$DIMBLK1
  1

  9
$DIMBLK2
  1

  9
$DIMSTYLE
  2
STANDARD
  9
$DIMCLRD
 70
     0
  9
$DIMCLRE
 70
     0
  9
$DIMCLRT
 70
     0
  9
$DIMTFAC
 40
1.0
  9
$DIMGAP
 40
0.09
  9
$LUNITS
 70
     2
  9
$LUPREC
 70
     4
  9
$SKETCHINC
 40
0.1
  9
$FILLETRAD
 40
0.0
  9
$AUNITS
 70
     0
  9
$AUPREC
 70
     0
  9
$MENU
  1
.
  9
$ELEVATION
 40
0.0
  9
$PELEVATION
 40
0.0
  9
$THICKNESS
 40
0.0
  9
$LIMCHECK
 70
     0
  9
$BLIPMODE
 70
     0
  9
$CHAMFERA
 40
0.0
  9
$CHAMFERB
 40
0.0
  9
$SKPOLY
 70
     0
  9
$TDCREATE
 40
2457827.4934837957844138
  9
$TDUPDATE
 40
2460103.952442130073905
  9
$TDINDWG
 40
0.5160899306
  9
$TDUSRTIMER
 40
0.5160899306
  9
$USRTIMER
 70
     1
  9
$ANGBASE
 50
0.0
  9
$ANGDIR
 70
     0
  9
$PDMODE
 70
     0
  9
$PDSIZE
 40
0.3125
  9
$PLINEWID
 40
0.0
  9
$COORDS
 70
     1
  9
$SPLFRAME
 70
     0
  9
$SPLINETYPE
 70
     6
  9
$SPLINESEGS
 70
     8
  9
$ATTDIA
 70
     1
  9
$ATTREQ
 70
     1
  9
$HANDLING
 70
     1
  9
$HANDSEED
  5
665A
  9
$SURFTAB1
 70
     6
  9
$SURFTAB2
 70
     6
  9
$SURFTYPE
 70
     6
  9
$SURFU
 70
     6
  9
$SURFV
 70
     6
  9
$UCSNAME
  2

  9
$UCSORG
 10
0.0
 20
0.0
 30
0.0
  9
$UCSXDIR
 10
1.0
 20
0.0
 30
0.0
  9
$UCSYDIR
 10
0.0
 20
1.0
 30
0.0
  9
$PUCSNAME
  2

  9
$PUCSORG
 10
0.0
 20
0.0
 30
0.0
  9
$PUCSXDIR
 10
1.0
 20
0.0
 30
0.0
  9
$PUCSYDIR
 10
0.0
 20
1.0
 30
0.0
  9
$USERI1
 70
     0
  9
$USERI2
 70
     0
  9
$USERI3
 70
     0
  9
$USERI4
 70
     0
  9
$USERI5
 70
     0
  9
$USERR1
 40
0.0
  9
$USERR2
 40
0.0
  9
$USERR3
 40
0.0
  9
$USERR4
 40
0.0
  9
$USERR5
 40
0.0
  9
$WORLDVIEW
 70
     1
  9
$SHADEDGE
 70
     3
  9
$SHADEDIF
 70
    70
  9
$TILEMODE
 70
     1
  9
$MAXACTVP
 70
    48
  9
$PLIMCHECK
 70
     0
  9
$PEXTMIN
 10
1.0000000000000000E+20
 20
1.0000000000000000E+20
 30
1.0000000000000000E+20
  9
$PEXTMAX
 10
-1.0000000000000000E+20
 20
-1.0000000000000000E+20
 30
-1.0000000000000000E+20
  9
$PLIMMIN
 10
0.0
 20
0.0
  9
$PLIMMAX
 10
12.0
 20
9.0
  9
$UNITMODE
 70
     0
  9
$VISRETAIN
 70
     1
  9
$PLINEGEN
 70
     0
  9
$PSLTSCALE
 70
     1
  0
ENDSEC
  0
SECTION
  2
TABLES
  0
TABLE
  2
VPORT
 70
     1
  0
VPORT
  2
*ACTIVE
 70
     0
 10
0.0
 20
0.0
 11
1.0
 21
1.0
 12
101.5042608446292007
 22
-5.4366199178429042
 13
0.0
 23
0.0
 14
1.0
 24
1.0
 15
0.0
 25
0.0
 16
-0.0000000000000284
 26
0.0
 36
157.2215818301446859
 17
210.9789276123046875
 27
7.2024491855605604
 37
0.0
 40
10.7537027120845696
 41
1.4307692307692299
 42
50.0
 43
0.0
 44
0.0
 50
0.0
 51
0.0
 71
     0
 72
   100
 73
     1
 74
     1
 75
     0
 76
     0
 77
     0
 78
     0
  0
ENDTAB
  0
TABLE
  2
LTYPE
 70
     2
  0
LTYPE
  2
CONTINUOUS
 70
     0
  3
Solid line
 72
    65
 73
     0
 40
0.0
  0
LTYPE
  2
PHANTOM2
 70
     0
  3
___ _ _ ___ _ _ ___ _ _ ___ _ _
 72
    65
 73
     6
 40
1.25
 49
0.625
 49
-0.125
 49
0.125
 49
-0.125
 49
0.125
 49
-0.125
  0
ENDTAB
  0
TABLE
  2
LAYER
 70
     2
  0
LAYER
  2
0
 70
     0
 62
     7
  6
CONTINUOUS
  0
LAYER
  2
DEFPOINTS
 70
     0
 62
     7
  6
CONTINUOUS
  0
ENDTAB
  0
TABLE
  2
STYLE
 70
     1
  0
STYLE
  2
STANDARD
 70
     0
 40
0.0
 41
0.8
 50
0.0
 71
     0
 42
0.2
  3
txt
  4

  0
ENDTAB
  0
TABLE
  2
VIEW
 70
     0
  0
ENDTAB
  0
TABLE
  2
UCS
 70
     0
  0
ENDTAB
  0
TABLE
  2
APPID
 70
     9
  0
APPID
  2
ACAD
 70
     0
  0
APPID
  2
ACAD_MLEADERVER
 70
     0
  0
APPID
  2
ACAD_EXEMPT_FROM_CAD_STANDARDS
 70
     0
  0
APPID
  2
ACAD_NAV_VCDISPLAY
 70
     0
  0
APPID
  2
ACADANNOMONITORALERTICONDI
 70
     0
  0
APPID
  2
ACAD_DSTYLE_DIMJAG
 70
     0
  0
APPID
  2
ACAD_DSTYLE_DIMTALN
 70
     0
  0
APPID
  2
ACDBATTR
 70
     0
  0
APPID
  2
DCO15
 70
     0
  0
ENDTAB
  0
TABLE
  2
DIMSTYLE
 70
     1
  0
DIMSTYLE
  2
STANDARD
 70
     0
  3

  4

  5

  6

  7

 40
1.0
 41
0.1875
 42
0.0625
 43
0.38
 44
0.125
 45
0.0
 46
0.0
 47
1.5
 48
1.5
140
1.5
141
0.09
142
0.0
143
25.3999999999999986
144
1.0
145
0.0
146
1.0
147
0.09
 71
     0
 72
     0
 73
     1
 74
     1
 75
     0
 76
     0
 77
     0
 78
     4
170
     0
171
     2
172
     0
173
     0
174
     0
175
     0
176
     0
177
     0
178
     0
  0
ENDTAB
  0
ENDSEC
  0
SECTION
  2
BLOCKS
  0
BLOCK
  8
0
  2
$MODEL_SPACE
 70
     0
 10
0.0
 20
0.0
 30
0.0
  3
$MODEL_SPACE
  1

  0
ENDBLK
  5
21
  8
0
  0
BLOCK
 67
     1
  8
0
  2
$PAPER_SPACE
 70
     0
 10
0.0
 20
0.0
 30
0.0
  3
$PAPER_SPACE
  1

  0
ENDBLK
  5
1D
 67
     1
  8
0
  0
ENDSEC
  0
SECTION
  2
ENTITIES
  0
ATTDEF
  5
4EF9
  8
DEFPOINTS
 10
315.2776831216052074
 20
-3.565136697868013
 30
0.0
 40
0.001
  1
K-77967T
  3

  2
MODELNUMBER
 70
     0
1001
ACDBATTR
1070
     0
1070
     1
  0
ATTDEF
  5
4EFA
  8
DEFPOINTS
 10
315.2776831216052074
 20
-3.5668033645346919
 30
0.0
 40
0.001
  1
COMPONENTS
  3

  2
TRADENAME
 70
     0
1001
ACDBATTR
1070
     0
1070
     1
  0
ATTDEF
  5
4EFB
  8
DEFPOINTS
 10
315.2776831216052074
 20
-3.5684700312013709
 30
0.0
 40
0.001
  1
BATHROOM SINK SPOUT
  3

  2
PRODUCT
 70
     0
1001
ACDBATTR
1070
     0
1070
     1
  0
LINE
  5
6535
  8
0
 10
308.5024461210481945
 20
3.2283905526825332
 30
0.0
 11
308.6631048681481957
 21
4.1395315839825333
 31
0.0
  0
LINE
  5
6536
  8
0
 10
309.471745090548211
 20
3.0574769919825342
 30
0.0
 11
309.6324038376482122
 21
3.9686180232825339
 31
0.0
  0
LINE
  5
6537
  8
0
 10
308.5184138292481748
 20
3.205586302082533
 30
0.0
 11
309.4489408399481931
 21
3.041509283782533
 31
0.0
  0
ARC
  5
6538
  8
0
 10
312.1913531171481964
 20
3.5174062230825331
 30
0.0
 40
3.5826771653999989
 50
0.0
 51
169.9999999999998863
  0
ARC
  5
6539
  8
0
 10
312.1913531171481964
 20
3.5174062230825331
 30
0.0
 40
2.5984251969000001
 50
0.0
 51
169.9999999999998863
  0
ARC
  5
653A
  8
0
 10
309.4523591111482119
 20
3.060895263182533
 30
0.0
 40
0.0196850394
 50
259.999999999998181
 51
350.0
  0
ARC
  5
653B
  8
0
 10
308.5218321004480799
 20
3.2249722814825339
 30
0.0
 40
0.0196850394
 50
169.9999999999998863
 51
259.999999999998181
  0
LINE
  5
653C
  8
0
 10
314.1106444557481723
 20
-3.5692079502174661
 30
0.0
 11
316.4531641408481732
 21
-3.5692079502174661
 31
0.0
  0
LINE
  5
653D
  8
0
 10
314.744482091948214
 20
-3.2595296327174661
 30
0.0
 11
314.1159573532481772
 21
-3.4081441408174671
 31
0.0
  0
LINE
  5
653E
  8
0
 10
315.7740302825482104
 20
-3.2542473202174671
 30
0.0
 11
314.7897783140480783
 21
-3.2542473202174671
 31
0.0
  0
LINE
  5
653F
  8
0
 10
315.8193265046480747
 20
-3.2595296327174661
 30
0.0
 11
316.4478512433482251
 21
-3.4081441408174671
 31
0.0
  0
LINE
  5
6540
  8
0
 10
314.1008019360480716
 20
-3.4273009489174671
 30
0.0
 11
314.1008019360480716
 21
-3.5593654305174658
 31
0.0
  0
LINE
  5
6541
  8
0
 10
314.7897783140480783
 20
-3.2345622809174648
 30
0.0
 11
314.7897783140480783
 21
3.5174062230825331
 31
0.0
  0
LINE
  5
6542
  8
0
 10
315.7740302825482104
 20
-3.2345622809174648
 30
0.0
 11
315.7740302825482104
 21
3.5174062230825331
 31
0.0
  0
LINE
  5
6543
  8
0
 10
316.4630066604481726
 20
-3.4273009489174671
 30
0.0
 11
316.4630066604481726
 21
-3.5593654305174658
 31
0.0
  0
ARC
  5
6544
  8
0
 10
315.7740302825482104
 20
-3.4510977139174668
 30
0.0
 40
0.1968503937
 50
76.6967576673998224
 51
90.0
  0
ARC
  5
6545
  8
0
 10
314.7897783140480783
 20
-3.4510977139174668
 30
0.0
 40
0.1968503937
 50
90.0
 51
103.3032423326002061
  0
ARC
  5
6546
  8
0
 10
316.4433216211480726
 20
-3.4273009489174671
 30
0.0
 40
0.0196850394
 50
0.0
 51
76.6967576679016929
  0
ARC
  5
6547
  8
0
 10
314.1204869754482161
 20
-3.4273009489174671
 30
0.0
 40
0.0196850394
 50
103.3032423320983071
 51
180.0
  0
ARC
  5
6548
  8
0
 10
315.7543452433188804
 20
-3.23456228098817
 30
0.0
 40
0.0196850392292976
 50
269.9999995016440266
 51
0.0000002057886561
  0
ARC
  5
6549
  8
0
 10
314.8094633532775219
 20
-3.2345622809881638
 30
0.0
 40
0.0196850392293016
 50
179.99999979422671
 51
270.0000005007140089
  0
ARC
  5
654A
  8
0
 10
316.4531641408481732
 20
-3.5593654305174658
 30
0.0
 40
0.0098425197
 50
270.0
 51
0.0
  0
ARC
  5
654B
  8
0
 10
314.1106444557481723
 20
-3.5593654305174658
 30
0.0
 40
0.0098425197
 50
180.0
 51
270.0
  0
LINE
  5
654C
  8
0
 10
316.4478512437710833
 20
-3.4081441409174662
 30
0.0
 11
314.1159573528252054
 21
-3.4081441409174662
 31
0.0
  0
ENDSEC
  0
EOF
