  0
SECTION
  2
HEADER
  9
$ACADVER
  1
AC1009
  9
$INSBASE
 10
3396.5030560293480448
 20
134.0100598548482935
 30
0.0
  9
$EXTMIN
 10
3395.3219536671481364
 20
134.0100598548482935
 30
0.0
  9
$EXTMAX
 10
3397.6841583915470437
 20
144.3759138178951957
 30
0.0
  9
$LIMMIN
 10
0.0
 20
0.0
  9
$LIMMAX
 10
11.6929133858000007
 20
8.2677165353999982
  9
$ORTHOMODE
 70
     1
  9
$REGENMODE
 70
     1
  9
$FILLMODE
 70
     1
  9
$QTEXTMODE
 70
     0
  9
$MIRRTEXT
 70
     0
  9
$DRAGMODE
 70
     2
  9
$LTSCALE
 40
0.6431102362
  9
$OSMODE
 70
  4095
  9
$ATTMODE
 70
     1
  9
$TEXTSIZE
 40
0.2
  9
$TRACEWID
 40
0.05
  9
$TEXTSTYLE
  7
STANDARD
  9
$CLAYER
  8
0
  9
$CELTYPE
  6
BYLAYER
  9
$CECOLOR
 62
   256
  9
$DIMSCALE
 40
1.0
  9
$DIMASZ
 40
0.1875
  9
$DIMEXO
 40
0.0625
  9
$DIMDLI
 40
0.4443307087
  9
$DIMRND
 40
0.0
  9
$DIMDLE
 40
0.0
  9
$DIMEXE
 40
0.125
  9
$DIMTP
 40
0.01
  9
$DIMTM
 40
0.01
  9
$DIMTXT
 40
2.0
  9
$DIMCEN
 40
0.1052362205
  9
$DIMTSZ
 40
0.0
  9
$DIMTOL
 70
     1
  9
$DIMLIM
 70
     0
  9
$DIMTIH
 70
     1
  9
$DIMTOH
 70
     1
  9
$DIMSE1
 70
     0
  9
$DIMSE2
 70
     0
  9
$DIMTAD
 70
     0
  9
$DIMZIN
 70
     0
  9
$DIMBLK
  1

  9
$DIMASO
 70
     1
  9
$DIMSHO
 70
     1
  9
$DIMPOST
  1
\X
  9
$DIMAPOST
  1

  9
$DIMALT
 70
     1
  9
$DIMALTD
 70
     2
  9
$DIMALTF
 40
25.3999999999999986
  9
$DIMLFAC
 40
1.0
  9
$DIMTOFL
 70
     0
  9
$DIMTVP
 40
0.0
  9
$DIMTIX
 70
     0
  9
$DIMSOXD
 70
     0
  9
$DIMSAH
 70
     0
  9
$DIMBLK1
  1

  9
$DIMBLK2
  1

  9
$DIMSTYLE
  2
STANDARD
  9
$DIMCLRD
 70
     0
  9
$DIMCLRE
 70
     0
  9
$DIMCLRT
 70
     0
  9
$DIMTFAC
 40
1.0
  9
$DIMGAP
 40
0.09
  9
$LUNITS
 70
     2
  9
$LUPREC
 70
     4
  9
$SKETCHINC
 40
0.1
  9
$FILLETRAD
 40
0.0
  9
$AUNITS
 70
     0
  9
$AUPREC
 70
     0
  9
$MENU
  1
.
  9
$ELEVATION
 40
0.0
  9
$PELEVATION
 40
0.0
  9
$THICKNESS
 40
0.0
  9
$LIMCHECK
 70
     0
  9
$BLIPMODE
 70
     0
  9
$CHAMFERA
 40
0.0
  9
$CHAMFERB
 40
0.0
  9
$SKPOLY
 70
     0
  9
$TDCREATE
 40
2458060.468368056230247
  9
$TDUPDATE
 40
2459537.7816203702241182
  9
$TDINDWG
 40
0.3838612269
  9
$TDUSRTIMER
 40
0.3838612269
  9
$USRTIMER
 70
     1
  9
$ANGBASE
 50
0.0
  9
$ANGDIR
 70
     0
  9
$PDMODE
 70
     0
  9
$PDSIZE
 40
0.3125
  9
$PLINEWID
 40
0.0
  9
$COORDS
 70
     1
  9
$SPLFRAME
 70
     0
  9
$SPLINETYPE
 70
     6
  9
$SPLINESEGS
 70
     8
  9
$ATTDIA
 70
     1
  9
$ATTREQ
 70
     1
  9
$HANDLING
 70
     1
  9
$HANDSEED
  5
19F68
  9
$SURFTAB1
 70
     6
  9
$SURFTAB2
 70
     6
  9
$SURFTYPE
 70
     6
  9
$SURFU
 70
     6
  9
$SURFV
 70
     6
  9
$UCSNAME
  2

  9
$UCSORG
 10
0.0
 20
0.0
 30
0.0
  9
$UCSXDIR
 10
1.0
 20
0.0
 30
0.0
  9
$UCSYDIR
 10
0.0
 20
1.0
 30
0.0
  9
$PUCSNAME
  2

  9
$PUCSORG
 10
0.0
 20
0.0
 30
0.0
  9
$PUCSXDIR
 10
1.0
 20
0.0
 30
0.0
  9
$PUCSYDIR
 10
0.0
 20
1.0
 30
0.0
  9
$USERI1
 70
     0
  9
$USERI2
 70
     0
  9
$USERI3
 70
     0
  9
$USERI4
 70
     0
  9
$USERI5
 70
     0
  9
$USERR1
 40
0.0
  9
$USERR2
 40
0.0
  9
$USERR3
 40
0.0
  9
$USERR4
 40
0.0
  9
$USERR5
 40
0.0
  9
$WORLDVIEW
 70
     1
  9
$SHADEDGE
 70
     3
  9
$SHADEDIF
 70
    70
  9
$TILEMODE
 70
     1
  9
$MAXACTVP
 70
    64
  9
$PLIMCHECK
 70
     0
  9
$PEXTMIN
 10
1.0000000000000000E+20
 20
1.0000000000000000E+20
 30
1.0000000000000000E+20
  9
$PEXTMAX
 10
-1.0000000000000000E+20
 20
-1.0000000000000000E+20
 30
-1.0000000000000000E+20
  9
$PLIMMIN
 10
0.0
 20
0.0
  9
$PLIMMAX
 10
12.0
 20
9.0
  9
$UNITMODE
 70
     0
  9
$VISRETAIN
 70
     1
  9
$PLINEGEN
 70
     0
  9
$PSLTSCALE
 70
     1
  0
ENDSEC
  0
SECTION
  2
TABLES
  0
TABLE
  2
VPORT
 70
     1
  0
VPORT
  2
*ACTIVE
 70
     0
 10
0.0
 20
0.0
 11
1.0
 21
1.0
 12
-407.0410113534649099
 22
13.1977246396218497
 13
0.0
 23
0.0
 14
1.0
 24
1.0
 15
0.0
 25
0.0
 16
0.0
 26
0.0
 36
17.1152628219792007
 17
3803.5440673828129547
 27
125.9952621967499056
 37
0.0
 40
10.4420734774811308
 41
2.344785276073619
 42
50.0
 43
0.0
 44
0.0
 50
0.0
 51
0.0
 71
     0
 72
   100
 73
     1
 74
     1
 75
     0
 76
     0
 77
     0
 78
     0
  0
ENDTAB
  0
TABLE
  2
LTYPE
 70
     2
  0
LTYPE
  2
CONTINUOUS
 70
     0
  3
Solid line
 72
    65
 73
     0
 40
0.0
  0
LTYPE
  2
PHANTOM2
 70
     0
  3
___ _ _ ___ _ _ ___ _ _ ___ _ _
 72
    65
 73
     6
 40
1.25
 49
0.625
 49
-0.125
 49
0.125
 49
-0.125
 49
0.125
 49
-0.125
  0
ENDTAB
  0
TABLE
  2
LAYER
 70
     2
  0
LAYER
  2
0
 70
     0
 62
   255
  6
CONTINUOUS
  0
LAYER
  2
DEFPOINTS
 70
     0
 62
     7
  6
CONTINUOUS
  0
ENDTAB
  0
TABLE
  2
STYLE
 70
     1
  0
STYLE
  2
STANDARD
 70
     0
 40
0.0
 41
0.8
 50
0.0
 71
     0
 42
0.2
  3
txt
  4

  0
ENDTAB
  0
TABLE
  2
VIEW
 70
     0
  0
ENDTAB
  0
TABLE
  2
UCS
 70
     0
  0
ENDTAB
  0
TABLE
  2
APPID
 70
     9
  0
APPID
  2
ACAD
 70
     0
  0
APPID
  2
ACAD_MLEADERVER
 70
     0
  0
APPID
  2
ACAD_EXEMPT_FROM_CAD_STANDARDS
 70
     0
  0
APPID
  2
ACAD_NAV_VCDISPLAY
 70
     0
  0
APPID
  2
ACAECLAYERSTANDARD
 70
     0
  0
APPID
  2
ACCMTRANSPARENCY
 70
     0
  0
APPID
  2
ACAD_DSTYLE_DIMJAG
 70
     0
  0
APPID
  2
ACAD_DSTYLE_DIMTALN
 70
     0
  0
APPID
  2
ACDBATTR
 70
     0
  0
ENDTAB
  0
TABLE
  2
DIMSTYLE
 70
     1
  0
DIMSTYLE
  2
STANDARD
 70
     0
  3

  4

  5

  6

  7

 40
1.0
 41
0.1875
 42
0.0625
 43
0.38
 44
0.125
 45
0.0
 46
0.0
 47
0.01
 48
0.01
140
0.15625
141
0.09
142
0.0
143
25.3999999999999986
144
1.0
145
0.0
146
1.0
147
0.09
 71
     1
 72
     0
 73
     1
 74
     1
 75
     0
 76
     0
 77
     0
 78
     4
170
     0
171
     2
172
     0
173
     0
174
     0
175
     0
176
     0
177
     0
178
     0
  0
ENDTAB
  0
ENDSEC
  0
SECTION
  2
BLOCKS
  0
BLOCK
  8
0
  2
$MODEL_SPACE
 70
     0
 10
0.0
 20
0.0
 30
0.0
  3
$MODEL_SPACE
  1

  0
ENDBLK
  5
21
  8
0
  0
BLOCK
 67
     1
  8
0
  2
$PAPER_SPACE
 70
     0
 10
0.0
 20
0.0
 30
0.0
  3
$PAPER_SPACE
  1

  0
ENDBLK
  5
1D
 67
     1
  8
0
  0
BLOCK
  8
0
  2
_FILLED
 70
     0
 10
0.0
 20
0.0
 30
0.0
  3
_FILLED
  1

  0
SOLID
  5
19486
  8
0
  6
BYBLOCK
 62
     0
 10
0.0
 20
0.0
 30
0.0
 11
-1.0
 21
0.1666666667
 31
0.0
 12
-1.0
 22
-0.1666666667
 32
0.0
 13
-1.0
 23
-0.1666666667
 33
0.0
  0
ENDBLK
  5
19487
  8
0
  6
BYBLOCK
 62
     0
  0
ENDSEC
  0
SECTION
  2
ENTITIES
  0
ATTDEF
  5
19AD2
  8
DEFPOINTS
 10
3396.5035888545271519
 20
134.0141915156578136
 30
0.0
 40
0.001
  1
K-77968T-MU
  3

  2
MODELNUMBER
 70
     0
1001
ACDBATTR
1070
     0
1070
     1
  0
ATTDEF
  5
19AD3
  8
DEFPOINTS
 10
3396.5035888545271519
 20
134.0125248489912053
 30
0.0
 40
0.001
  1
DRAFT
  3

  2
TRADENAME
 70
     0
1001
ACDBATTR
1070
     0
1070
     1
  0
ATTDEF
  5
19AD4
  8
DEFPOINTS
 10
3396.5035888545271519
 20
134.0108581823245117
 30
0.0
 40
0.001
  1
BATHROOM SINK FAUCET
  3

  2
PRODUCT
 70
     0
1001
ACDBATTR
1070
     0
1070
     1
  0
LINE
  5
19C81
  8
0
 10
3395.3219536671481364
 20
134.0100598548482935
 30
0.0
 11
3397.6841583915470437
 21
134.0100598548482935
 31
0.0
  0
LINE
  5
19C82
  8
0
 10
3395.3370099247481448
 20
134.1709252289483061
 30
0.0
 11
3397.6691021339479448
 21
134.1709252289483061
 31
0.0
  0
LINE
  5
19C83
  8
0
 10
3395.8780560293480448
 20
134.2915558759603982
 30
0.0
 11
3395.8780560293480448
 21
144.3660712938483073
 31
0.0
  0
LINE
  5
19C84
  8
0
 10
3395.3219536671481364
 20
134.0100598548482935
 30
0.0
 11
3395.3219536671481364
 21
134.1517921383482985
 31
0.0
  0
ARC
  5
19C85
  8
0
 10
3395.3416387065699382
 20
134.1517921383482985
 30
0.0
 40
0.0196850394225909
 50
103.6000001684735992
 51
180.0
  0
ARC
  5
19C86
  8
0
 10
3396.5000293326688734
 20
133.3202372031205982
 30
0.0
 40
1.0722608295330831
 50
89.8387230072320193
 51
97.4406544054149748
  0
ARC
  5
19C87
  8
0
 10
3396.7722784662778395
 20
131.2356169821869116
 30
0.0
 40
3.1745836059584218
 50
97.4406544054149748
 51
102.1289009947823985
  0
ARC
  5
19C88
  8
0
 10
3428.7021562917798292
 20
-17.3382710482164484
 30
0.0
 40
155.1407551785237047
 50
102.1289009947823985
 51
102.2110217707337938
  0
ARC
  5
19C89
  8
0
 10
3395.8619020865480707
 20
134.4050124821544046
 30
0.0
 40
0.115516318607644
 50
280.836052725527793
 51
283.0055714656418218
  0
ARC
  5
19C8A
  8
0
 10
3395.8602150804081248
 20
2873.1146761013651485
 30
0.0
 40
2738.8231202835131626
 50
269.9995103917152051
 51
270.0004896082847949
  0
LINE
  5
19C8B
  8
0
 10
3395.8368110790479477
 20
134.2915559178485978
 30
0.0
 11
3395.8344966881481923
 21
134.291279943448302
 31
0.0
  0
LINE
  5
19C8C
  8
0
 10
3395.8344966881481923
 20
134.291279943448302
 30
0.0
 11
3395.3370099248209044
 21
134.1709252289483061
 31
0.0
  0
ARC
  5
19C8D
  8
0
 10
3395.8878985564679169
 20
144.3660712907744994
 30
0.0
 40
0.0098425271207311
 50
90.0000431979032669
 51
179.9999966599831964
  0
LINE
  5
19C8E
  8
0
 10
3395.8878985490478044
 20
144.3759138178951957
 30
0.0
 11
3397.1182135096478305
 21
144.3759138178951957
 31
0.0
  0
LINE
  5
19C8F
  8
0
 10
3395.8878985490450759
 20
140.7312608244482988
 30
0.0
 11
3397.1182135096510137
 21
140.7312608244482988
 31
0.0
  0
LINE
  5
19C90
  8
0
 10
3395.8878985490450759
 20
140.6540577437482966
 30
0.0
 11
3397.1182135096510137
 21
140.6540577437482966
 31
0.0
  0
LINE
  5
19C91
  8
0
 10
3395.8780560293480448
 20
140.7295062090531985
 30
0.0
 11
3395.8878985490478044
 21
140.7312608244482988
 31
0.0
  0
LINE
  5
19C92
  8
0
 10
3395.8878985490478044
 20
140.6540577437482966
 30
0.0
 11
3395.8780560293480448
 21
140.6558123592483014
 31
0.0
  0
LINE
  5
19C93
  8
0
 10
3396.0613273973231117
 20
140.7210840547483031
 30
0.0
 11
3396.9447846613720685
 21
140.7210840547483031
 31
0.0
  0
LINE
  5
19C94
  8
0
 10
3396.067221749140117
 20
140.6642345134482923
 30
0.0
 11
3396.9388903095559726
 21
140.6642345134482923
 31
0.0
  0
LINE
  5
19C95
  8
0
 10
3395.9302213837481759
 20
140.6958175919482983
 30
0.0
 11
3395.9302213837481759
 21
140.6895009763483131
 31
0.0
  0
ARC
  5
19C96
  8
0
 10
3395.9348668769771393
 20
140.6895009763483131
 30
0.0
 40
0.0046454932291731
 50
180.0
 51
211.4880496006761064
  0
ARC
  5
19C97
  8
0
 10
3396.0473478672779493
 20
139.8877846429784029
 30
0.0
 40
0.7767041731141275
 50
88.5337868874171079
 51
89.6078382817173349
  0
ARC
  5
19C98
  8
0
 10
3396.0699488629347798
 20
141.3751285079605111
 30
0.0
 40
0.7108680584463928
 50
264.7039538614099001
 51
268.6067062652310824
  0
ARC
  5
19C99
  8
0
 10
3396.0413098946078208
 20
141.0661780042231044
 30
0.0
 40
0.4005930122915453
 50
259.0947820412171154
 51
264.7039538614099001
  0
ARC
  5
19C9A
  8
0
 10
3395.9925358477908048
 20
140.8130221352818126
 30
0.0
 40
0.142781450055718
 50
248.5953814077487891
 51
259.0947820412171154
  0
ARC
  5
19C9B
  8
0
 10
3395.9499093959448146
 20
140.7042780540463127
 30
0.0
 40
0.0259812377242546
 50
228.3938418604400056
 51
248.5953814077487891
  0
ARC
  5
19C9C
  8
0
 10
3395.9394116761168334
 20
140.6919762392496125
 30
0.0
 40
0.0098174729185693
 50
209.9525946219488901
 51
226.5314452489978123
  0
ARC
  5
19C9D
  8
0
 10
3395.9347480550718501
 20
140.6957931123812955
 30
0.0
 40
0.0045267375146448
 50
160.4521230692116944
 51
179.6901559452657011
  0
ARC
  5
19C9E
  8
0
 10
3395.9374362249100159
 20
140.6948386528237904
 30
0.0
 40
0.0073793240821464
 50
131.6752369090710886
 51
160.4521230692162987
  0
ARC
  5
19C9F
  8
0
 10
3395.9608490617438292
 20
140.6632741229022088
 30
0.0
 40
0.0466545113567639
 50
103.9815772958107942
 51
127.3730790488837954
  0
ARC
  5
19CA0
  8
0
 10
3396.0266101652928228
 20
140.424332777153694
 30
0.0
 40
0.2944682068775561
 50
95.043794507061989
 51
105.1651048061369949
  0
ARC
  5
19CA1
  8
0
 10
3396.0703316225408344
 20
140.0234804050097921
 30
0.0
 40
0.6976617577308725
 50
90.7394964976696201
 51
95.7263021030769323
  0
LINE
  5
19CA2
  8
0
 10
3396.0541483385459287
 20
140.6916892552482921
 30
0.0
 11
3396.9519637201487967
 21
140.6916892552482921
 31
0.0
  0
ARC
  5
19CA3
  8
0
 10
3396.0705256759370059
 20
141.225099486783904
 30
0.0
 40
0.5336615896678867
 50
261.5861380635147952
 51
268.2413955183891972
  0
ARC
  5
19CA4
  8
0
 10
3396.0158323308278341
 20
140.8553359280797963
 30
0.0
 40
0.159874950869005
 50
251.9344049954179923
 51
261.5861380635147952
  0
ARC
  5
19CA5
  8
0
 10
3395.9759249315948182
 20
140.7329903530641104
 30
0.0
 40
0.0311852456106113
 50
227.6562797448711137
 51
251.9344049954179923
  0
ARC
  5
19CA6
  8
0
 10
3395.9991911697711657
 20
140.7700306334367042
 30
0.0
 40
0.0617048520537151
 50
245.3261515784436142
 51
254.312054381605293
  0
ARC
  5
19CA7
  8
0
 10
3396.0444389649969708
 20
140.956078896514498
 30
0.0
 40
0.2531473457467552
 50
255.8388119923957049
 51
266.4028920609168836
  0
ARC
  5
19CA8
  8
0
 10
3386.6731606810171797
 20
-118.0891861627328012
 30
0.0
 40
258.9616607803160946
 50
87.9200416534833664
 51
87.9296496714846967
  0
LINE
  5
19CA9
  8
0
 10
3396.0719536671481364
 20
140.7018578177406027
 30
0.0
 11
3396.1299655253478704
 21
140.7018204011482965
 31
0.0
  0
LINE
  5
19CAA
  8
0
 10
3396.1299655253478704
 20
140.7018204011482965
 30
0.0
 11
3396.1424672016478326
 21
140.7056717545482911
 31
0.0
  0
LINE
  5
19CAB
  8
0
 10
3396.1424672016478326
 20
140.7056717545482911
 30
0.0
 11
3396.8632221522479995
 21
140.705206881348289
 31
0.0
  0
LINE
  5
19CAC
  8
0
 10
3396.5028446769470065
 20
140.7096495907483131
 30
0.0
 11
3396.1288290092479656
 21
140.7098908237481965
 31
0.0
  0
LINE
  5
19CAD
  8
0
 10
3396.1288290092479656
 20
140.7098908237481965
 30
0.0
 11
3396.1106447527481578
 21
140.7042888551482918
 31
0.0
  0
LINE
  5
19CAE
  8
0
 10
3396.1106447527481578
 20
140.7042888551482918
 30
0.0
 11
3396.0697739038478176
 21
140.7043152161483022
 31
0.0
  0
ARC
  5
19CAF
  8
0
 10
3396.0700654678571482
 20
141.156364400832814
 30
0.0
 40
0.4520492787114531
 50
263.4122257092299151
 51
269.9630452052077771
  0
ARC
  5
19CB0
  8
0
 10
3396.0335261393811379
 20
140.8399729329499905
 30
0.0
 40
0.1335548777018509
 50
248.4361579762654912
 51
263.4122257092299151
  0
LINE
  5
19CB1
  8
0
 10
3397.1280560293480448
 20
134.2915558759603982
 30
0.0
 11
3397.1280560293480448
 21
144.3660712938483073
 31
0.0
  0
LINE
  5
19CB2
  8
0
 10
3397.6841583915470437
 20
134.0100598548482935
 30
0.0
 11
3397.6841583915470437
 21
134.1517921383482985
 31
0.0
  0
ARC
  5
19CB3
  8
0
 10
3397.6644733521247872
 20
134.1517921383482985
 30
0.0
 40
0.0196850394225909
 50
0.0
 51
76.399999831526344
  0
ARC
  5
19CB4
  8
0
 10
3396.5060827260272163
 20
133.3202372031205982
 30
0.0
 40
1.0722608295330831
 50
82.5593455945850394
 51
90.1612769927679949
  0
ARC
  5
19CB5
  8
0
 10
3396.2338335924168859
 20
131.2356169821869116
 30
0.0
 40
3.1745836059584218
 50
77.8710990052175447
 51
82.5593455945850394
  0
ARC
  5
19CB6
  8
0
 10
3364.3039557669148962
 20
-17.3382710482164484
 30
0.0
 40
155.1407551785237047
 50
77.7889782292662346
 51
77.8710990052175447
  0
ARC
  5
19CB7
  8
0
 10
3397.144209972148019
 20
134.4050124821544046
 30
0.0
 40
0.115516318607644
 50
256.9944285343581782
 51
259.1639472744720933
  0
ARC
  5
19CB8
  8
0
 10
3397.1458969782879649
 20
2873.1146761013651485
 30
0.0
 40
2738.8231202835131626
 50
269.9995103917152051
 51
270.0004896082847949
  0
LINE
  5
19CB9
  8
0
 10
3397.1693009796481419
 20
134.2915559178485978
 30
0.0
 11
3397.1716153705478973
 21
134.291279943448302
 31
0.0
  0
LINE
  5
19CBA
  8
0
 10
3397.1716153705478973
 20
134.291279943448302
 30
0.0
 11
3397.6691021338751852
 21
134.1709252289483061
 31
0.0
  0
ARC
  5
19CBB
  8
0
 10
3397.1182135022268085
 20
144.3660712907744994
 30
0.0
 40
0.0098425271207288
 50
0.0000178931358257
 51
89.9999568021227958
  0
LINE
  5
19CBC
  8
0
 10
3397.1280560293480448
 20
140.7295062090531985
 30
0.0
 11
3397.1182135096478305
 21
140.7312608244482988
 31
0.0
  0
LINE
  5
19CBD
  8
0
 10
3397.1182135096478305
 20
140.6540577437482966
 30
0.0
 11
3397.1280560293480448
 21
140.6558123592483014
 31
0.0
  0
LINE
  5
19CBE
  8
0
 10
3397.0758906749479138
 20
140.6958175919482983
 30
0.0
 11
3397.0758906749479138
 21
140.6895009763483131
 31
0.0
  0
ARC
  5
19CBF
  8
0
 10
3397.0712451817189503
 20
140.6895009763483131
 30
0.0
 40
0.0046454932291731
 50
328.5119503993238936
 51
0.0
  0
ARC
  5
19CC0
  8
0
 10
3396.9587641914167762
 20
139.8877846429784029
 30
0.0
 40
0.7767041731141275
 50
90.3921617182826509
 51
91.4662131125828637
  0
ARC
  5
19CC1
  8
0
 10
3396.9361631957608552
 20
141.3751285079605111
 30
0.0
 40
0.7108680584463928
 50
271.3932937347689176
 51
275.2960461385899862
  0
ARC
  5
19CC2
  8
0
 10
3396.9648021640869047
 20
141.0661780042231044
 30
0.0
 40
0.4005930122915453
 50
275.2960461385899862
 51
280.9052179587828846
  0
ARC
  5
19CC3
  8
0
 10
3397.0135762109048301
 20
140.8130221352818126
 30
0.0
 40
0.142781450055718
 50
280.9052179587828846
 51
291.4046185922510972
  0
ARC
  5
19CC4
  8
0
 10
3397.0562026627508203
 20
140.7042780540463127
 30
0.0
 40
0.0259812377242546
 50
291.4046185922510972
 51
311.6061581395600228
  0
ARC
  5
19CC5
  8
0
 10
3397.066700382577892
 20
140.6919762392496125
 30
0.0
 40
0.0098174729185693
 50
313.4685547510022161
 51
330.0474053780511099
  0
ARC
  5
19CC6
  8
0
 10
3397.0713640036237848
 20
140.6957931123812955
 30
0.0
 40
0.0045267375146448
 50
0.3098440547342611
 51
19.5478769307883304
  0
ARC
  5
19CC7
  8
0
 10
3397.0686758337860738
 20
140.6948386528237904
 30
0.0
 40
0.0073793240821464
 50
19.547876930783719
 51
48.3247630909288901
  0
ARC
  5
19CC8
  8
0
 10
3397.0452629969518057
 20
140.6632741229022088
 30
0.0
 40
0.0466545113567639
 50
52.6269209511161691
 51
76.0184227041891489
  0
ARC
  5
19CC9
  8
0
 10
3396.9795018934019026
 20
140.424332777153694
 30
0.0
 40
0.2944682068775561
 50
74.8348951938630051
 51
84.9562054929380253
  0
ARC
  5
19CCA
  8
0
 10
3396.9357804361538911
 20
140.0234804050097921
 30
0.0
 40
0.6976617577308725
 50
84.2736978969230535
 51
89.2605035023303657
  0
ARC
  5
19CCB
  8
0
 10
3396.9355863827590838
 20
141.225099486783904
 30
0.0
 40
0.5336615896678867
 50
271.7586044816108028
 51
278.4138619364853184
  0
ARC
  5
19CCC
  8
0
 10
3396.9902797278668913
 20
140.8553359280797963
 30
0.0
 40
0.159874950869005
 50
278.4138619364853184
 51
288.0655950045821214
  0
ARC
  5
19CCD
  8
0
 10
3397.0301871270999072
 20
140.7329903530641104
 30
0.0
 40
0.0311852456106113
 50
288.0655950045821214
 51
312.3437202551289147
  0
ARC
  5
19CCE
  8
0
 10
3397.0069208889231049
 20
140.7700306334367042
 30
0.0
 40
0.0617048520537151
 50
285.6879456183946786
 51
294.6738484215563858
  0
ARC
  5
19CCF
  8
0
 10
3396.9616730936991189
 20
140.956078896514498
 30
0.0
 40
0.2531473457467552
 50
273.5971079390830027
 51
284.1611880076042098
  0
ARC
  5
19CD0
  8
0
 10
3406.3329513776789099
 20
-118.0891861627328012
 30
0.0
 40
258.9616607803160946
 50
92.0703503285153033
 51
92.0799583465166762
  0
LINE
  5
19CD1
  8
0
 10
3396.9341583915470437
 20
140.7018578177406027
 30
0.0
 11
3396.8761465333482192
 21
140.7018204011482965
 31
0.0
  0
LINE
  5
19CD2
  8
0
 10
3396.8761465333482192
 20
140.7018204011482965
 30
0.0
 11
3396.8636448570478024
 21
140.7056717545482911
 31
0.0
  0
LINE
  5
19CD3
  8
0
 10
3396.5032673817481736
 20
140.7096495907483131
 30
0.0
 11
3396.8772830494481241
 21
140.7098908237481965
 31
0.0
  0
LINE
  5
19CD4
  8
0
 10
3396.8772830494481241
 20
140.7098908237481965
 30
0.0
 11
3396.8954673059479319
 21
140.7042888551482918
 31
0.0
  0
LINE
  5
19CD5
  8
0
 10
3396.8954673059479319
 20
140.7042888551482918
 30
0.0
 11
3396.9363381548478173
 21
140.7043152161483022
 31
0.0
  0
ARC
  5
19CD6
  8
0
 10
3396.9360465908389415
 20
141.156364400832814
 30
0.0
 40
0.4520492787114531
 50
270.0369547947921092
 51
276.5877742907700849
  0
ARC
  5
19CD7
  8
0
 10
3396.9725859193140423
 20
140.8399729329499905
 30
0.0
 40
0.1335548777018509
 50
276.5877742907700849
 51
291.5638420237344803
  0
ENDSEC
  0
EOF
