  0
SECTION
  2
HEADER
  9
$ACADVER
  1
AC1009
  9
$INSBASE
 10
72.8588702655518432
 20
5.9039989520501894
 30
0.0
  9
$EXTMIN
 10
71.6777679033518496
 20
3.75132472535019
 30
0.0
  9
$EXTMAX
 10
74.0399726277518511
 20
5.910903594614779
 30
0.0
  9
$LIMMIN
 10
0.0
 20
0.0
  9
$LIMMAX
 10
11.6929133858000007
 20
8.2677165353999982
  9
$ORTHOMODE
 70
     1
  9
$REGENMODE
 70
     1
  9
$FILLMODE
 70
     1
  9
$QTEXTMODE
 70
     0
  9
$MIRRTEXT
 70
     0
  9
$DRAGMODE
 70
     2
  9
$LTSCALE
 40
0.6431102362
  9
$OSMODE
 70
  2039
  9
$ATTMODE
 70
     1
  9
$TEXTSIZE
 40
0.2
  9
$TRACEWID
 40
0.05
  9
$TEXTSTYLE
  7
STANDARD
  9
$CLAYER
  8
0
  9
$CELTYPE
  6
BYLAYER
  9
$CECOLOR
 62
   256
  9
$DIMSCALE
 40
1.0
  9
$DIMASZ
 40
0.1875
  9
$DIMEXO
 40
0.0625
  9
$DIMDLI
 40
0.4443307087
  9
$DIMRND
 40
0.0
  9
$DIMDLE
 40
0.0
  9
$DIMEXE
 40
0.125
  9
$DIMTP
 40
0.01
  9
$DIMTM
 40
0.01
  9
$DIMTXT
 40
1.0
  9
$DIMCEN
 40
0.1052362205
  9
$DIMTSZ
 40
0.0
  9
$DIMTOL
 70
     1
  9
$DIMLIM
 70
     0
  9
$DIMTIH
 70
     0
  9
$DIMTOH
 70
     1
  9
$DIMSE1
 70
     0
  9
$DIMSE2
 70
     0
  9
$DIMTAD
 70
     0
  9
$DIMZIN
 70
     0
  9
$DIMBLK
  1

  9
$DIMASO
 70
     1
  9
$DIMSHO
 70
     1
  9
$DIMPOST
  1
\X
  9
$DIMAPOST
  1

  9
$DIMALT
 70
     1
  9
$DIMALTD
 70
     2
  9
$DIMALTF
 40
25.3999999999999986
  9
$DIMLFAC
 40
1.0
  9
$DIMTOFL
 70
     0
  9
$DIMTVP
 40
0.0
  9
$DIMTIX
 70
     0
  9
$DIMSOXD
 70
     0
  9
$DIMSAH
 70
     0
  9
$DIMBLK1
  1

  9
$DIMBLK2
  1

  9
$DIMSTYLE
  2
STANDARD
  9
$DIMCLRD
 70
     0
  9
$DIMCLRE
 70
     0
  9
$DIMCLRT
 70
     0
  9
$DIMTFAC
 40
1.0
  9
$DIMGAP
 40
0.09
  9
$LUNITS
 70
     2
  9
$LUPREC
 70
     4
  9
$SKETCHINC
 40
0.1
  9
$FILLETRAD
 40
0.0
  9
$AUNITS
 70
     0
  9
$AUPREC
 70
     0
  9
$MENU
  1
.
  9
$ELEVATION
 40
0.0
  9
$PELEVATION
 40
0.0
  9
$THICKNESS
 40
0.0
  9
$LIMCHECK
 70
     0
  9
$BLIPMODE
 70
     0
  9
$CHAMFERA
 40
0.0
  9
$CHAMFERB
 40
0.0
  9
$SKPOLY
 70
     0
  9
$TDCREATE
 40
2458172.5207638889551163
  9
$TDUPDATE
 40
2459689.6020370381884277
  9
$TDINDWG
 40
0.0545253588
  9
$TDUSRTIMER
 40
0.0545253588
  9
$USRTIMER
 70
     1
  9
$ANGBASE
 50
0.0
  9
$ANGDIR
 70
     0
  9
$PDMODE
 70
     0
  9
$PDSIZE
 40
0.3125
  9
$PLINEWID
 40
0.0
  9
$COORDS
 70
     1
  9
$SPLFRAME
 70
     0
  9
$SPLINETYPE
 70
     6
  9
$SPLINESEGS
 70
     8
  9
$ATTDIA
 70
     1
  9
$ATTREQ
 70
     1
  9
$HANDLING
 70
     1
  9
$HANDSEED
  5
EDC
  9
$SURFTAB1
 70
     6
  9
$SURFTAB2
 70
     6
  9
$SURFTYPE
 70
     6
  9
$SURFU
 70
     6
  9
$SURFV
 70
     6
  9
$UCSNAME
  2

  9
$UCSORG
 10
0.0
 20
0.0
 30
0.0
  9
$UCSXDIR
 10
1.0
 20
0.0
 30
0.0
  9
$UCSYDIR
 10
0.0
 20
1.0
 30
0.0
  9
$PUCSNAME
  2

  9
$PUCSORG
 10
0.0
 20
0.0
 30
0.0
  9
$PUCSXDIR
 10
1.0
 20
0.0
 30
0.0
  9
$PUCSYDIR
 10
0.0
 20
1.0
 30
0.0
  9
$USERI1
 70
     0
  9
$USERI2
 70
     0
  9
$USERI3
 70
     0
  9
$USERI4
 70
     0
  9
$USERI5
 70
     0
  9
$USERR1
 40
0.0
  9
$USERR2
 40
0.0
  9
$USERR3
 40
0.0
  9
$USERR4
 40
0.0
  9
$USERR5
 40
0.0
  9
$WORLDVIEW
 70
     1
  9
$SHADEDGE
 70
     3
  9
$SHADEDIF
 70
    70
  9
$TILEMODE
 70
     1
  9
$MAXACTVP
 70
    64
  9
$PLIMCHECK
 70
     0
  9
$PEXTMIN
 10
1.0000000000000000E+20
 20
1.0000000000000000E+20
 30
1.0000000000000000E+20
  9
$PEXTMAX
 10
-1.0000000000000000E+20
 20
-1.0000000000000000E+20
 30
-1.0000000000000000E+20
  9
$PLIMMIN
 10
0.0
 20
0.0
  9
$PLIMMAX
 10
12.0
 20
9.0
  9
$UNITMODE
 70
     0
  9
$VISRETAIN
 70
     1
  9
$PLINEGEN
 70
     0
  9
$PSLTSCALE
 70
     1
  0
ENDSEC
  0
SECTION
  2
TABLES
  0
TABLE
  2
VPORT
 70
     1
  0
VPORT
  2
*ACTIVE
 70
     0
 10
0.0
 20
0.0
 11
1.0
 21
1.0
 12
1.826174777106842
 22
0.478104927159964
 13
0.0
 23
0.0
 14
1.0
 24
1.0
 15
0.0
 25
0.0
 16
0.0
 26
0.0
 36
9.1692217382361232
 17
72.8588676452636719
 27
4.8311141241201323
 37
0.0
 40
9.0593859010607307
 41
2.000833333333333
 42
50.0
 43
0.0
 44
0.0
 50
0.0
 51
0.0
 71
     0
 72
   100
 73
     1
 74
     1
 75
     0
 76
     0
 77
     0
 78
     0
  0
ENDTAB
  0
TABLE
  2
LTYPE
 70
     2
  0
LTYPE
  2
CONTINUOUS
 70
     0
  3
Solid line
 72
    65
 73
     0
 40
0.0
  0
LTYPE
  2
PHANTOM2
 70
     0
  3
___ _ _ ___ _ _ ___ _ _ ___ _ _
 72
    65
 73
     6
 40
1.25
 49
0.625
 49
-0.125
 49
0.125
 49
-0.125
 49
0.125
 49
-0.125
  0
ENDTAB
  0
TABLE
  2
LAYER
 70
     2
  0
LAYER
  2
0
 70
     0
 62
   255
  6
CONTINUOUS
  0
LAYER
  2
DEFPOINTS
 70
     0
 62
     7
  6
CONTINUOUS
  0
ENDTAB
  0
TABLE
  2
STYLE
 70
     1
  0
STYLE
  2
STANDARD
 70
     0
 40
0.0
 41
0.8
 50
0.0
 71
     0
 42
0.2
  3
txt
  4

  0
ENDTAB
  0
TABLE
  2
VIEW
 70
     0
  0
ENDTAB
  0
TABLE
  2
UCS
 70
     0
  0
ENDTAB
  0
TABLE
  2
APPID
 70
    10
  0
APPID
  2
ACAD
 70
     0
  0
APPID
  2
ACAD_MLEADERVER
 70
     0
  0
APPID
  2
ACAD_EXEMPT_FROM_CAD_STANDARDS
 70
     0
  0
APPID
  2
ACAD_DSTYLE_DIMJAG
 70
     0
  0
APPID
  2
ACAD_DSTYLE_DIMTALN
 70
     0
  0
APPID
  2
ACAD_NAV_VCDISPLAY
 70
     0
  0
APPID
  2
ACAECLAYERSTANDARD
 70
     0
  0
APPID
  2
ACCMTRANSPARENCY
 70
     0
  0
APPID
  2
DCO15
 70
     0
  0
APPID
  2
ACDBATTR
 70
     0
  0
ENDTAB
  0
TABLE
  2
DIMSTYLE
 70
     1
  0
DIMSTYLE
  2
STANDARD
 70
     0
  3

  4

  5

  6

  7

 40
1.0
 41
0.1875
 42
0.0625
 43
0.38
 44
0.125
 45
0.0
 46
0.0
 47
0.01
 48
0.01
140
0.15625
141
0.09
142
0.0
143
25.3999999999999986
144
1.0
145
0.0
146
1.0
147
0.09
 71
     1
 72
     0
 73
     1
 74
     1
 75
     0
 76
     0
 77
     0
 78
     4
170
     0
171
     2
172
     0
173
     0
174
     0
175
     0
176
     0
177
     0
178
     0
  0
ENDTAB
  0
ENDSEC
  0
SECTION
  2
BLOCKS
  0
BLOCK
  8
0
  2
$MODEL_SPACE
 70
     0
 10
0.0
 20
0.0
 30
0.0
  3
$MODEL_SPACE
  1

  0
ENDBLK
  5
21
  8
0
  0
BLOCK
 67
     1
  8
0
  2
$PAPER_SPACE
 70
     0
 10
0.0
 20
0.0
 30
0.0
  3
$PAPER_SPACE
  1

  0
ENDBLK
  5
1D
 67
     1
  8
0
  0
ENDSEC
  0
SECTION
  2
ENTITIES
  0
ATTDEF
  5
829
  8
DEFPOINTS
 10
72.855131964901247
 20
5.909903594614776
 30
0.0
 40
0.001
  1
K-77980T-4
  3

  2
MODELNUMBER
 70
     0
1001
ACDBATTR
1070
     0
1070
     1
  0
ATTDEF
  5
82A
  8
DEFPOINTS
 10
72.855131964901247
 20
5.9082369279481108
 30
0.0
 40
0.001
  1
COMPONENTS
  3

  2
TRADENAME
 70
     0
1001
ACDBATTR
1070
     0
1070
     1
  0
ATTDEF
  5
82B
  8
DEFPOINTS
 10
72.855131964901247
 20
5.9065702612814457
 30
0.0
 40
0.001
  1
BATHROOM SINK FAUCET HANDLE
  3

  2
PRODUCT
 70
     0
1001
ACDBATTR
1070
     0
1070
     1
  0
LINE
  5
D23
  8
0
 10
72.0695090013518609
 20
3.75132472535019
 30
0.0
 11
73.6482315297517545
 21
3.75132472535019
 31
0.0
  0
LINE
  5
D24
  8
0
 10
71.6777679033518496
 20
5.884313912650188
 30
0.0
 11
71.6777679033518496
 21
5.7618982753501893
 31
0.0
  0
LINE
  5
D25
  8
0
 10
73.6659563285518573
 20
4.420616063950189
 30
0.0
 11
72.0517842025518576
 21
4.420616063950189
 31
0.0
  0
LINE
  5
D26
  8
0
 10
72.0537527519518335
 20
4.4847076134501904
 30
0.0
 11
73.6639877791518529
 21
4.4847076134501904
 31
0.0
  0
LINE
  5
D27
  8
0
 10
72.0419411316518534
 20
3.7788837804501898
 30
0.0
 11
72.0419411316518534
 21
4.4107735442501896
 31
0.0
  0
LINE
  5
D28
  8
0
 10
72.0419411316518534
 20
4.4965186370501904
 30
0.0
 11
72.0419411316518534
 21
5.6640637070501887
 31
0.0
  0
LINE
  5
D29
  8
0
 10
72.0616261711518575
 20
4.4847076134501904
 30
0.0
 11
72.0616261711518575
 21
4.4662169693501896
 31
0.0
  0
LINE
  5
D2A
  8
0
 10
71.6926907007518537
 20
5.7427979658501904
 30
0.0
 11
72.0073039532518493
 21
5.6643560719501886
 31
0.0
  0
LINE
  5
D2B
  8
0
 10
72.0096862188518543
 20
5.6640637070501887
 30
0.0
 11
73.7080543122518748
 21
5.6640637070501887
 31
0.0
  0
LINE
  5
D2C
  8
0
 10
74.0202864314518365
 20
5.9039989520501894
 30
0.0
 11
71.6974540996518499
 21
5.9039989520501894
 31
0.0
  0
ARC
  5
D2D
  8
0
 10
72.8590078105877552
 20
6.2612580137867111
 30
0.0
 40
1.9688672943999059
 50
246.2588342579911966
 51
249.2077250921317955
  0
ARC
  5
D2E
  8
0
 10
72.0714842857368723
 20
3.7808685126278418
 30
0.0
 40
0.0296097469612371
 50
183.8434000988374066
 51
266.1749226853928008
  0
ARC
  5
D2F
  8
0
 10
71.6974529427518519
 20
5.7618982753501893
 30
0.0
 40
0.0196850394
 50
180.0
 51
256.0000000000003979
  0
ARC
  5
D30
  8
0
 10
71.6988960267989626
 20
5.8828707438262748
 30
0.0
 40
0.0211773543354838
 50
93.9041849604528807
 51
176.0924478357526937
  0
ARC
  5
D31
  8
0
 10
72.0546838364524547
 20
4.497450365304827
 30
0.0
 40
0.0127767227087442
 50
184.1819429443027047
 51
265.820951599744717
  0
ARC
  5
D32
  8
0
 10
72.010104829151345
 20
5.677326501590378
 30
0.0
 40
0.0132693991423167
 50
257.8144769290495901
 51
268.192187659998126
  0
ARC
  5
D33
  8
0
 10
72.0526278515666263
 20
4.409929296774016
 30
0.0
 40
0.0107200156873888
 50
94.5137586502790015
 51
175.4830327659167892
  0
ARC
  5
D34
  8
0
 10
72.069500186981287
 20
4.4662169693886851
 30
0.0
 40
0.0078740158294268
 50
180.0000002801143921
 51
246.2654661117070134
  0
LINE
  5
D35
  8
0
 10
72.0663308987518576
 20
4.4590089365501866
 30
0.0
 11
73.6514096323518572
 21
4.4590089365501866
 31
0.0
  0
LINE
  5
D36
  8
0
 10
71.6926907007518537
 20
5.7427979658501904
 30
0.0
 11
74.0250498303518611
 21
5.7427979658501904
 31
0.0
  0
LINE
  5
D37
  8
0
 10
74.0399726277518511
 20
5.884313912650188
 30
0.0
 11
74.0399726277518511
 21
5.7618982753501893
 31
0.0
  0
LINE
  5
D38
  8
0
 10
73.675799399451833
 20
3.7788837804501898
 30
0.0
 11
73.675799399451833
 21
4.4107735442501896
 31
0.0
  0
LINE
  5
D39
  8
0
 10
73.675799399451833
 20
4.4965186370501904
 30
0.0
 11
73.675799399451833
 21
5.6640637070501887
 31
0.0
  0
LINE
  5
D3A
  8
0
 10
73.6561143599518573
 20
4.4847076134501904
 30
0.0
 11
73.6561143599518573
 21
4.4662169693501896
 31
0.0
  0
LINE
  5
D3B
  8
0
 10
74.0250498303518469
 20
5.7427979658501904
 30
0.0
 11
73.7104365778518513
 21
5.6643560719501886
 31
0.0
  0
ARC
  5
D3C
  8
0
 10
72.8587327205159454
 20
6.2612580137867111
 30
0.0
 40
1.9688672943999059
 50
290.7922749078682045
 51
293.7411657420087749
  0
ARC
  5
D3D
  8
0
 10
73.6462562453668284
 20
3.7808685126278418
 30
0.0
 40
0.0296097469612371
 50
273.8250773146071992
 51
356.1565999011625081
  0
ARC
  5
D3E
  8
0
 10
74.0202875883518487
 20
5.7618982753501893
 30
0.0
 40
0.0196850394
 50
283.9999999999994884
 51
0.0
  0
ARC
  5
D3F
  8
0
 10
74.0188445043047381
 20
5.8828707438262748
 30
0.0
 40
0.0211773543354838
 50
3.90755216424713
 51
86.0958150395463235
  0
ARC
  5
D40
  8
0
 10
73.6630566946512317
 20
4.497450365304827
 30
0.0
 40
0.0127767227087442
 50
274.179048400255283
 51
355.8180570556972953
  0
ARC
  5
D41
  8
0
 10
73.7076357019523556
 20
5.677326501590378
 30
0.0
 40
0.0132693991423167
 50
271.807812340001874
 51
282.1855230709504099
  0
ARC
  5
D42
  8
0
 10
73.6651126795370743
 20
4.409929296774016
 30
0.0
 40
0.0107200156873888
 50
4.5169672340832268
 51
85.4862413497218228
  0
ARC
  5
D43
  8
0
 10
73.6482403441224278
 20
4.4662169693886851
 30
0.0
 40
0.0078740158294268
 50
293.734533888293015
 51
359.9999997198855226
  0
ENDSEC
  0
EOF
