  0
SECTION
  2
HEADER
  9
$ACADVER
  1
AC1009
  9
$INSBASE
 10
73.9580179568705205
 20
8.7608953890443093
 30
0.0
  9
$EXTMIN
 10
71.8053437301705202
 20
5.9577457827443068
 30
0.0
  9
$EXTMAX
 10
73.9817279679265738
 20
9.9419977512443065
 30
0.0
  9
$LIMMIN
 10
0.0
 20
0.0
  9
$LIMMAX
 10
11.6929133858000007
 20
8.2677165353999982
  9
$ORTHOMODE
 70
     1
  9
$REGENMODE
 70
     1
  9
$FILLMODE
 70
     1
  9
$QTEXTMODE
 70
     0
  9
$MIRRTEXT
 70
     0
  9
$DRAGMODE
 70
     2
  9
$LTSCALE
 40
0.6431102362
  9
$OSMODE
 70
  2039
  9
$ATTMODE
 70
     1
  9
$TEXTSIZE
 40
0.2
  9
$TRACEWID
 40
0.05
  9
$TEXTSTYLE
  7
STANDARD
  9
$CLAYER
  8
0
  9
$CELTYPE
  6
BYLAYER
  9
$CECOLOR
 62
   256
  9
$DIMSCALE
 40
1.0
  9
$DIMASZ
 40
0.1875
  9
$DIMEXO
 40
0.0625
  9
$DIMDLI
 40
0.4443307087
  9
$DIMRND
 40
0.0
  9
$DIMDLE
 40
0.0
  9
$DIMEXE
 40
0.125
  9
$DIMTP
 40
0.01
  9
$DIMTM
 40
0.01
  9
$DIMTXT
 40
1.0
  9
$DIMCEN
 40
0.1052362205
  9
$DIMTSZ
 40
0.0
  9
$DIMTOL
 70
     1
  9
$DIMLIM
 70
     0
  9
$DIMTIH
 70
     0
  9
$DIMTOH
 70
     1
  9
$DIMSE1
 70
     0
  9
$DIMSE2
 70
     0
  9
$DIMTAD
 70
     0
  9
$DIMZIN
 70
     0
  9
$DIMBLK
  1

  9
$DIMASO
 70
     1
  9
$DIMSHO
 70
     1
  9
$DIMPOST
  1
\X
  9
$DIMAPOST
  1

  9
$DIMALT
 70
     1
  9
$DIMALTD
 70
     2
  9
$DIMALTF
 40
25.3999999999999986
  9
$DIMLFAC
 40
1.0
  9
$DIMTOFL
 70
     0
  9
$DIMTVP
 40
0.0
  9
$DIMTIX
 70
     0
  9
$DIMSOXD
 70
     0
  9
$DIMSAH
 70
     0
  9
$DIMBLK1
  1

  9
$DIMBLK2
  1

  9
$DIMSTYLE
  2
STANDARD
  9
$DIMCLRD
 70
     0
  9
$DIMCLRE
 70
     0
  9
$DIMCLRT
 70
     0
  9
$DIMTFAC
 40
1.0
  9
$DIMGAP
 40
0.09
  9
$LUNITS
 70
     2
  9
$LUPREC
 70
     4
  9
$SKETCHINC
 40
0.1
  9
$FILLETRAD
 40
0.0
  9
$AUNITS
 70
     0
  9
$AUPREC
 70
     0
  9
$MENU
  1
.
  9
$ELEVATION
 40
0.0
  9
$PELEVATION
 40
0.0
  9
$THICKNESS
 40
0.0
  9
$LIMCHECK
 70
     0
  9
$BLIPMODE
 70
     0
  9
$CHAMFERA
 40
0.0
  9
$CHAMFERB
 40
0.0
  9
$SKPOLY
 70
     0
  9
$TDCREATE
 40
2458172.5207638889551163
  9
$TDUPDATE
 40
2459689.6020949077792466
  9
$TDINDWG
 40
0.0548147106
  9
$TDUSRTIMER
 40
0.0548147106
  9
$USRTIMER
 70
     1
  9
$ANGBASE
 50
0.0
  9
$ANGDIR
 70
     0
  9
$PDMODE
 70
     0
  9
$PDSIZE
 40
0.3125
  9
$PLINEWID
 40
0.0
  9
$COORDS
 70
     1
  9
$SPLFRAME
 70
     0
  9
$SPLINETYPE
 70
     6
  9
$SPLINESEGS
 70
     8
  9
$ATTDIA
 70
     1
  9
$ATTREQ
 70
     1
  9
$HANDLING
 70
     1
  9
$HANDSEED
  5
EE2
  9
$SURFTAB1
 70
     6
  9
$SURFTAB2
 70
     6
  9
$SURFTYPE
 70
     6
  9
$SURFU
 70
     6
  9
$SURFV
 70
     6
  9
$UCSNAME
  2

  9
$UCSORG
 10
0.0
 20
0.0
 30
0.0
  9
$UCSXDIR
 10
1.0
 20
0.0
 30
0.0
  9
$UCSYDIR
 10
0.0
 20
1.0
 30
0.0
  9
$PUCSNAME
  2

  9
$PUCSORG
 10
0.0
 20
0.0
 30
0.0
  9
$PUCSXDIR
 10
1.0
 20
0.0
 30
0.0
  9
$PUCSYDIR
 10
0.0
 20
1.0
 30
0.0
  9
$USERI1
 70
     0
  9
$USERI2
 70
     0
  9
$USERI3
 70
     0
  9
$USERI4
 70
     0
  9
$USERI5
 70
     0
  9
$USERR1
 40
0.0
  9
$USERR2
 40
0.0
  9
$USERR3
 40
0.0
  9
$USERR4
 40
0.0
  9
$USERR5
 40
0.0
  9
$WORLDVIEW
 70
     1
  9
$SHADEDGE
 70
     3
  9
$SHADEDIF
 70
    70
  9
$TILEMODE
 70
     1
  9
$MAXACTVP
 70
    64
  9
$PLIMCHECK
 70
     0
  9
$PEXTMIN
 10
1.0000000000000000E+20
 20
1.0000000000000000E+20
 30
1.0000000000000000E+20
  9
$PEXTMAX
 10
-1.0000000000000000E+20
 20
-1.0000000000000000E+20
 30
-1.0000000000000000E+20
  9
$PLIMMIN
 10
0.0
 20
0.0
  9
$PLIMMAX
 10
12.0
 20
9.0
  9
$UNITMODE
 70
     0
  9
$VISRETAIN
 70
     1
  9
$PLINEGEN
 70
     0
  9
$PSLTSCALE
 70
     1
  0
ENDSEC
  0
SECTION
  2
TABLES
  0
TABLE
  2
VPORT
 70
     1
  0
VPORT
  2
*ACTIVE
 70
     0
 10
0.0
 20
0.0
 11
1.0
 21
1.0
 12
0.7492296446703329
 22
2.136423570160769
 13
0.0
 23
0.0
 14
1.0
 24
1.0
 15
0.0
 25
0.0
 16
0.0
 26
0.0
 36
13.0062058874389201
 17
72.8935357980871004
 27
7.9498715400695801
 37
0.0
 40
12.8500187252753193
 41
2.000833333333333
 42
50.0
 43
0.0
 44
0.0
 50
0.0
 51
0.0
 71
     0
 72
   100
 73
     1
 74
     1
 75
     0
 76
     0
 77
     0
 78
     0
  0
ENDTAB
  0
TABLE
  2
LTYPE
 70
     2
  0
LTYPE
  2
CONTINUOUS
 70
     0
  3
Solid line
 72
    65
 73
     0
 40
0.0
  0
LTYPE
  2
PHANTOM2
 70
     0
  3
___ _ _ ___ _ _ ___ _ _ ___ _ _
 72
    65
 73
     6
 40
1.25
 49
0.625
 49
-0.125
 49
0.125
 49
-0.125
 49
0.125
 49
-0.125
  0
ENDTAB
  0
TABLE
  2
LAYER
 70
     2
  0
LAYER
  2
0
 70
     0
 62
   255
  6
CONTINUOUS
  0
LAYER
  2
DEFPOINTS
 70
     0
 62
     7
  6
CONTINUOUS
  0
ENDTAB
  0
TABLE
  2
STYLE
 70
     1
  0
STYLE
  2
STANDARD
 70
     0
 40
0.0
 41
0.8
 50
0.0
 71
     0
 42
0.2
  3
txt
  4

  0
ENDTAB
  0
TABLE
  2
VIEW
 70
     0
  0
ENDTAB
  0
TABLE
  2
UCS
 70
     0
  0
ENDTAB
  0
TABLE
  2
APPID
 70
    10
  0
APPID
  2
ACAD
 70
     0
  0
APPID
  2
ACAD_MLEADERVER
 70
     0
  0
APPID
  2
ACAD_EXEMPT_FROM_CAD_STANDARDS
 70
     0
  0
APPID
  2
ACAD_DSTYLE_DIMJAG
 70
     0
  0
APPID
  2
ACAD_DSTYLE_DIMTALN
 70
     0
  0
APPID
  2
ACAD_NAV_VCDISPLAY
 70
     0
  0
APPID
  2
ACAECLAYERSTANDARD
 70
     0
  0
APPID
  2
ACCMTRANSPARENCY
 70
     0
  0
APPID
  2
DCO15
 70
     0
  0
APPID
  2
ACDBATTR
 70
     0
  0
ENDTAB
  0
TABLE
  2
DIMSTYLE
 70
     1
  0
DIMSTYLE
  2
STANDARD
 70
     0
  3

  4

  5

  6

  7

 40
1.0
 41
0.1875
 42
0.0625
 43
0.38
 44
0.125
 45
0.0
 46
0.0
 47
0.01
 48
0.01
140
0.15625
141
0.09
142
0.0
143
25.3999999999999986
144
1.0
145
0.0
146
1.0
147
0.09
 71
     1
 72
     0
 73
     1
 74
     1
 75
     0
 76
     0
 77
     0
 78
     4
170
     0
171
     2
172
     0
173
     0
174
     0
175
     0
176
     0
177
     0
178
     0
  0
ENDTAB
  0
ENDSEC
  0
SECTION
  2
BLOCKS
  0
BLOCK
  8
0
  2
$MODEL_SPACE
 70
     0
 10
0.0
 20
0.0
 30
0.0
  3
$MODEL_SPACE
  1

  0
ENDBLK
  5
21
  8
0
  0
BLOCK
 67
     1
  8
0
  2
$PAPER_SPACE
 70
     0
 10
0.0
 20
0.0
 30
0.0
  3
$PAPER_SPACE
  1

  0
ENDBLK
  5
1D
 67
     1
  8
0
  0
ENDSEC
  0
SECTION
  2
ENTITIES
  0
ATTDEF
  5
829
  8
DEFPOINTS
 10
73.9710613012599367
 20
8.7625620557109745
 30
0.0
 40
0.001
  1
K-77980T-4
  3

  2
MODELNUMBER
 70
     0
1001
ACDBATTR
1070
     0
1070
     1
  0
ATTDEF
  5
82A
  8
DEFPOINTS
 10
73.9710613012599367
 20
8.7608953890443093
 30
0.0
 40
0.001
  1
COMPONENTS
  3

  2
TRADENAME
 70
     0
1001
ACDBATTR
1070
     0
1070
     1
  0
ATTDEF
  5
82B
  8
DEFPOINTS
 10
73.9710613012599367
 20
8.7592287223776442
 30
0.0
 40
0.001
  1
BATHROOM SINK FAUCET HANDLE
  3

  2
PRODUCT
 70
     0
1001
ACDBATTR
1070
     0
1070
     1
  0
LINE
  5
D26
  8
0
 10
72.4647925490705234
 20
7.9943127643443086
 30
0.0
 11
71.8329027852705195
 21
7.9943127643443086
 31
0.0
  0
LINE
  5
D27
  8
0
 10
71.8053437301705202
 20
9.5502566532443058
 30
0.0
 11
71.8053437301705202
 21
5.9853136524443711
 31
0.0
  0
LINE
  5
D28
  8
0
 10
73.9383329174705182
 20
9.9419977512443065
 30
0.0
 11
73.8159172801705097
 21
9.9419977512443065
 31
0.0
  0
LINE
  5
D29
  8
0
 10
72.4746350687705103
 20
5.9675888536442878
 30
0.0
 11
72.4746350687705103
 21
9.5679814520443056
 31
0.0
  0
LINE
  5
D2A
  8
0
 10
72.5387266182705162
 20
9.5660129026443066
 30
0.0
 11
72.5387266182705162
 21
7.9557778754443058
 31
0.0
  0
LINE
  5
D2B
  8
0
 10
71.8329027852705195
 20
9.5778245229443062
 30
0.0
 11
72.4647925490705234
 21
9.5778245229443062
 31
0.0
  0
LINE
  5
D2C
  8
0
 10
72.5505376418705197
 20
9.5778245229443062
 30
0.0
 11
73.7180827118705224
 21
9.5778245229443062
 31
0.0
  0
LINE
  5
D2D
  8
0
 10
72.5387266182705162
 20
9.5581394834443056
 30
0.0
 11
72.520235974170518
 21
9.5581394834443056
 31
0.0
  0
LINE
  5
D2E
  8
0
 10
73.7968169706705197
 20
9.9270749538443042
 30
0.0
 11
73.7183750767705135
 21
9.6124617013443032
 31
0.0
  0
LINE
  5
D2F
  8
0
 10
73.7180827118705224
 20
9.6100794357443053
 30
0.0
 11
73.7180827118705224
 21
7.9117113423442813
 31
0.0
  0
LINE
  5
D30
  8
0
 10
73.9580179568705205
 20
7.5994792231443116
 30
0.0
 11
73.9580179568705205
 21
9.9223115549443062
 31
0.0
  0
ARC
  5
D31
  8
0
 10
74.3152770186070484
 20
8.7607578440084026
 30
0.0
 40
1.9688672943999059
 50
156.2588342579911966
 51
159.2077250921317102
  0
ARC
  5
D32
  8
0
 10
71.8348875174481662
 20
9.548281368859282
 30
0.0
 40
0.0296097469612371
 50
93.8434000988377903
 51
176.1749226853926871
  0
ARC
  5
D33
  8
0
 10
73.8159172801705097
 20
9.9223127118443042
 30
0.0
 40
0.0196850394
 50
90.0
 51
166.0
  0
ARC
  5
D34
  8
0
 10
73.9368897486465926
 20
9.9208696277971935
 30
0.0
 40
0.0211773543354838
 50
3.904184960453092
 51
86.0924478357527931
  0
ARC
  5
D35
  8
0
 10
72.5514693701251474
 20
9.5650818181436872
 30
0.0
 40
0.0127767227087442
 50
94.1819429443028895
 51
175.8209515997444043
  0
ARC
  5
D36
  8
0
 10
73.7313455064107046
 20
9.6096608254448181
 30
0.0
 40
0.0132693991423167
 50
167.8144769290493912
 51
178.1921876599980976
  0
ARC
  5
D37
  8
0
 10
72.4639483015943426
 20
9.5671378030295298
 30
0.0
 40
0.0107200156873888
 50
4.5137586502785849
 51
85.4830327659162634
  0
ARC
  5
D38
  8
0
 10
72.5202359742090152
 20
9.5502654676148797
 30
0.0
 40
0.0078740158294268
 50
90.0000002801143353
 51
156.2654661117065871
  0
LINE
  5
D39
  8
0
 10
72.5130279413705239
 20
9.5534347558443073
 30
0.0
 11
72.5130279413705239
 21
7.9683560222443042
 31
0.0
  0
LINE
  5
D3A
  8
0
 10
73.7968169706705197
 20
9.9270749538443042
 30
0.0
 11
73.7968169706705197
 21
7.5947158242443003
 31
0.0
  0
LINE
  5
D3B
  8
0
 10
73.9383329174705182
 20
7.5797930268443059
 30
0.0
 11
73.8159172801705097
 21
7.5797930268443059
 31
0.0
  0
LINE
  5
D3C
  8
0
 10
71.8329027852705195
 20
5.9577457827443094
 30
0.0
 11
72.4647925490705234
 21
5.9577457827443094
 31
0.0
  0
LINE
  5
D3D
  8
0
 10
72.5505376418705197
 20
7.9439662551443071
 30
0.0
 11
73.7180827118705224
 21
7.9439662551443071
 31
0.0
  0
LINE
  5
D3E
  8
0
 10
72.5387266182705162
 20
7.963651294644305
 30
0.0
 11
72.520235974170518
 21
7.963651294644305
 31
0.0
  0
LINE
  5
D3F
  8
0
 10
73.7968169706705197
 20
7.5947158242443074
 30
0.0
 11
73.7183750767705135
 21
7.9093290767443056
 31
0.0
  0
ARC
  5
D40
  8
0
 10
74.3152770186070484
 20
8.7610329340802071
 30
0.0
 40
1.9688672943999059
 50
200.7922749078682045
 51
203.7411657420084055
  0
ARC
  5
D41
  8
0
 10
71.8348875174481662
 20
5.9872889368293309
 30
0.0
 40
0.0296097469612371
 50
183.825077314607114
 51
266.1565999011622239
  0
ARC
  5
D42
  8
0
 10
73.8159172801705097
 20
7.5994780662443047
 30
0.0
 40
0.0196850394
 50
193.9999999999998863
 51
270.0
  0
ARC
  5
D43
  8
0
 10
73.9368897486465926
 20
7.6009211502914189
 30
0.0
 40
0.0211773543354838
 50
273.9075521642471926
 51
356.0958150395467214
  0
ARC
  5
D44
  8
0
 10
72.5514693701251474
 20
7.9567089599449217
 30
0.0
 40
0.0127767227087442
 50
184.1790484002555104
 51
265.8180570556971247
  0
ARC
  5
D45
  8
0
 10
73.7313455064107046
 20
7.9121299526437951
 30
0.0
 40
0.0132693991423167
 50
181.8078123400015897
 51
192.1855230709504099
  0
ARC
  5
D46
  8
0
 10
72.4639483015943426
 20
5.968432502659085
 30
0.0
 40
0.0107200156873888
 50
274.5169672340837224
 51
355.4862413497214106
  0
ARC
  5
D47
  8
0
 10
72.5202359742090152
 20
7.9715253104737327
 30
0.0
 40
0.0078740158294268
 50
203.7345338882931003
 51
269.9999997198855795
  0
ARC
  5
D48
  8
0
 10
71.834158252116751
 20
8.0232655147580978
 30
0.0
 40
0.028979957790257
 50
186.1250604672115969
 51
267.5170608727373747
  0
ARC
  5
D49
  8
0
 10
72.4643562786388742
 20
8.0046401264126068
 30
0.0
 40
0.0103365728933361
 50
272.4189721359736041
 51
353.9389060898749904
  0
ENDSEC
  0
EOF
