  0
SECTION
  2
HEADER
  9
$ACADVER
  1
AC1009
  9
$INSBASE
 10
566.7993196091397294
 20
62.2442891659114679
 30
0.0
  9
$EXTMIN
 10
558.2166426051396684
 20
62.2392861130772985
 30
0.0
  9
$EXTMAX
 10
570.4567778481913365
 20
105.2757845716773062
 30
0.0
  9
$LIMMIN
 10
0.0
 20
0.0
  9
$LIMMAX
 10
11.6929133858000007
 20
8.2677165353999982
  9
$ORTHOMODE
 70
     0
  9
$REGENMODE
 70
     1
  9
$FILLMODE
 70
     1
  9
$QTEXTMODE
 70
     0
  9
$MIRRTEXT
 70
     0
  9
$DRAGMODE
 70
     2
  9
$LTSCALE
 40
0.6431102362
  9
$OSMODE
 70
  4095
  9
$ATTMODE
 70
     1
  9
$TEXTSIZE
 40
0.2
  9
$TRACEWID
 40
0.05
  9
$TEXTSTYLE
  7
STANDARD
  9
$CLAYER
  8
0
  9
$CELTYPE
  6
BYLAYER
  9
$CECOLOR
 62
   256
  9
$DIMSCALE
 40
1.0
  9
$DIMASZ
 40
0.1875
  9
$DIMEXO
 40
0.0625
  9
$DIMDLI
 40
0.4443307087
  9
$DIMRND
 40
0.0
  9
$DIMDLE
 40
0.0
  9
$DIMEXE
 40
0.125
  9
$DIMTP
 40
0.01
  9
$DIMTM
 40
0.01
  9
$DIMTXT
 40
1.0
  9
$DIMCEN
 40
0.1052362205
  9
$DIMTSZ
 40
0.0
  9
$DIMTOL
 70
     1
  9
$DIMLIM
 70
     0
  9
$DIMTIH
 70
     0
  9
$DIMTOH
 70
     1
  9
$DIMSE1
 70
     0
  9
$DIMSE2
 70
     0
  9
$DIMTAD
 70
     0
  9
$DIMZIN
 70
     0
  9
$DIMBLK
  1

  9
$DIMASO
 70
     1
  9
$DIMSHO
 70
     1
  9
$DIMPOST
  1
\X
  9
$DIMAPOST
  1

  9
$DIMALT
 70
     1
  9
$DIMALTD
 70
     2
  9
$DIMALTF
 40
25.3999999999999986
  9
$DIMLFAC
 40
1.0
  9
$DIMTOFL
 70
     0
  9
$DIMTVP
 40
0.0
  9
$DIMTIX
 70
     0
  9
$DIMSOXD
 70
     0
  9
$DIMSAH
 70
     0
  9
$DIMBLK1
  1

  9
$DIMBLK2
  1

  9
$DIMSTYLE
  2
STANDARD
  9
$DIMCLRD
 70
     0
  9
$DIMCLRE
 70
     0
  9
$DIMCLRT
 70
     0
  9
$DIMTFAC
 40
1.0
  9
$DIMGAP
 40
0.09
  9
$LUNITS
 70
     2
  9
$LUPREC
 70
     4
  9
$SKETCHINC
 40
0.1
  9
$FILLETRAD
 40
0.0
  9
$AUNITS
 70
     0
  9
$AUPREC
 70
     0
  9
$MENU
  1
.
  9
$ELEVATION
 40
0.0
  9
$PELEVATION
 40
0.0
  9
$THICKNESS
 40
0.0
  9
$LIMCHECK
 70
     0
  9
$BLIPMODE
 70
     0
  9
$CHAMFERA
 40
0.0
  9
$CHAMFERB
 40
0.0
  9
$SKPOLY
 70
     0
  9
$TDCREATE
 40
2458172.5207638889551163
  9
$TDUPDATE
 40
2459801.7437037038616836
  9
$TDINDWG
 40
0.3352518287
  9
$TDUSRTIMER
 40
0.3352518287
  9
$USRTIMER
 70
     1
  9
$ANGBASE
 50
0.0
  9
$ANGDIR
 70
     0
  9
$PDMODE
 70
     0
  9
$PDSIZE
 40
0.3125
  9
$PLINEWID
 40
0.0
  9
$COORDS
 70
     1
  9
$SPLFRAME
 70
     0
  9
$SPLINETYPE
 70
     6
  9
$SPLINESEGS
 70
     8
  9
$ATTDIA
 70
     1
  9
$ATTREQ
 70
     1
  9
$HANDLING
 70
     1
  9
$HANDSEED
  5
12FBA
  9
$SURFTAB1
 70
     6
  9
$SURFTAB2
 70
     6
  9
$SURFTYPE
 70
     6
  9
$SURFU
 70
     6
  9
$SURFV
 70
     6
  9
$UCSNAME
  2

  9
$UCSORG
 10
0.0
 20
0.0
 30
0.0
  9
$UCSXDIR
 10
1.0
 20
0.0
 30
0.0
  9
$UCSYDIR
 10
0.0
 20
1.0
 30
0.0
  9
$PUCSNAME
  2

  9
$PUCSORG
 10
0.0
 20
0.0
 30
0.0
  9
$PUCSXDIR
 10
1.0
 20
0.0
 30
0.0
  9
$PUCSYDIR
 10
0.0
 20
1.0
 30
0.0
  9
$USERI1
 70
     0
  9
$USERI2
 70
     0
  9
$USERI3
 70
     0
  9
$USERI4
 70
     0
  9
$USERI5
 70
     0
  9
$USERR1
 40
0.0
  9
$USERR2
 40
0.0
  9
$USERR3
 40
0.0
  9
$USERR4
 40
0.0
  9
$USERR5
 40
0.0
  9
$WORLDVIEW
 70
     1
  9
$SHADEDGE
 70
     3
  9
$SHADEDIF
 70
    70
  9
$TILEMODE
 70
     1
  9
$MAXACTVP
 70
    64
  9
$PLIMCHECK
 70
     0
  9
$PEXTMIN
 10
1.0000000000000000E+20
 20
1.0000000000000000E+20
 30
1.0000000000000000E+20
  9
$PEXTMAX
 10
-1.0000000000000000E+20
 20
-1.0000000000000000E+20
 30
-1.0000000000000000E+20
  9
$PLIMMIN
 10
0.0
 20
0.0
  9
$PLIMMAX
 10
12.0
 20
9.0
  9
$UNITMODE
 70
     0
  9
$VISRETAIN
 70
     1
  9
$PLINEGEN
 70
     0
  9
$PSLTSCALE
 70
     1
  0
ENDSEC
  0
SECTION
  2
TABLES
  0
TABLE
  2
VPORT
 70
     1
  0
VPORT
  2
*ACTIVE
 70
     0
 10
0.0
 20
0.0
 11
1.0
 21
1.0
 12
137.2478364545098941
 22
-7.487665860390857
 13
0.0
 23
0.0
 14
1.0
 24
1.0
 15
0.0
 25
0.0
 16
0.0
 26
0.0
 36
14.6338572656650907
 17
429.6292891080536833
 27
69.7025415122186871
 37
0.0
 40
0.192048955454562
 41
2.0416666666666661
 42
50.0
 43
0.0
 44
0.0
 50
0.0
 51
0.0
 71
     0
 72
   100
 73
     1
 74
     1
 75
     0
 76
     0
 77
     0
 78
     0
  0
ENDTAB
  0
TABLE
  2
LTYPE
 70
     2
  0
LTYPE
  2
CONTINUOUS
 70
     0
  3
Solid line
 72
    65
 73
     0
 40
0.0
  0
LTYPE
  2
PHANTOM2
 70
     0
  3
___ _ _ ___ _ _ ___ _ _ ___ _ _
 72
    65
 73
     6
 40
1.25
 49
0.625
 49
-0.125
 49
0.125
 49
-0.125
 49
0.125
 49
-0.125
  0
ENDTAB
  0
TABLE
  2
LAYER
 70
     2
  0
LAYER
  2
0
 70
     0
 62
   255
  6
CONTINUOUS
  0
LAYER
  2
DEFPOINTS
 70
     0
 62
     7
  6
CONTINUOUS
  0
ENDTAB
  0
TABLE
  2
STYLE
 70
     1
  0
STYLE
  2
STANDARD
 70
     0
 40
0.0
 41
0.8
 50
0.0
 71
     0
 42
0.2
  3
txt
  4

  0
ENDTAB
  0
TABLE
  2
VIEW
 70
     0
  0
ENDTAB
  0
TABLE
  2
UCS
 70
     0
  0
ENDTAB
  0
TABLE
  2
APPID
 70
    10
  0
APPID
  2
ACAD
 70
     0
  0
APPID
  2
ACAD_MLEADERVER
 70
     0
  0
APPID
  2
ACAD_EXEMPT_FROM_CAD_STANDARDS
 70
     0
  0
APPID
  2
ACAD_DSTYLE_DIMJAG
 70
     0
  0
APPID
  2
ACAD_DSTYLE_DIMTALN
 70
     0
  0
APPID
  2
ACAD_NAV_VCDISPLAY
 70
     0
  0
APPID
  2
ACAECLAYERSTANDARD
 70
     0
  0
APPID
  2
ACCMTRANSPARENCY
 70
     0
  0
APPID
  2
DCO15
 70
     0
  0
APPID
  2
ACDBATTR
 70
     0
  0
ENDTAB
  0
TABLE
  2
DIMSTYLE
 70
     1
  0
DIMSTYLE
  2
STANDARD
 70
     0
  3

  4

  5

  6

  7

 40
1.0
 41
0.1875
 42
0.0625
 43
0.38
 44
0.125
 45
0.0
 46
0.0
 47
0.01
 48
0.01
140
0.15625
141
0.09
142
0.0
143
25.3999999999999986
144
1.0
145
0.0
146
1.0
147
0.09
 71
     1
 72
     0
 73
     1
 74
     1
 75
     0
 76
     0
 77
     0
 78
     4
170
     0
171
     2
172
     0
173
     0
174
     0
175
     0
176
     0
177
     0
178
     0
  0
ENDTAB
  0
ENDSEC
  0
SECTION
  2
BLOCKS
  0
BLOCK
  8
0
  2
$MODEL_SPACE
 70
     0
 10
0.0
 20
0.0
 30
0.0
  3
$MODEL_SPACE
  1

  0
ENDBLK
  5
21
  8
0
  0
BLOCK
 67
     1
  8
0
  2
$PAPER_SPACE
 70
     0
 10
0.0
 20
0.0
 30
0.0
  3
$PAPER_SPACE
  1

  0
ENDBLK
  5
1D
 67
     1
  8
0
  0
ENDSEC
  0
SECTION
  2
ENTITIES
  0
ATTDEF
  5
100F7
  8
DEFPOINTS
 10
566.7943677366371276
 20
62.2426194464106288
 30
0.0
 40
0.001
  1
K-77984T-4MU
  3

  2
MODELNUMBER
 70
     0
1001
ACDBATTR
1070
     0
1070
     1
  0
ATTDEF
  5
100F8
  8
DEFPOINTS
 10
566.7943677366371276
 20
62.2409527797439566
 30
0.0
 40
0.001
  1

  3

  2
TRADENAME
 70
     0
1001
ACDBATTR
1070
     0
1070
     1
  0
ATTDEF
  5
100F9
  8
DEFPOINTS
 10
566.7943677366371276
 20
62.2392861130772985
 30
0.0
 40
0.001
  1
BATH FAUCET
  3

  2
PRODUCT
 70
     0
1001
ACDBATTR
1070
     0
1070
     1
  0
LINE
  5
12B54
  8
0
 10
567.7127054182398069
 20
95.472634965211455
 30
0.0
 11
558.2442426051397888
 21
95.472634965211455
 31
0.0
  0
ARC
  5
12B55
  8
0
 10
565.8268377612149607
 20
95.5002348642363756
 30
0.0
 40
0.0275998990249293
 50
269.9999131732095066
 51
0.0002096184184901
  0
ARC
  5
12B56
  8
0
 10
567.7127014989896452
 20
95.4411349652114751
 30
0.0
 40
0.0315
 50
0.0
 51
90.0
  0
LINE
  5
12B57
  8
0
 10
565.8268377193896868
 20
95.9450759012114531
 30
0.0
 11
559.582784234839778
 21
95.9450759012114531
 31
0.0
  0
LINE
  5
12B58
  8
0
 10
564.4489149291897547
 20
62.2442891659114679
 30
0.0
 11
569.1497242891897486
 21
62.2442891659114679
 31
0.0
  0
LINE
  5
12B59
  8
0
 10
564.4656328902897258
 20
63.044080939511467
 30
0.0
 11
569.1330063280896638
 21
63.044080939511467
 31
0.0
  0
LINE
  5
12B5A
  8
0
 10
565.7953826201897982
 20
63.4253901695114735
 30
0.0
 11
567.8032565981898188
 21
63.4253901695114735
 31
0.0
  0
LINE
  5
12B5B
  8
0
 10
564.4371149291896472
 20
63.006213516338633
 30
0.0
 11
564.4371149291896472
 21
62.256089165911483
 31
0.0
  0
LINE
  5
12B5C
  8
0
 10
569.1615242891897424
 20
63.0062360634114711
 30
0.0
 11
569.1615242891897424
 21
62.256089165911483
 31
0.0
  0
LINE
  5
12B5D
  8
0
 10
565.7953826201897982
 20
63.4253901695114735
 30
0.0
 11
564.4656328902897258
 21
63.044080939511467
 31
0.0
  0
ARC
  5
12B5E
  8
0
 10
564.4765149452290416
 20
63.0062135109720174
 30
0.0
 40
0.0394000160392114
 50
106.0331918579855
 51
179.9999921958352047
  0
ARC
  5
12B5F
  8
0
 10
564.4489149291897547
 20
62.256089165911483
 30
0.0
 40
0.0118
 50
180.0
 51
270.0
  0
LINE
  5
12B60
  8
0
 10
569.1615242891897424
 20
63.0062360634114711
 30
0.0
 11
569.1615242891897424
 21
62.256089165911483
 31
0.0
  0
LINE
  5
12B61
  8
0
 10
567.8032565981898188
 20
63.4253901695114735
 30
0.0
 11
569.1330063280896638
 21
63.044080939511467
 31
0.0
  0
ARC
  5
12B62
  8
0
 10
569.1221242635524504
 20
63.0062134970197008
 30
0.0
 40
0.0394000320997496
 50
0.0328161935274797
 51
73.9668003312116298
  0
ARC
  5
12B63
  8
0
 10
569.1497242891897486
 20
62.256089165911483
 30
0.0
 40
0.0118
 50
270.0
 51
0.0
  0
LINE
  5
12B64
  8
0
 10
559.3583748886396734
 20
104.921453862910198
 30
0.0
 11
558.2560126838397991
 21
104.921453862910198
 31
0.0
  0
LINE
  5
12B65
  8
0
 10
567.7442014989898098
 20
93.2875956340114669
 30
0.0
 11
565.8544377194398294
 21
93.2875956340114669
 31
0.0
  0
LINE
  5
12B66
  8
0
 10
567.7442014989397876
 20
85.00413120391147
 30
0.0
 11
565.8544377194398294
 21
85.00413120391147
 31
0.0
  0
LINE
  5
12B67
  8
0
 10
565.8544376602397961
 20
95.5002349652114759
 30
0.0
 11
565.8544376602397961
 21
95.9174759012114748
 31
0.0
  0
LINE
  5
12B68
  8
0
 10
567.7442014989898098
 20
92.5141326117703073
 30
0.0
 11
567.7442014989898098
 21
95.4411349652114751
 31
0.0
  0
LINE
  5
12B69
  8
0
 10
567.3701857509897764
 20
104.7049184298114
 30
0.0
 11
567.3701857509897764
 21
95.472634965211455
 31
0.0
  0
LINE
  5
12B6A
  8
0
 10
566.2284534674397491
 20
104.7049321889668931
 30
0.0
 11
566.2284534674397491
 21
95.472634965211455
 31
0.0
  0
ARC
  5
12B6B
  8
0
 10
566.7993196091397294
 20
104.7049184298114
 30
0.0
 40
0.5708661418658147
 50
0.0
 51
179.9986190430983868
  0
LINE
  5
12B6C
  8
0
 10
568.6969534408397067
 20
87.0474382562114783
 30
0.0
 11
568.2264424171396513
 21
87.0474382562114783
 31
0.0
  0
LINE
  5
12B6D
  8
0
 10
568.2166424171398376
 20
87.0474382562114783
 30
0.0
 11
567.9253482102991484
 21
87.0474382562114783
 31
0.0
  0
LINE
  5
12B6E
  8
0
 10
570.4567778481913365
 20
92.9186473521005354
 30
0.0
 11
570.4567778481913365
 21
90.8218983283224048
 31
0.0
  0
LINE
  5
12B6F
  8
0
 10
567.243969917639788
 20
91.5750738618277751
 30
0.0
 11
567.243969917639788
 21
87.8348400556114655
 31
0.0
  0
ARC
  5
12B70
  8
0
 10
568.9574070610030958
 20
88.1325742565906296
 30
0.0
 40
1.768071318452977
 50
203.1858635953441876
 51
226.6603520030730863
  0
ARC
  5
12B71
  8
0
 10
568.3368807090714654
 20
87.8677713666975251
 30
0.0
 40
1.093406788391613
 50
181.7258869664696874
 51
203.2327722825313003
  0
ARC
  5
12B72
  8
0
 10
567.936005008937741
 20
86.8554681002625131
 30
0.0
 40
0.1922657227180233
 50
93.1773872738662021
 51
182.6259052679606896
  0
LINE
  5
12B73
  8
0
 10
570.4372497609396078
 20
92.9383466019849038
 30
0.0
 11
568.7837363750880968
 21
92.9527765946121463
 31
0.0
  0
LINE
  5
12B74
  8
0
 10
568.7638644623397113
 20
92.9330773447277636
 30
0.0
 11
568.7638644623397113
 21
90.8074683356412038
 31
0.0
  0
LINE
  5
12B75
  8
0
 10
568.7284534408396439
 20
92.3308988158114943
 30
0.0
 11
568.7284534408396439
 21
90.8190956662114672
 31
0.0
  0
ARC
  5
12B76
  8
0
 10
568.6969534408397067
 20
90.8190956662114672
 30
0.0
 40
0.0315
 50
270.0
 51
0.0
  0
LINE
  5
12B77
  8
0
 10
568.6969534408397067
 20
92.3623988158114742
 30
0.0
 11
568.2264424171396513
 21
92.3623988158114742
 31
0.0
  0
ARC
  5
12B78
  8
0
 10
567.9015158543611506
 20
92.5183030448336865
 30
0.0
 40
0.1573696251435767
 50
181.5185661822970928
 51
262.1748571149104237
  0
ARC
  5
12B79
  8
0
 10
568.6969534408397067
 20
92.3308988158114943
 30
0.0
 40
0.0315
 50
359.9999999999968168
 51
90.0
  0
ARC
  5
12B7A
  8
0
 10
570.4370778481911657
 20
92.9186473521005354
 30
0.0
 40
0.0197
 50
0.0
 51
89.5000000028160088
  0
ARC
  5
12B7B
  8
0
 10
568.7835644623396547
 20
92.9330773447277636
 30
0.0
 40
0.0197
 50
89.5000000028160088
 51
180.0000000000048885
  0
ARC
  5
12B7C
  8
0
 10
568.7382959605397446
 20
91.9686980284114668
 30
0.0
 40
0.0098425196999958
 50
179.9999999999791953
 51
270.000000000019611
  0
LINE
  5
12B7D
  8
0
 10
564.6635018090396443
 20
70.323310805311479
 30
0.0
 11
564.6635018090396443
 21
92.9576314472114689
 31
0.0
  0
LINE
  5
12B7E
  8
0
 10
565.2343500077397493
 20
70.3233108053114648
 30
0.0
 11
565.2343500077397493
 21
92.9576314472114689
 31
0.0
  0
LINE
  5
12B7F
  8
0
 10
558.2166426051396684
 20
94.9490538732114544
 30
0.0
 11
558.2166426051396684
 21
95.4450349652114767
 31
0.0
  0
LINE
  5
12B80
  8
0
 10
558.2442426051397888
 20
94.9214538732114761
 30
0.0
 11
566.7993196431300476
 21
94.9214538732114761
 31
0.0
  0
ARC
  5
12B81
  8
0
 10
558.2442426051397888
 20
94.9490538732114544
 30
0.0
 40
0.0276
 50
180.0
 51
270.0
  0
ARC
  5
12B82
  8
0
 10
558.2442426051397888
 20
95.4450349652114767
 30
0.0
 40
0.0276
 50
89.9999999999934914
 51
180.0000000000109992
  0
LINE
  5
12B83
  8
0
 10
558.5217696869398196
 20
70.323310805311479
 30
0.0
 11
558.5217696869398196
 21
94.1576745477114656
 31
0.0
  0
LINE
  5
12B84
  8
0
 10
559.092617885639811
 20
70.323310805311479
 30
0.0
 11
559.092617885639811
 21
94.1576745477114656
 31
0.0
  0
ARC
  5
12B85
  8
0
 10
561.8780598473398413
 20
70.3233108053114648
 30
0.0
 40
2.7854419617000001
 50
180.0
 51
0.0
  0
ARC
  5
12B86
  8
0
 10
561.8780598473398413
 20
70.3233108053114648
 30
0.0
 40
3.3562901603999991
 50
180.0
 51
0.0
  0
ARC
  5
12B87
  8
0
 10
565.8268377612149607
 20
95.9174760021865609
 30
0.0
 40
0.0275998990249384
 50
359.9997903815998939
 51
90.0000868267775047
  0
LINE
  5
12B88
  8
0
 10
564.6543028143396441
 20
92.9576314472114689
 30
0.0
 11
565.2435490024397495
 21
92.9576314472114689
 31
0.0
  0
LINE
  5
12B89
  8
0
 10
564.6543028143396441
 20
92.9576314472114689
 30
0.0
 11
564.6543028143396441
 21
93.5724601674114638
 31
0.0
  0
LINE
  5
12B8A
  8
0
 10
565.2435490024397495
 20
93.5724601674114638
 30
0.0
 11
565.2435490024397495
 21
92.9576314472114689
 31
0.0
  0
LINE
  5
12B8B
  8
0
 10
564.5139259084396599
 20
93.5724601674114638
 30
0.0
 11
565.3839259084396645
 21
93.5724601674114638
 31
0.0
  0
LINE
  5
12B8C
  8
0
 10
564.49617000283979
 20
93.6544373301114632
 30
0.0
 11
565.401681813939831
 21
93.6544373301114632
 31
0.0
  0
LINE
  5
12B8D
  8
0
 10
564.5139259084396599
 20
93.5724601674114638
 30
0.0
 11
564.5139259084396599
 21
93.6544373301114632
 31
0.0
  0
ARC
  5
12B8E
  8
0
 10
568.3607468879472435
 20
91.5253504665437987
 30
0.0
 40
1.1178833648676709
 50
137.5363948443593074
 51
177.4506455308716966
  0
ARC
  5
12B8F
  8
0
 10
558.8284562717459494
 20
100.2318774246253952
 30
0.0
 40
11.7921201636293205
 50
317.5975996213202848
 51
319.1195231927061968
  0
LINE
  5
12B90
  8
0
 10
568.7382959605397446
 20
91.9588555087114798
 30
0.0
 11
568.7638644623397113
 21
91.9588555087114656
 31
0.0
  0
LINE
  5
12B91
  8
0
 10
564.49617000283979
 20
94.023334562211474
 30
0.0
 11
565.401681813939831
 21
94.023334562211474
 31
0.0
  0
LINE
  5
12B92
  8
0
 10
565.401681813939831
 20
94.023334562211474
 30
0.0
 11
565.401681813939831
 21
93.6544373301114632
 31
0.0
  0
LINE
  5
12B93
  8
0
 10
565.3839259084396645
 20
93.6544373301114632
 30
0.0
 11
565.3839259084396645
 21
93.5724601674114638
 31
0.0
  0
LINE
  5
12B94
  8
0
 10
564.49617000283979
 20
94.023334562211474
 30
0.0
 11
564.49617000283979
 21
93.6544373301114632
 31
0.0
  0
LINE
  5
12B95
  8
0
 10
564.5139259084396599
 20
94.1053117249114734
 30
0.0
 11
565.3839259084396645
 21
94.1053117249114734
 31
0.0
  0
LINE
  5
12B96
  8
0
 10
564.5139259084396599
 20
94.1053117249114734
 30
0.0
 11
564.5139259084396599
 21
94.0233345622114598
 31
0.0
  0
LINE
  5
12B97
  8
0
 10
565.3839259084396645
 20
94.0233345622114598
 30
0.0
 11
565.3839259084396645
 21
94.1053117249114734
 31
0.0
  0
LINE
  5
12B98
  8
0
 10
565.3918393489398113
 20
94.13011528021147
 30
0.0
 11
564.5060124678398097
 21
94.13011528021147
 31
0.0
  0
LINE
  5
12B99
  8
0
 10
564.5886896879397909
 20
94.1203152802114715
 30
0.0
 11
564.5886896879397909
 21
94.1053117249114734
 31
0.0
  0
ARC
  5
12B9A
  8
0
 10
564.5788896879397498
 20
94.1203152802114715
 30
0.0
 40
0.0098
 50
0.0000000000105849
 51
90.0
  0
LINE
  5
12B9B
  8
0
 10
564.4932742456281858
 20
94.1428534990023849
 30
0.0
 11
564.5060125161396627
 21
94.13011528021147
 31
0.0
  0
LINE
  5
12B9C
  8
0
 10
564.4764849635397468
 20
94.1340523132114839
 30
0.0
 11
564.3583744598397516
 21
94.134053613111476
 31
0.0
  0
ARC
  5
12B9D
  8
0
 10
564.9723361573079501
 20
93.2085730281012133
 30
0.0
 40
1.049943004895795
 50
91.2776118445996758
 51
118.1814146807250978
  0
ARC
  5
12B9E
  8
0
 10
562.208909232892438
 20
93.3759719526458838
 30
0.0
 40
1.5494363442601919
 50
65.634361799062944
 51
85.9049726517044974
  0
ARC
  5
12B9F
  8
0
 10
550.1027135129417047
 20
66.6454110055194633
 30
0.0
 40
30.8936498003710014
 50
63.7998610226972502
 51
65.634361799062944
  0
ARC
  5
12BA0
  8
0
 10
564.5761085735027791
 20
95.6129154248839654
 30
0.0
 40
1.50075758244763
 50
236.2580632861688912
 51
251.8517237642992086
  0
ARC
  5
12BA1
  8
0
 10
564.3967123719963865
 20
94.9328176178384808
 30
0.0
 40
0.7996848016448898
 50
248.8868212016693917
 51
267.2521375209291818
  0
LINE
  5
12BA2
  8
0
 10
565.3091621289396471
 20
94.1203152802114715
 30
0.0
 11
565.3091621289396471
 21
94.1053117249114734
 31
0.0
  0
ARC
  5
12BA3
  8
0
 10
565.3189621289396882
 20
94.1203152802114715
 30
0.0
 40
0.0098
 50
90.0
 51
179.9999999999893987
  0
LINE
  5
12BA4
  8
0
 10
565.4213668533396913
 20
94.1340523132114839
 30
0.0
 11
565.6182199771450314
 21
94.1340544797366192
 31
0.0
  0
ARC
  5
12BA5
  8
0
 10
564.925515659571488
 20
93.2085730281012133
 30
0.0
 40
1.049943004895795
 50
61.8185853192748525
 51
88.72238815540031
  0
LINE
  5
12BA6
  8
0
 10
565.3918393489398113
 20
94.13011528021147
 30
0.0
 11
565.4045775700202512
 21
94.1428534996336168
 31
0.0
  0
LINE
  5
12BA7
  8
0
 10
565.8544376602397961
 20
63.4253901695114592
 30
0.0
 11
565.8544376602397961
 21
93.8978324114393956
 31
0.0
  0
LINE
  5
12BA8
  8
0
 10
567.7439411733773795
 20
86.8466595134195671
 30
0.0
 11
567.7439411733773795
 21
63.4253901695114735
 31
0.0
  0
LINE
  5
12BA9
  8
0
 10
570.4372497609401762
 20
90.8021990784380506
 30
0.0
 11
568.7837363750887789
 21
90.7875956662114731
 31
0.0
  0
ARC
  5
12BAA
  8
0
 10
568.7838605285426183
 20
90.8075917277014071
 30
0.0
 40
0.0199964469141325
 50
180.3535572681560097
 51
269.6442610703318223
  0
ARC
  5
12BAB
  8
0
 10
570.4370778481911657
 20
90.8218983283224048
 30
0.0
 40
0.0197
 50
270.4999999990599804
 51
0.0000000000048853
  0
ARC
  5
12BAC
  8
0
 10
568.7382959605397446
 20
91.1812964536114947
 30
0.0
 40
0.0098425196999958
 50
89.9999999999804601
 51
180.000000000020691
  0
LINE
  5
12BAD
  8
0
 10
568.7382959605397446
 20
91.1911389733114532
 30
0.0
 11
568.7638644623397113
 21
91.1911389733114532
 31
0.0
  0
LINE
  5
12BAE
  8
0
 10
570.4567778481398364
 20
89.1784899421005264
 30
0.0
 11
570.4567778481398364
 21
87.0817409183224242
 31
0.0
  0
LINE
  5
12BAF
  8
0
 10
570.4372497608881076
 20
89.1981891919848948
 30
0.0
 11
568.783736375036483
 21
89.2126191846121515
 31
0.0
  0
LINE
  5
12BB0
  8
0
 10
568.7638644622880975
 20
89.1929199347277688
 30
0.0
 11
568.7638644622880975
 21
87.0673109256411948
 31
0.0
  0
ARC
  5
12BB1
  8
0
 10
568.6969534407880928
 20
88.5907414058114853
 30
0.0
 40
0.0315
 50
359.9999999999968168
 51
90.0
  0
ARC
  5
12BB2
  8
0
 10
570.4370778481396655
 20
89.1784899421005264
 30
0.0
 40
0.0197
 50
0.0
 51
89.5000000028160088
  0
ARC
  5
12BB3
  8
0
 10
568.7835644622881546
 20
89.1929199347277688
 30
0.0
 40
0.0197
 50
89.5000000028160088
 51
180.0000000000048885
  0
ARC
  5
12BB4
  8
0
 10
568.7382959604882444
 20
88.2285406184114578
 30
0.0
 40
0.0098425196999958
 50
179.9999999999791953
 51
270.000000000019611
  0
LINE
  5
12BB5
  8
0
 10
568.7382959604882444
 20
88.2186980987114708
 30
0.0
 11
568.7638644622880975
 21
88.2186980987114708
 31
0.0
  0
LINE
  5
12BB6
  8
0
 10
570.4372497608886761
 20
87.0620416684380416
 30
0.0
 11
568.7837363750371651
 21
87.0474382562114783
 31
0.0
  0
ARC
  5
12BB7
  8
0
 10
568.7838605284911182
 20
87.0674343177013981
 30
0.0
 40
0.019996446914129
 50
180.3535572681487054
 51
269.6442610703384162
  0
ARC
  5
12BB8
  8
0
 10
570.4370778481396655
 20
87.0817409183224242
 30
0.0
 40
0.0197
 50
270.4999999990599804
 51
0.0000000000048853
  0
ARC
  5
12BB9
  8
0
 10
568.7382959604882444
 20
87.4411390436114857
 30
0.0
 40
0.0098425196999958
 50
89.9999999999804601
 51
180.000000000020691
  0
LINE
  5
12BBA
  8
0
 10
568.7382959604882444
 20
87.4509815633114727
 30
0.0
 11
568.7638644622880975
 21
87.4509815633114727
 31
0.0
  0
ARC
  5
12BBB
  8
0
 10
568.6969534408397067
 20
87.0789382562114582
 30
0.0
 40
0.0315
 50
269.9999999999935199
 51
359.9999999999984084
  0
LINE
  5
12BBC
  8
0
 10
568.2166424171398376
 20
92.3623988010114658
 30
0.0
 11
568.2166424171398376
 21
87.0474382710114725
 31
0.0
  0
ARC
  5
12BBD
  8
0
 10
568.2264424171396513
 20
92.3525988158114615
 30
0.0
 40
0.0098
 50
90.0000000000130314
 51
179.9999999999893987
  0
LINE
  5
12BBE
  8
0
 10
568.6969534408397067
 20
90.7875956662114731
 30
0.0
 11
568.2264424171396513
 21
90.7875956662114731
 31
0.0
  0
ARC
  5
12BBF
  8
0
 10
568.2264424171396513
 20
90.7973956662114858
 30
0.0
 40
0.0098
 50
180.0000000000100897
 51
269.9999999999869829
  0
LINE
  5
12BC0
  8
0
 10
568.2166424171398376
 20
92.3623988010114658
 30
0.0
 11
567.8800899286909498
 21
92.3623988158114742
 31
0.0
  0
LINE
  5
12BC1
  8
0
 10
568.7284534408396439
 20
87.0789382562114582
 30
0.0
 11
568.7284534408396439
 21
88.5907414058114853
 31
0.0
  0
ARC
  5
12BC2
  8
0
 10
568.6969534408397067
 20
88.5907414058114853
 30
0.0
 40
0.0315
 50
0.0
 51
90.0
  0
LINE
  5
12BC3
  8
0
 10
568.6969534408397067
 20
87.0474382562114783
 30
0.0
 11
568.2264424171396513
 21
87.0474382562114783
 31
0.0
  0
ARC
  5
12BC4
  8
0
 10
568.6969534408397067
 20
87.0789382562114582
 30
0.0
 40
0.0315
 50
269.9999999999935199
 51
0.0000000000032569
  0
ARC
  5
12BC5
  8
0
 10
568.7382959605397446
 20
87.4411390436114857
 30
0.0
 40
0.0098425196999958
 50
89.9999999999804601
 51
180.000000000020691
  0
ARC
  5
12BC6
  8
0
 10
568.7382959605397446
 20
88.2285406184114578
 30
0.0
 40
0.0098425196999958
 50
179.9999999999791953
 51
270.000000000019611
  0
ARC
  5
12BC7
  8
0
 10
568.2264424171396513
 20
87.0572382562114768
 30
0.0
 40
0.0098
 50
180.0000000000100897
 51
269.9999999999869829
  0
LINE
  5
12BC8
  8
0
 10
568.6969534408397067
 20
88.6222414058114651
 30
0.0
 11
568.2264424171396513
 21
88.6222414058114651
 31
0.0
  0
ARC
  5
12BC9
  8
0
 10
568.2264424171396513
 20
88.6124414058114667
 30
0.0
 40
0.0098
 50
90.0000000000130314
 51
179.9999999999893987
  0
ARC
  5
12BCA
  8
0
 10
570.2075704516332735
 20
90.8274636942967533
 30
0.0
 40
5.3270000148970578
 50
129.7774142261388874
 51
144.8037675639093038
  0
ARC
  5
12BCB
  8
0
 10
565.6180442316760946
 20
93.8976610543948169
 30
0.0
 40
0.2363934906703076
 50
0.041532600055506
 51
89.9574037570508693
  0
LINE
  5
12BCC
  8
0
 10
565.421351892639791
 20
96.7324774849114846
 30
0.0
 11
564.4764849635397468
 21
96.7324774849114846
 31
0.0
  0
LINE
  5
12BCD
  8
0
 10
564.4764849635397468
 20
96.338776697511463
 30
0.0
 11
565.421351892639791
 21
96.338776697511463
 31
0.0
  0
LINE
  5
12BCE
  8
0
 10
565.2442014989396739
 20
96.3190766975114627
 30
0.0
 11
565.2442014989396739
 21
95.9450759012114531
 31
0.0
  0
ARC
  5
12BCF
  8
0
 10
565.263901498939731
 20
96.3190766975114627
 30
0.0
 40
0.0197
 50
89.9999999999934914
 51
180.0
  0
LINE
  5
12BD0
  8
0
 10
565.4410518926397344
 20
96.7127774849114843
 30
0.0
 11
565.4410518926397344
 21
96.3584766975114633
 31
0.0
  0
ARC
  5
12BD1
  8
0
 10
565.421351892639791
 20
96.7127774849114843
 30
0.0
 40
0.0197
 50
0.0
 51
90.0
  0
ARC
  5
12BD2
  8
0
 10
565.421351892639791
 20
96.3584766975114633
 30
0.0
 40
0.0197
 50
270.0
 51
0.0000000000207627
  0
ARC
  5
12BD3
  8
0
 10
559.5828251802397517
 20
95.5002349652114759
 30
0.0
 40
0.0276
 50
180.0
 51
270.0
  0
LINE
  5
12BD4
  8
0
 10
559.555225180239745
 20
95.5002349652114759
 30
0.0
 11
559.555225180239745
 21
95.9174759012114748
 31
0.0
  0
ARC
  5
12BD5
  8
0
 10
559.5828251802397517
 20
95.9174759012114748
 30
0.0
 40
0.0276
 50
90.0000000000065086
 51
180.0
  0
LINE
  5
12BD6
  8
0
 10
564.6536503179396504
 20
96.3190766975114627
 30
0.0
 11
564.6536503179396504
 21
95.9450759012114531
 31
0.0
  0
ARC
  5
12BD7
  8
0
 10
564.633950317939707
 20
96.3190766975114627
 30
0.0
 40
0.0197
 50
0.0
 51
90.0000000000065086
  0
LINE
  5
12BD8
  8
0
 10
564.4567999242398173
 20
96.7127774849114843
 30
0.0
 11
564.4567999242398173
 21
96.3584766975114633
 31
0.0
  0
ARC
  5
12BD9
  8
0
 10
564.476499924239647
 20
96.7127774849114843
 30
0.0
 40
0.0197
 50
90.0
 51
180.0
  0
ARC
  5
12BDA
  8
0
 10
564.476499924239647
 20
96.3584766975114633
 30
0.0
 40
0.0197
 50
179.9999999999791953
 51
270.0
  0
LINE
  5
12BDB
  8
0
 10
558.4024724834301878
 20
94.2292535332419163
 30
0.0
 11
558.3839654398396988
 21
94.6734225792114614
 31
0.0
  0
LINE
  5
12BDC
  8
0
 10
558.3839654398396988
 20
94.6734225792114614
 30
0.0
 11
559.2304221327398182
 21
94.6734225792114756
 31
0.0
  0
LINE
  5
12BDD
  8
0
 10
558.380684599939741
 20
94.7521627367114689
 30
0.0
 11
559.2337029726396622
 21
94.7521627367114689
 31
0.0
  0
ARC
  5
12BDE
  8
0
 10
558.4091618125778496
 20
94.7127926579114643
 30
0.0
 40
0.0350393701032574
 50
89.9992189354271659
 51
270.0007810645727773
  0
LINE
  5
12BDF
  8
0
 10
558.4091618125778496
 20
94.7478320280114588
 30
0.0
 11
559.2052252823398248
 21
94.7478320280114588
 31
0.0
  0
LINE
  5
12BE0
  8
0
 10
558.380684599939741
 20
94.7521627367114689
 30
0.0
 11
558.3736308025397648
 21
94.9214538732114761
 31
0.0
  0
LINE
  5
12BE1
  8
0
 10
558.6438356163620256
 20
94.3978320532246329
 30
0.0
 11
558.8071932734397933
 21
94.3978320532246329
 31
0.0
  0
LINE
  5
12BE2
  8
0
 10
558.6438356163620256
 20
94.3978320532246329
 30
0.0
 11
558.6624441010397959
 21
94.22927994501147
 31
0.0
  0
LINE
  5
12BE3
  8
0
 10
558.431946909086264
 20
94.200981634311475
 30
0.0
 11
559.1824142288396615
 21
94.200981634311475
 31
0.0
  0
ARC
  5
12BE4
  8
0
 10
558.431946909086264
 20
94.2304816343114737
 30
0.0
 40
0.0295
 50
182.3859440314618041
 51
270.0
  0
LINE
  5
12BE5
  8
0
 10
558.5119181957397814
 20
94.1576745477114656
 30
0.0
 11
559.1024693768397356
 21
94.1576745477114656
 31
0.0
  0
LINE
  5
12BE6
  8
0
 10
558.5119181957397814
 20
94.1576745477114656
 30
0.0
 11
558.5119181957397814
 21
94.200981634311475
 31
0.0
  0
ARC
  5
12BE7
  8
0
 10
558.684620557684525
 20
94.2358759211322479
 30
0.0
 40
0.0231353629953718
 50
196.5450081288352067
 51
251.4686027432572928
  0
ARC
  5
12BE8
  8
0
 10
558.7594438075747121
 20
94.4590924665993867
 30
0.0
 40
0.2585586942402033
 50
251.4686027432574065
 51
266.6271824404536801
  0
LINE
  5
12BE9
  8
0
 10
558.4134929988397289
 20
94.7478320280114588
 30
0.0
 11
558.4134929988397289
 21
94.7521627367114689
 31
0.0
  0
LINE
  5
12BEA
  8
0
 10
558.4134929988397289
 20
94.6777532879114574
 30
0.0
 11
558.4134929988397289
 21
94.6734225792114756
 31
0.0
  0
LINE
  5
12BEB
  8
0
 10
559.2119140634492851
 20
94.2292535332419163
 30
0.0
 11
559.2304211070396605
 21
94.6734225792114614
 31
0.0
  0
ARC
  5
12BEC
  8
0
 10
559.205224734301737
 20
94.7127926579114643
 30
0.0
 40
0.0350393701032574
 50
269.9992189354272227
 51
90.0007810645728199
  0
LINE
  5
12BED
  8
0
 10
559.2337019469397319
 20
94.7521627367114689
 30
0.0
 11
559.2407557443398218
 21
94.9214538732114761
 31
0.0
  0
LINE
  5
12BEE
  8
0
 10
558.9705509305174473
 20
94.3978320532246329
 30
0.0
 11
558.8071932734397933
 21
94.3978320532246329
 31
0.0
  0
LINE
  5
12BEF
  8
0
 10
558.9705509305174473
 20
94.3978320532246329
 30
0.0
 11
558.9519424458397907
 21
94.22927994501147
 31
0.0
  0
ARC
  5
12BF0
  8
0
 10
559.1824396377932089
 20
94.2304816343114737
 30
0.0
 40
0.0295
 50
270.0
 51
357.614055968537798
  0
LINE
  5
12BF1
  8
0
 10
559.1024683511398052
 20
94.1576745477114656
 30
0.0
 11
559.1024683511398052
 21
94.200981634311475
 31
0.0
  0
ARC
  5
12BF2
  8
0
 10
558.9297659891950616
 20
94.2358759211322479
 30
0.0
 40
0.0231353629953718
 50
288.5313972567427072
 51
343.4549918711646797
  0
ARC
  5
12BF3
  8
0
 10
558.8549427393047608
 20
94.4590924665993867
 30
0.0
 40
0.2585586942402033
 50
280.0360592635939838
 51
288.5313972567425935
  0
ARC
  5
12BF4
  8
0
 10
558.8597495812769012
 20
94.4319314803381786
 30
0.0
 40
0.2309756395793143
 50
270.8562767736553951
 51
280.0360592635939838
  0
LINE
  5
12BF5
  8
0
 10
559.200893548039744
 20
94.7478320280114588
 30
0.0
 11
559.200893548039744
 21
94.7521627367114689
 31
0.0
  0
LINE
  5
12BF6
  8
0
 10
559.200893548039744
 20
94.6777532879114574
 30
0.0
 11
559.200893548039744
 21
94.6734225792114756
 31
0.0
  0
LINE
  5
12BF7
  8
0
 10
559.2052279295812696
 20
94.6777532879114574
 30
0.0
 11
558.4091591225436559
 21
94.6777532879114574
 31
0.0
  0
LINE
  5
12BF8
  8
0
 10
559.3583748886396734
 20
104.921453862911406
 30
0.0
 11
559.3583748886396734
 21
95.472634965211455
 31
0.0
  0
LINE
  5
12BF9
  8
0
 10
558.2560126838397991
 20
104.921453862911406
 30
0.0
 11
558.2560126838397991
 21
95.472634965211455
 31
0.0
  0
CIRCLE
  5
12BFA
  8
0
 10
558.582784337439648
 20
104.6005877211113955
 30
0.0
 40
0.0393684199012689
  0
ARC
  5
12BFB
  8
0
 10
558.5827840214398066
 20
104.6005870094113988
 30
0.0
 40
0.0991089478204738
 50
152.1041091078211025
 51
204.0610539147222937
  0
LINE
  5
12BFC
  8
0
 10
558.5795320266397539
 20
104.5060995321114063
 30
0.0
 11
558.6354489507398284
 21
104.5060995357314937
 31
0.0
  0
LINE
  5
12BFD
  8
0
 10
558.6753896096397511
 20
104.5454696109113968
 30
0.0
 11
558.6753896096397511
 21
104.6005877211113955
 31
0.0
  0
ARC
  5
12BFE
  8
0
 10
558.5795988131912964
 20
104.6036226574116057
 30
0.0
 40
0.0975231481687568
 50
206.4532217129248011
 51
269.9607623064230211
  0
ARC
  5
12BFF
  8
0
 10
558.6357593442526195
 20
104.5457294373246953
 30
0.0
 40
0.0396311171230168
 50
269.5512511028999825
 51
359.6243592254285772
  0
ARC
  5
12C00
  8
0
 10
558.579093307398125
 20
104.5996884575161943
 30
0.0
 40
0.0963005010393851
 50
0.5350414272576253
 51
150.6040808936757003
  0
CIRCLE
  5
12C01
  8
0
 10
558.582784337439648
 20
104.1517693533113942
 30
0.0
 40
0.0393684199012689
  0
ARC
  5
12C02
  8
0
 10
558.5827840214398066
 20
104.1517700650115046
 30
0.0
 40
0.0991089478204738
 50
155.9389460852775926
 51
207.8958908921788975
  0
LINE
  5
12C03
  8
0
 10
558.5795320266397539
 20
104.2462575423113975
 30
0.0
 11
558.6354489507398284
 21
104.2462575386913954
 31
0.0
  0
LINE
  5
12C04
  8
0
 10
558.6753896096397511
 20
104.2068874635114071
 30
0.0
 11
558.6753896096397511
 21
104.1517693533113942
 31
0.0
  0
ARC
  5
12C05
  8
0
 10
558.5795988131912964
 20
104.1487344170112976
 30
0.0
 40
0.0975231481687568
 50
90.0392376935770358
 51
153.5467782870751989
  0
ARC
  5
12C06
  8
0
 10
558.6357593442526195
 20
104.2066276370981939
 30
0.0
 40
0.0396311171230168
 50
0.3756407745713624
 51
90.448748897100046
  0
ARC
  5
12C07
  8
0
 10
558.579093307398125
 20
104.1526686169066949
 30
0.0
 40
0.0963005010393851
 50
209.3959191063242997
 51
359.4649585727419776
  0
ARC
  5
12C08
  8
0
 10
558.582784337439648
 20
104.6005877211113955
 30
0.0
 40
0.0866141732000001
 50
0.0
 51
270.0
  0
LINE
  5
12C09
  8
0
 10
558.582784337439648
 20
104.5139735479114051
 30
0.0
 11
558.6379021883334417
 21
104.5139735479114051
 31
0.0
  0
LINE
  5
12C0A
  8
0
 10
558.6693985107398248
 20
104.6005877211113955
 30
0.0
 11
558.6693985107398248
 21
104.5454696109113968
 31
0.0
  0
ARC
  5
12C0B
  8
0
 10
558.6379024477397479
 20
104.5454696109114963
 30
0.0
 40
0.0314960630000023
 50
270.0000009095707014
 51
359.9999999999935199
  0
ARC
  5
12C0C
  8
0
 10
558.582784337439648
 20
104.1517693533113942
 30
0.0
 40
0.0866141732000001
 50
90.0
 51
0.0
  0
LINE
  5
12C0D
  8
0
 10
558.582784337439648
 20
104.2383835265113987
 30
0.0
 11
558.6379021883334417
 21
104.2383835265113987
 31
0.0
  0
LINE
  5
12C0E
  8
0
 10
558.6693985107398248
 20
104.1517693533113942
 30
0.0
 11
558.6693985107398248
 21
104.2068874635114071
 31
0.0
  0
ARC
  5
12C0F
  8
0
 10
558.6379024477397479
 20
104.2068874635114071
 30
0.0
 40
0.0314960630000023
 50
0.0000000000065138
 51
89.9999990904293412
  0
CIRCLE
  5
12C10
  8
0
 10
558.8071937862397363
 20
100.1320837841114013
 30
0.0
 40
0.2773494606917026
  0
CIRCLE
  5
12C11
  8
0
 10
558.8065927026398185
 20
100.132344201111394
 30
0.0
 40
0.3028897857247144
  0
CIRCLE
  5
12C12
  8
0
 10
558.8071937862397363
 20
99.3446822093114719
 30
0.0
 40
0.2773494606917026
  0
CIRCLE
  5
12C13
  8
0
 10
558.8065927026398185
 20
99.3449426263114646
 30
0.0
 40
0.3028897857247144
  0
CIRCLE
  5
12C14
  8
0
 10
558.6812095343398141
 20
103.887989295911396
 30
0.0
 40
0.0541158154592015
  0
ARC
  5
12C15
  8
0
 10
558.6772845579954492
 20
103.8939038282912009
 30
0.0
 40
0.0215563362388962
 50
359.1150609746392774
 51
171.1147714541990013
  0
ARC
  5
12C16
  8
0
 10
558.6772845579954492
 20
103.8939038282912009
 30
0.0
 40
0.0215563362388964
 50
171.1147714541990013
 51
359.1150609746392774
  0
ARC
  5
12C17
  8
0
 10
558.6812095343398141
 20
103.887989295911396
 30
0.0
 40
0.0629921260000021
 50
357.2036421608058845
 51
191.1572743699935018
  0
ARC
  5
12C18
  8
0
 10
558.6812095343398141
 20
103.887989295911396
 30
0.0
 40
0.0629921260000001
 50
191.1572743699938997
 51
357.2036421608058845
  0
ARC
  5
12C19
  8
0
 10
558.6772477367826468
 20
103.893890353368505
 30
0.0
 40
0.0412122493247209
 50
1.150495497142304
 51
190.6024776936345972
  0
ARC
  5
12C1A
  8
0
 10
558.6772477367826468
 20
103.893890353368505
 30
0.0
 40
0.041212249324721
 50
190.6024776936345972
 51
1.150495497142304
  0
CIRCLE
  5
12C1B
  8
0
 10
558.6818279645098073
 20
103.6357833860644035
 30
0.0
 40
0.0541158154592015
  0
ARC
  5
12C1C
  8
0
 10
558.6779029881654424
 20
103.6416979184440947
 30
0.0
 40
0.0215563362388962
 50
359.1150609746392774
 51
171.1147714541990013
  0
ARC
  5
12C1D
  8
0
 10
558.6779029881654424
 20
103.6416979184440947
 30
0.0
 40
0.0215563362388964
 50
171.1147714541990013
 51
359.1150609746392774
  0
ARC
  5
12C1E
  8
0
 10
558.6818279645098073
 20
103.6357833860644035
 30
0.0
 40
0.0629921260000021
 50
357.2036421608058845
 51
191.1572743699935018
  0
ARC
  5
12C1F
  8
0
 10
558.6818279645098073
 20
103.6357833860644035
 30
0.0
 40
0.0629921260000001
 50
191.1572743699938997
 51
357.2036421608058845
  0
ARC
  5
12C20
  8
0
 10
558.6778661669527537
 20
103.6416844435214983
 30
0.0
 40
0.0412122493247209
 50
1.150495497142304
 51
190.6024776936345972
  0
ARC
  5
12C21
  8
0
 10
558.6778661669527537
 20
103.6416844435214983
 30
0.0
 40
0.041212249324721
 50
190.6024776936345972
 51
1.150495497142304
  0
CIRCLE
  5
12C22
  8
0
 10
558.6808384762376818
 20
103.3826655534678025
 30
0.0
 40
0.0541158154592015
  0
ARC
  5
12C23
  8
0
 10
558.6769134998934305
 20
103.3885800858474937
 30
0.0
 40
0.0215563362388962
 50
359.1150609746392774
 51
171.1147714541990013
  0
ARC
  5
12C24
  8
0
 10
558.6769134998934305
 20
103.3885800858474937
 30
0.0
 40
0.0215563362388964
 50
171.1147714541990013
 51
359.1150609746392774
  0
ARC
  5
12C25
  8
0
 10
558.6808384762376818
 20
103.3826655534678025
 30
0.0
 40
0.0629921260000021
 50
357.2036421608058845
 51
191.1572743699935018
  0
ARC
  5
12C26
  8
0
 10
558.6808384762376818
 20
103.3826655534678025
 30
0.0
 40
0.0629921260000001
 50
191.1572743699938997
 51
357.2036421608058845
  0
ARC
  5
12C27
  8
0
 10
558.6768766786807419
 20
103.3885666109248973
 30
0.0
 40
0.0412122493247209
 50
1.150495497142304
 51
190.6024776936345972
  0
ARC
  5
12C28
  8
0
 10
558.6768766786807419
 20
103.3885666109248973
 30
0.0
 40
0.041212249324721
 50
190.6024776936345972
 51
1.150495497142304
  0
CIRCLE
  5
12C29
  8
0
 10
558.6812732234170653
 20
103.1316064828589987
 30
0.0
 40
0.0541158154592015
  0
ARC
  5
12C2A
  8
0
 10
558.6766799732770323
 20
103.1351862624068048
 30
0.0
 40
0.0215563362388962
 50
359.1150609746392774
 51
171.1147714541990013
  0
ARC
  5
12C2B
  8
0
 10
558.6766799732770323
 20
103.1351862624068048
 30
0.0
 40
0.0215563362388964
 50
171.1147714541990013
 51
359.1150609746392774
  0
ARC
  5
12C2C
  8
0
 10
558.6812732234170653
 20
103.1316064828589987
 30
0.0
 40
0.0629921260000021
 50
357.2036421608058845
 51
191.1572743699935018
  0
ARC
  5
12C2D
  8
0
 10
558.6812732234170653
 20
103.1316064828589987
 30
0.0
 40
0.0629921260000001
 50
191.1572743699938997
 51
357.2036421608058845
  0
ARC
  5
12C2E
  8
0
 10
558.6774784943088434
 20
103.1345058696612966
 30
0.0
 40
0.0412122493247209
 50
1.150495497142304
 51
190.6024776936345972
  0
ARC
  5
12C2F
  8
0
 10
558.6774784943088434
 20
103.1345058696612966
 30
0.0
 40
0.041212249324721
 50
190.6024776936345972
 51
1.150495497142304
  0
CIRCLE
  5
12C30
  8
0
 10
558.6815861306224633
 20
102.8802425972971974
 30
0.0
 40
0.0541158154592015
  0
ARC
  5
12C31
  8
0
 10
558.6770511921757816
 20
102.8800816240052995
 30
0.0
 40
0.0215563362388962
 50
359.1150609746392774
 51
171.1147714541990013
  0
ARC
  5
12C32
  8
0
 10
558.6770511921757816
 20
102.8800816240052995
 30
0.0
 40
0.0215563362388964
 50
171.1147714541990013
 51
359.1150609746392774
  0
ARC
  5
12C33
  8
0
 10
558.6815861306224633
 20
102.8802425972971974
 30
0.0
 40
0.0629921260000021
 50
357.2036421608058845
 51
191.1572743699935018
  0
ARC
  5
12C34
  8
0
 10
558.6815861306224633
 20
102.8802425972971974
 30
0.0
 40
0.0629921260000001
 50
191.1572743699938997
 51
357.2036421608058845
  0
ARC
  5
12C35
  8
0
 10
558.677624333065296
 20
102.8811898713150015
 30
0.0
 40
0.0412122493247209
 50
1.150495497142304
 51
190.6024776936345972
  0
ARC
  5
12C36
  8
0
 10
558.677624333065296
 20
102.8811898713150015
 30
0.0
 40
0.041212249324721
 50
190.6024776936345972
 51
1.150495497142304
  0
CIRCLE
  5
12C37
  8
0
 10
558.6819322669116445
 20
102.6289655443638935
 30
0.0
 40
0.0541158154592015
  0
ARC
  5
12C38
  8
0
 10
558.6780072905671659
 20
102.6291815503871021
 30
0.0
 40
0.0215563362388962
 50
359.1150609746392774
 51
171.1147714541990013
  0
ARC
  5
12C39
  8
0
 10
558.6780072905671659
 20
102.6291815503871021
 30
0.0
 40
0.0215563362388964
 50
171.1147714541990013
 51
359.1150609746392774
  0
ARC
  5
12C3A
  8
0
 10
558.6819322669116445
 20
102.6289655443638935
 30
0.0
 40
0.0629921260000021
 50
357.2036421608058845
 51
191.1572743699935018
  0
ARC
  5
12C3B
  8
0
 10
558.6819322669116445
 20
102.6289655443638935
 30
0.0
 40
0.0629921260000001
 50
191.1572743699938997
 51
357.2036421608058845
  0
ARC
  5
12C3C
  8
0
 10
558.6779704693545909
 20
102.6291680754645057
 30
0.0
 40
0.0412122493247209
 50
1.150495497142304
 51
190.6024776936345972
  0
ARC
  5
12C3D
  8
0
 10
558.6779704693545909
 20
102.6291680754645057
 30
0.0
 40
0.041212249324721
 50
190.6024776936345972
 51
1.150495497142304
  0
CIRCLE
  5
12C3E
  8
0
 10
558.8071937862397363
 20
102.5021625243115011
 30
0.0
 40
0.0216535433000012
  0
CIRCLE
  5
12C3F
  8
0
 10
558.8071937870397505
 20
102.5021631068240993
 30
0.0
 40
0.0413380001867989
  0
CIRCLE
  5
12C40
  8
0
 10
558.8071937862896448
 20
102.5021631068240993
 30
0.0
 40
0.055112982687348
  0
CIRCLE
  5
12C41
  8
0
 10
558.8071937870397505
 20
102.5021631068240993
 30
0.0
 40
0.0629915434867984
  0
CIRCLE
  5
12C42
  8
0
 10
558.8071905016397523
 20
102.754131038311499
 30
0.0
 40
0.0216535433000012
  0
CIRCLE
  5
12C43
  8
0
 10
558.8071905024396528
 20
102.7541316208240971
 30
0.0
 40
0.0413380001867989
  0
CIRCLE
  5
12C44
  8
0
 10
558.8071905016897745
 20
102.7529320827219976
 30
0.0
 40
0.055112982687348
  0
CIRCLE
  5
12C45
  8
0
 10
558.8071905024396528
 20
102.7529320827219976
 30
0.0
 40
0.0629915434867984
  0
CIRCLE
  5
12C46
  8
0
 10
558.8071800900396511
 20
103.0075759186113942
 30
0.0
 40
0.0216535433000012
  0
CIRCLE
  5
12C47
  8
0
 10
558.8071800908396654
 20
103.007576501124106
 30
0.0
 40
0.0413380001867989
  0
CIRCLE
  5
12C48
  8
0
 10
558.8071800900896733
 20
103.004085097267307
 30
0.0
 40
0.055112982687348
  0
CIRCLE
  5
12C49
  8
0
 10
558.8071800908396654
 20
103.004085097267307
 30
0.0
 40
0.0629915434867984
  0
CIRCLE
  5
12C4A
  8
0
 10
558.8071937862397363
 20
103.2609925063365068
 30
0.0
 40
0.0216535433000012
  0
CIRCLE
  5
12C4B
  8
0
 10
558.8071937870397505
 20
103.2609930888492045
 30
0.0
 40
0.0413380001867989
  0
CIRCLE
  5
12C4C
  8
0
 10
558.8071937862896448
 20
103.2572119120466994
 30
0.0
 40
0.055112982687348
  0
CIRCLE
  5
12C4D
  8
0
 10
558.8071937870397505
 20
103.2572119120466994
 30
0.0
 40
0.0629915434867984
  0
CIRCLE
  5
12C4E
  8
0
 10
558.8071937862397363
 20
103.5141523909892953
 30
0.0
 40
0.0216535433000012
  0
CIRCLE
  5
12C4F
  8
0
 10
558.8071937870397505
 20
103.5141529735018935
 30
0.0
 40
0.0413380001867989
  0
CIRCLE
  5
12C50
  8
0
 10
558.8071937862896448
 20
103.5102413157651
 30
0.0
 40
0.055112982687348
  0
CIRCLE
  5
12C51
  8
0
 10
558.8071937870397505
 20
103.5102413157651
 30
0.0
 40
0.0629915434867984
  0
CIRCLE
  5
12C52
  8
0
 10
558.8071937862397363
 20
103.7676006634396941
 30
0.0
 40
0.0216535433000012
  0
CIRCLE
  5
12C53
  8
0
 10
558.8071937870397505
 20
103.767601245952406
 30
0.0
 40
0.0413380001867989
  0
CIRCLE
  5
12C54
  8
0
 10
558.8071937862896448
 20
103.7615927512884042
 30
0.0
 40
0.055112982687348
  0
CIRCLE
  5
12C55
  8
0
 10
558.8071937870397505
 20
103.7615927512884042
 30
0.0
 40
0.0629915434867984
  0
ARC
  5
12C56
  8
0
 10
558.5490075702003878
 20
103.7675248996865065
 30
0.0
 40
0.0215563362388962
 50
359.1150609746392774
 51
171.1147714541990013
  0
ARC
  5
12C57
  8
0
 10
558.5490075702003878
 20
103.7675248996865065
 30
0.0
 40
0.0215563362388964
 50
171.1147714541990013
 51
359.1150609746392774
  0
ARC
  5
12C58
  8
0
 10
558.5500212145752812
 20
103.7669462945021053
 30
0.0
 40
0.041212249324721
 50
190.6024776936345972
 51
1.150495497142304
  0
ARC
  5
12C59
  8
0
 10
558.5499805601280059
 20
103.7673412847365029
 30
0.0
 40
0.0412468630983641
 50
0.6007851241994804
 51
191.1521880665767128
  0
ARC
  5
12C5A
  8
0
 10
558.5600197286304365
 20
103.7642753832677016
 30
0.0
 40
0.0517382839971493
 50
31.4814407708579189
 51
161.3665468768807898
  0
ARC
  5
12C5B
  8
0
 10
558.555188791285218
 20
103.7612807622114985
 30
0.0
 40
0.0574220190411998
 50
274.058262900327577
 51
31.5123900147711709
  0
ARC
  5
12C5C
  8
0
 10
558.5559889448655895
 20
103.7500028506155019
 30
0.0
 40
0.0461157581331644
 50
218.6741848927306933
 51
274.058262900327577
  0
ARC
  5
12C5D
  8
0
 10
558.566921224579346
 20
103.7587531740135063
 30
0.0
 40
0.0601187185098928
 50
158.4798603580476026
 51
218.674184892730409
  0
ARC
  5
12C5E
  8
0
 10
558.5552252823397339
 20
103.7620050440114028
 30
0.0
 40
0.0629921260000008
 50
345.119790622984624
 51
161.798476687476807
  0
ARC
  5
12C5F
  8
0
 10
558.5552252823397339
 20
103.7620050440114028
 30
0.0
 40
0.0629921259999999
 50
161.7984766874743912
 51
345.119790622984624
  0
ARC
  5
12C60
  8
0
 10
558.5493026757474126
 20
103.5159296892172023
 30
0.0
 40
0.0215563362388962
 50
359.1150609746392774
 51
171.1147714541990013
  0
ARC
  5
12C61
  8
0
 10
558.5493026757474126
 20
103.5159296892172023
 30
0.0
 40
0.0215563362388964
 50
171.1147714541990013
 51
359.1150609746392774
  0
ARC
  5
12C62
  8
0
 10
558.5503163201224197
 20
103.5153510840328011
 30
0.0
 40
0.041212249324721
 50
190.6024776936345972
 51
1.150495497142304
  0
ARC
  5
12C63
  8
0
 10
558.5502756656751444
 20
103.5157460742672981
 30
0.0
 40
0.0412468630983641
 50
0.6007851241994804
 51
191.1521880665767128
  0
ARC
  5
12C64
  8
0
 10
558.560314834177575
 20
103.5126801727982979
 30
0.0
 40
0.0517382839971493
 50
31.4814407708579189
 51
161.3665468768807898
  0
ARC
  5
12C65
  8
0
 10
558.5554838968323565
 20
103.5096855517421943
 30
0.0
 40
0.0574220190411998
 50
274.058262900327577
 51
31.5123900147711709
  0
ARC
  5
12C66
  8
0
 10
558.5562840504126143
 20
103.4984076401461977
 30
0.0
 40
0.0461157581331644
 50
218.6741848927306933
 51
274.058262900327577
  0
ARC
  5
12C67
  8
0
 10
558.5672163301265982
 20
103.5071579635442021
 30
0.0
 40
0.0601187185098928
 50
158.4798603580476026
 51
218.674184892730409
  0
ARC
  5
12C68
  8
0
 10
558.5555203878867587
 20
103.5104098335420986
 30
0.0
 40
0.0629921260000008
 50
345.119790622984624
 51
161.798476687476807
  0
ARC
  5
12C69
  8
0
 10
558.5555203878867587
 20
103.5104098335420986
 30
0.0
 40
0.0629921259999999
 50
161.7984766874743912
 51
345.119790622984624
  0
ARC
  5
12C6A
  8
0
 10
558.5490075702003878
 20
102.5021631068240993
 30
0.0
 40
0.0215563362388962
 50
359.1150609746392774
 51
171.1147714541990013
  0
ARC
  5
12C6B
  8
0
 10
558.5490075702003878
 20
102.5021631068240993
 30
0.0
 40
0.0215563362388964
 50
171.1147714541990013
 51
359.1150609746392774
  0
ARC
  5
12C6C
  8
0
 10
558.5500212145752812
 20
102.501584501639698
 30
0.0
 40
0.041212249324721
 50
190.6024776936345972
 51
1.150495497142304
  0
ARC
  5
12C6D
  8
0
 10
558.5499805601280059
 20
102.5019794918741951
 30
0.0
 40
0.0412468630983641
 50
0.6007851241994804
 51
191.1521880665767128
  0
ARC
  5
12C6E
  8
0
 10
558.559492532153854
 20
102.5054751636404973
 30
0.0
 40
0.0527572788159387
 50
356.4000191700487221
 51
183.4049368917349909
  0
ARC
  5
12C6F
  8
0
 10
558.5585348306724427
 20
102.5001865607451066
 30
0.0
 40
0.0536472791595105
 50
249.5888932195780967
 51
2.1108244189991949
  0
ARC
  5
12C70
  8
0
 10
558.5633197848823102
 20
102.5012922019978987
 30
0.0
 40
0.0565011493566088
 50
178.935596570370393
 51
245.42865984044181
  0
ARC
  5
12C71
  8
0
 10
558.5552252823397339
 20
102.5021625243115011
 30
0.0
 40
0.0629921260000003
 50
359.9999999999968168
 51
179.787781527295806
  0
ARC
  5
12C72
  8
0
 10
558.5552252823397339
 20
102.5021625243115011
 30
0.0
 40
0.0629921259999999
 50
179.787781527295806
 51
359.9999999999968168
  0
ARC
  5
12C73
  8
0
 10
558.5495021091657009
 20
102.7545445690859935
 30
0.0
 40
0.0215563362388962
 50
359.1150609746392774
 51
171.1147714541990013
  0
ARC
  5
12C74
  8
0
 10
558.5495021091657009
 20
102.7545445690859935
 30
0.0
 40
0.0215563362388964
 50
171.1147714541990013
 51
359.1150609746392774
  0
ARC
  5
12C75
  8
0
 10
558.5505157535405942
 20
102.7539659639016065
 30
0.0
 40
0.041212249324721
 50
190.6024776936345972
 51
1.150495497142304
  0
ARC
  5
12C76
  8
0
 10
558.5504750990930916
 20
102.7543609541361036
 30
0.0
 40
0.0412468630983641
 50
0.6007851241994804
 51
191.1521880665767128
  0
ARC
  5
12C77
  8
0
 10
558.5599870711190533
 20
102.7578566259024058
 30
0.0
 40
0.0527572788159387
 50
356.4000191700487221
 51
183.4049368917349909
  0
ARC
  5
12C78
  8
0
 10
558.559029369637642
 20
102.7525680230070009
 30
0.0
 40
0.0536472791595105
 50
249.5888932195780967
 51
2.1108244189991949
  0
ARC
  5
12C79
  8
0
 10
558.5638143238475095
 20
102.753673664259793
 30
0.0
 40
0.0565011493566088
 50
178.935596570370393
 51
245.42865984044181
  0
ARC
  5
12C7A
  8
0
 10
558.5557198213049332
 20
102.7545439865733954
 30
0.0
 40
0.0629921260000003
 50
359.9999999999968168
 51
179.787781527295806
  0
ARC
  5
12C7B
  8
0
 10
558.5557198213049332
 20
102.7545439865733954
 30
0.0
 40
0.0629921259999999
 50
179.787781527295806
 51
359.9999999999968168
  0
ARC
  5
12C7C
  8
0
 10
558.5486937564976415
 20
103.2593201457798955
 30
0.0
 40
0.0215563362388962
 50
359.1150609746392774
 51
171.1147714541990013
  0
ARC
  5
12C7D
  8
0
 10
558.5486937564976415
 20
103.2593201457798955
 30
0.0
 40
0.0215563362388964
 50
171.1147714541990013
 51
359.1150609746392774
  0
ARC
  5
12C7E
  8
0
 10
558.5497074008725349
 20
103.2587415405954943
 30
0.0
 40
0.041212249324721
 50
190.6024776936345972
 51
1.150495497142304
  0
ARC
  5
12C7F
  8
0
 10
558.5496667464251459
 20
103.2591365308300055
 30
0.0
 40
0.0412468630983641
 50
0.6007851241994804
 51
191.1521880665767128
  0
ARC
  5
12C80
  8
0
 10
558.5591787184511077
 20
103.2626322025962935
 30
0.0
 40
0.0527572788159387
 50
356.4000191700487221
 51
183.4049368917349909
  0
ARC
  5
12C81
  8
0
 10
558.5582210169695827
 20
103.2573435997009028
 30
0.0
 40
0.0536472791595105
 50
249.5888932195780967
 51
2.1108244189991949
  0
ARC
  5
12C82
  8
0
 10
558.5630059711794502
 20
103.2584492409536949
 30
0.0
 40
0.0565011493566088
 50
178.935596570370393
 51
245.42865984044181
  0
ARC
  5
12C83
  8
0
 10
558.5549114686368739
 20
103.2593195632672973
 30
0.0
 40
0.0629921260000003
 50
359.9999999999968168
 51
179.787781527295806
  0
ARC
  5
12C84
  8
0
 10
558.5549114686368739
 20
103.2593195632672973
 30
0.0
 40
0.0629921259999999
 50
179.787781527295806
 51
359.9999999999968168
  0
ARC
  5
12C85
  8
0
 10
558.5498046275397428
 20
103.0074269422618016
 30
0.0
 40
0.0215563362388962
 50
359.1150609746392774
 51
171.1147714541990013
  0
ARC
  5
12C86
  8
0
 10
558.5498046275397428
 20
103.0074269422618016
 30
0.0
 40
0.0215563362388964
 50
171.1147714541990013
 51
359.1150609746392774
  0
ARC
  5
12C87
  8
0
 10
558.5508182719146362
 20
103.0068483370774004
 30
0.0
 40
0.041212249324721
 50
190.6024776936345972
 51
1.150495497142304
  0
ARC
  5
12C88
  8
0
 10
558.5507776174672472
 20
103.0072433273118975
 30
0.0
 40
0.0412468630983641
 50
0.6007851241994804
 51
191.1521880665767128
  0
ARC
  5
12C89
  8
0
 10
558.560289589493209
 20
103.0107389990781996
 30
0.0
 40
0.0527572788159387
 50
356.4000191700487221
 51
183.4049368917349909
  0
ARC
  5
12C8A
  8
0
 10
558.559331888011684
 20
103.0054503961826953
 30
0.0
 40
0.0536472791595105
 50
249.5888932195780967
 51
2.1108244189991949
  0
ARC
  5
12C8B
  8
0
 10
558.5641168422215515
 20
103.0065560374356011
 30
0.0
 40
0.0565011493566088
 50
178.935596570370393
 51
245.42865984044181
  0
ARC
  5
12C8C
  8
0
 10
558.5560223396789752
 20
103.007426359749104
 30
0.0
 40
0.0629921260000003
 50
359.9999999999968168
 51
179.787781527295806
  0
ARC
  5
12C8D
  8
0
 10
558.5560223396789752
 20
103.007426359749104
 30
0.0
 40
0.0629921259999999
 50
179.787781527295806
 51
359.9999999999968168
  0
CIRCLE
  5
12C8E
  8
0
 10
558.6812095343398141
 20
101.1163357527113931
 30
0.0
 40
0.0541158154592015
  0
ARC
  5
12C8F
  8
0
 10
558.6772845579954492
 20
101.1104212203318014
 30
0.0
 40
0.0215563362388962
 50
188.8852285458009135
 51
0.884939025360688
  0
ARC
  5
12C90
  8
0
 10
558.6772845579954492
 20
101.1104212203318014
 30
0.0
 40
0.0215563362388964
 50
0.884939025360688
 51
188.8852285458009135
  0
ARC
  5
12C91
  8
0
 10
558.6812095343398141
 20
101.1163357527113931
 30
0.0
 40
0.0629921260000021
 50
168.842725630006413
 51
2.796357839194024
  0
ARC
  5
12C92
  8
0
 10
558.6812095343398141
 20
101.1163357527113931
 30
0.0
 40
0.0629921260000001
 50
2.796357839194024
 51
168.8427256300057024
  0
ARC
  5
12C93
  8
0
 10
558.6772477367826468
 20
101.1104346952543978
 30
0.0
 40
0.0412122493247209
 50
169.3975223063650049
 51
358.8495045028577124
  0
ARC
  5
12C94
  8
0
 10
558.6772477367826468
 20
101.1104346952543978
 30
0.0
 40
0.041212249324721
 50
358.8495045028577124
 51
169.3975223063650049
  0
CIRCLE
  5
12C95
  8
0
 10
558.6818279645098073
 20
101.3685416625584992
 30
0.0
 40
0.0541158154592015
  0
ARC
  5
12C96
  8
0
 10
558.6779029881654424
 20
101.3626271301787938
 30
0.0
 40
0.0215563362388962
 50
188.8852285458009135
 51
0.884939025360688
  0
ARC
  5
12C97
  8
0
 10
558.6779029881654424
 20
101.3626271301787938
 30
0.0
 40
0.0215563362388964
 50
0.884939025360688
 51
188.8852285458009135
  0
ARC
  5
12C98
  8
0
 10
558.6818279645098073
 20
101.3685416625584992
 30
0.0
 40
0.0629921260000021
 50
168.842725630006413
 51
2.796357839194024
  0
ARC
  5
12C99
  8
0
 10
558.6818279645098073
 20
101.3685416625584992
 30
0.0
 40
0.0629921260000001
 50
2.796357839194024
 51
168.8427256300061003
  0
ARC
  5
12C9A
  8
0
 10
558.6778661669527537
 20
101.3626406051014044
 30
0.0
 40
0.0412122493247209
 50
169.3975223063650049
 51
358.8495045028577124
  0
ARC
  5
12C9B
  8
0
 10
558.6778661669527537
 20
101.3626406051014044
 30
0.0
 40
0.041212249324721
 50
358.8495045028577124
 51
169.3975223063652891
  0
CIRCLE
  5
12C9C
  8
0
 10
558.6808384762376818
 20
101.6216594951551002
 30
0.0
 40
0.0541158154592015
  0
ARC
  5
12C9D
  8
0
 10
558.6769134998934305
 20
101.6157449627754943
 30
0.0
 40
0.0215563362388962
 50
188.8852285458009135
 51
0.884939025360688
  0
ARC
  5
12C9E
  8
0
 10
558.6769134998934305
 20
101.6157449627754943
 30
0.0
 40
0.0215563362388964
 50
0.884939025360688
 51
188.8852285458009135
  0
ARC
  5
12C9F
  8
0
 10
558.6808384762376818
 20
101.6216594951551002
 30
0.0
 40
0.0629921260000021
 50
168.842725630006413
 51
2.796357839194024
  0
ARC
  5
12CA0
  8
0
 10
558.6808384762376818
 20
101.6216594951551002
 30
0.0
 40
0.0629921260000001
 50
2.796357839194024
 51
168.8427256300061003
  0
ARC
  5
12CA1
  8
0
 10
558.6768766786807419
 20
101.6157584376981049
 30
0.0
 40
0.0412122493247209
 50
169.3975223063650049
 51
358.8495045028577124
  0
ARC
  5
12CA2
  8
0
 10
558.6768766786807419
 20
101.6157584376981049
 30
0.0
 40
0.041212249324721
 50
358.8495045028577124
 51
169.3975223063652891
  0
CIRCLE
  5
12CA3
  8
0
 10
558.6812732234170653
 20
101.8727185657639041
 30
0.0
 40
0.0541158154592015
  0
ARC
  5
12CA4
  8
0
 10
558.6766799732770323
 20
101.869138786216098
 30
0.0
 40
0.0215563362388962
 50
188.8852285458009135
 51
0.884939025360688
  0
ARC
  5
12CA5
  8
0
 10
558.6766799732770323
 20
101.869138786216098
 30
0.0
 40
0.0215563362388964
 50
0.884939025360688
 51
188.8852285458009135
  0
ARC
  5
12CA6
  8
0
 10
558.6812732234170653
 20
101.8727185657639041
 30
0.0
 40
0.0629921260000021
 50
168.842725630006413
 51
2.796357839194024
  0
ARC
  5
12CA7
  8
0
 10
558.6812732234170653
 20
101.8727185657639041
 30
0.0
 40
0.0629921260000001
 50
2.796357839194024
 51
168.8427256300061003
  0
ARC
  5
12CA8
  8
0
 10
558.6774784943088434
 20
101.8698191789616061
 30
0.0
 40
0.0412122493247209
 50
169.3975223063650049
 51
358.8495045028577124
  0
ARC
  5
12CA9
  8
0
 10
558.6774784943088434
 20
101.8698191789616061
 30
0.0
 40
0.041212249324721
 50
358.8495045028577124
 51
169.3975223063652891
  0
CIRCLE
  5
12CAA
  8
0
 10
558.6815861306224633
 20
102.1240824513257053
 30
0.0
 40
0.0541158154592015
  0
ARC
  5
12CAB
  8
0
 10
558.6770511921757816
 20
102.1242434246176032
 30
0.0
 40
0.0215563362388962
 50
188.8852285458009135
 51
0.884939025360688
  0
ARC
  5
12CAC
  8
0
 10
558.6770511921757816
 20
102.1242434246176032
 30
0.0
 40
0.0215563362388964
 50
0.884939025360688
 51
188.8852285458009135
  0
ARC
  5
12CAD
  8
0
 10
558.6815861306224633
 20
102.1240824513257053
 30
0.0
 40
0.0629921260000021
 50
168.842725630006413
 51
2.796357839194024
  0
ARC
  5
12CAE
  8
0
 10
558.6815861306224633
 20
102.1240824513257053
 30
0.0
 40
0.0629921260000001
 50
2.796357839194024
 51
168.8427256300061003
  0
ARC
  5
12CAF
  8
0
 10
558.677624333065296
 20
102.1231351773079012
 30
0.0
 40
0.0412122493247209
 50
169.3975223063650049
 51
358.8495045028577124
  0
ARC
  5
12CB0
  8
0
 10
558.677624333065296
 20
102.1231351773079012
 30
0.0
 40
0.041212249324721
 50
358.8495045028577124
 51
169.3975223063652891
  0
CIRCLE
  5
12CB1
  8
0
 10
558.6819322669116445
 20
102.375359504258995
 30
0.0
 40
0.0541158154592015
  0
ARC
  5
12CB2
  8
0
 10
558.6780072905671659
 20
102.3751434982358006
 30
0.0
 40
0.0215563362388962
 50
188.8852285458009135
 51
0.884939025360688
  0
ARC
  5
12CB3
  8
0
 10
558.6780072905671659
 20
102.3751434982358006
 30
0.0
 40
0.0215563362388964
 50
0.884939025360688
 51
188.8852285458009135
  0
ARC
  5
12CB4
  8
0
 10
558.6819322669116445
 20
102.375359504258995
 30
0.0
 40
0.0629921260000021
 50
168.842725630006413
 51
2.796357839194024
  0
ARC
  5
12CB5
  8
0
 10
558.6819322669116445
 20
102.375359504258995
 30
0.0
 40
0.0629921260000001
 50
2.796357839194024
 51
168.8427256300061003
  0
ARC
  5
12CB6
  8
0
 10
558.6779704693545909
 20
102.375156973158397
 30
0.0
 40
0.0412122493247209
 50
169.3975223063650049
 51
358.8495045028577124
  0
ARC
  5
12CB7
  8
0
 10
558.6779704693545909
 20
102.375156973158397
 30
0.0
 40
0.041212249324721
 50
358.8495045028577124
 51
169.3975223063652891
  0
CIRCLE
  5
12CB8
  8
0
 10
558.8071937862397363
 20
102.5021625243115011
 30
0.0
 40
0.0216535433000012
  0
CIRCLE
  5
12CB9
  8
0
 10
558.8071937870397505
 20
102.5021619417988035
 30
0.0
 40
0.0413380001867989
  0
CIRCLE
  5
12CBA
  8
0
 10
558.8071937862896448
 20
102.5021619417988035
 30
0.0
 40
0.055112982687348
  0
CIRCLE
  5
12CBB
  8
0
 10
558.8071937870397505
 20
102.5021619417988035
 30
0.0
 40
0.0629915434867984
  0
CIRCLE
  5
12CBC
  8
0
 10
558.8071905016397523
 20
102.2501940103115032
 30
0.0
 40
0.0216535433000012
  0
CIRCLE
  5
12CBD
  8
0
 10
558.8071905024396528
 20
102.2501934277988056
 30
0.0
 40
0.0413380001867989
  0
CIRCLE
  5
12CBE
  8
0
 10
558.8071905016897745
 20
102.2513929659009051
 30
0.0
 40
0.055112982687348
  0
CIRCLE
  5
12CBF
  8
0
 10
558.8071905024396528
 20
102.2513929659009051
 30
0.0
 40
0.0629915434867984
  0
CIRCLE
  5
12CC0
  8
0
 10
558.8071800900396511
 20
101.9967491300113949
 30
0.0
 40
0.0216535433000012
  0
CIRCLE
  5
12CC1
  8
0
 10
558.8071800908396654
 20
101.9967485474987967
 30
0.0
 40
0.0413380001867989
  0
CIRCLE
  5
12CC2
  8
0
 10
558.8071800900896733
 20
102.0002399513555957
 30
0.0
 40
0.055112982687348
  0
CIRCLE
  5
12CC3
  8
0
 10
558.8071800908396654
 20
102.0002399513555957
 30
0.0
 40
0.0629915434867984
  0
CIRCLE
  5
12CC4
  8
0
 10
558.8071937862397363
 20
101.7433325422863959
 30
0.0
 40
0.0216535433000012
  0
CIRCLE
  5
12CC5
  8
0
 10
558.8071937870397505
 20
101.7433319597736983
 30
0.0
 40
0.0413380001867989
  0
CIRCLE
  5
12CC6
  8
0
 10
558.8071937862896448
 20
101.7471131365762034
 30
0.0
 40
0.055112982687348
  0
CIRCLE
  5
12CC7
  8
0
 10
558.8071937870397505
 20
101.7471131365762034
 30
0.0
 40
0.0629915434867984
  0
CIRCLE
  5
12CC8
  8
0
 10
558.8071937862397363
 20
101.4901726576335932
 30
0.0
 40
0.0216535433000012
  0
CIRCLE
  5
12CC9
  8
0
 10
558.8071937870397505
 20
101.490172075120995
 30
0.0
 40
0.0413380001867989
  0
CIRCLE
  5
12CCA
  8
0
 10
558.8071937862896448
 20
101.4940837328578027
 30
0.0
 40
0.055112982687348
  0
CIRCLE
  5
12CCB
  8
0
 10
558.8071937870397505
 20
101.4940837328578027
 30
0.0
 40
0.0629915434867984
  0
CIRCLE
  5
12CCC
  8
0
 10
558.8071937862397363
 20
101.2367243851831944
 30
0.0
 40
0.0216535433000012
  0
CIRCLE
  5
12CCD
  8
0
 10
558.8071937870397505
 20
101.2367238026704968
 30
0.0
 40
0.0413380001867989
  0
CIRCLE
  5
12CCE
  8
0
 10
558.8071937862896448
 20
101.2427322973344985
 30
0.0
 40
0.055112982687348
  0
CIRCLE
  5
12CCF
  8
0
 10
558.8071937870397505
 20
101.2427322973344985
 30
0.0
 40
0.0629915434867984
  0
ARC
  5
12CD0
  8
0
 10
558.5490075702003878
 20
101.2368001489363962
 30
0.0
 40
0.0215563362388962
 50
188.8852285458009135
 51
0.884939025360688
  0
ARC
  5
12CD1
  8
0
 10
558.5490075702003878
 20
101.2368001489363962
 30
0.0
 40
0.0215563362388964
 50
0.884939025360688
 51
188.8852285458009135
  0
ARC
  5
12CD2
  8
0
 10
558.5500212145752812
 20
101.2373787541207975
 30
0.0
 40
0.041212249324721
 50
358.8495045028577124
 51
169.3975223063652891
  0
ARC
  5
12CD3
  8
0
 10
558.5499805601280059
 20
101.2369837638863004
 30
0.0
 40
0.0412468630983641
 50
168.8478119334228893
 51
359.3992148758005101
  0
ARC
  5
12CD4
  8
0
 10
558.5600197286304365
 20
101.2400496653552011
 30
0.0
 40
0.0517382839971493
 50
198.6334531231192102
 51
328.5185592291421131
  0
ARC
  5
12CD5
  8
0
 10
558.555188791285218
 20
101.2430442864114042
 30
0.0
 40
0.0574220190411998
 50
328.4876099852289144
 51
85.9417370996723378
  0
ARC
  5
12CD6
  8
0
 10
558.5559889448655895
 20
101.2543221980074009
 30
0.0
 40
0.0461157581331644
 50
85.9417370996723378
 51
141.3258151072689088
  0
ARC
  5
12CD7
  8
0
 10
558.566921224579346
 20
101.2455718746093964
 30
0.0
 40
0.0601187185098928
 50
141.325815107269591
 51
201.5201396419523121
  0
ARC
  5
12CD8
  8
0
 10
558.5552252823397339
 20
101.2423200046114005
 30
0.0
 40
0.0629921260000008
 50
198.2015233125231077
 51
14.8802093770154293
  0
ARC
  5
12CD9
  8
0
 10
558.5552252823397339
 20
101.2423200046114005
 30
0.0
 40
0.0629921259999999
 50
14.8802093770154293
 51
198.2015233125256088
  0
ARC
  5
12CDA
  8
0
 10
558.5493026757474126
 20
101.4883953594057004
 30
0.0
 40
0.0215563362388962
 50
188.8852285458009135
 51
0.884939025360688
  0
ARC
  5
12CDB
  8
0
 10
558.5493026757474126
 20
101.4883953594057004
 30
0.0
 40
0.0215563362388964
 50
0.884939025360688
 51
188.8852285458009135
  0
ARC
  5
12CDC
  8
0
 10
558.5503163201224197
 20
101.4889739645901017
 30
0.0
 40
0.041212249324721
 50
358.8495045028577124
 51
169.3975223063652891
  0
ARC
  5
12CDD
  8
0
 10
558.5502756656751444
 20
101.4885789743557041
 30
0.0
 40
0.0412468630983641
 50
168.8478119334228893
 51
359.3992148758005101
  0
ARC
  5
12CDE
  8
0
 10
558.560314834177575
 20
101.4916448758245053
 30
0.0
 40
0.0517382839971493
 50
198.6334531231192102
 51
328.5185592291421131
  0
ARC
  5
12CDF
  8
0
 10
558.5554838968323565
 20
101.4946394968806942
 30
0.0
 40
0.0574220190411998
 50
328.4876099852289144
 51
85.9417370996723378
  0
ARC
  5
12CE0
  8
0
 10
558.5562840504126143
 20
101.5059174084767051
 30
0.0
 40
0.0461157581331644
 50
85.9417370996723378
 51
141.3258151072689088
  0
ARC
  5
12CE1
  8
0
 10
558.5672163301265982
 20
101.4971670850787007
 30
0.0
 40
0.0601187185098928
 50
141.325815107269591
 51
201.5201396419523121
  0
ARC
  5
12CE2
  8
0
 10
558.5555203878867587
 20
101.4939152150807047
 30
0.0
 40
0.0629921260000008
 50
198.2015233125231077
 51
14.8802093770154293
  0
ARC
  5
12CE3
  8
0
 10
558.5555203878867587
 20
101.4939152150807047
 30
0.0
 40
0.0629921259999999
 50
14.8802093770154293
 51
198.2015233125256088
  0
ARC
  5
12CE4
  8
0
 10
558.5490075702003878
 20
102.5021619417988035
 30
0.0
 40
0.0215563362388962
 50
188.8852285458009135
 51
0.884939025360688
  0
ARC
  5
12CE5
  8
0
 10
558.5490075702003878
 20
102.5021619417988035
 30
0.0
 40
0.0215563362388964
 50
0.884939025360688
 51
188.8852285458009135
  0
ARC
  5
12CE6
  8
0
 10
558.5500212145752812
 20
102.5027405469832047
 30
0.0
 40
0.041212249324721
 50
358.8495045028577124
 51
169.3975223063652891
  0
ARC
  5
12CE7
  8
0
 10
558.5499805601280059
 20
102.5023455567486934
 30
0.0
 40
0.0412468630983641
 50
168.8478119334228893
 51
359.3992148758005101
  0
ARC
  5
12CE8
  8
0
 10
558.559492532153854
 20
102.4988498849824055
 30
0.0
 40
0.0527572788159387
 50
176.5950631082644975
 51
3.5999808299513161
  0
ARC
  5
12CE9
  8
0
 10
558.5585348306724427
 20
102.5041384878777961
 30
0.0
 40
0.0536472791595105
 50
357.8891755810004156
 51
110.4111067804218038
  0
ARC
  5
12CEA
  8
0
 10
558.5633197848823102
 20
102.503032846625004
 30
0.0
 40
0.0565011493566088
 50
114.5713401595582042
 51
181.0644034296294933
  0
ARC
  5
12CEB
  8
0
 10
558.5552252823397339
 20
102.5021625243115011
 30
0.0
 40
0.0629921260000003
 50
180.212218472704194
 51
0.0000000000032569
  0
ARC
  5
12CEC
  8
0
 10
558.5552252823397339
 20
102.5021625243115011
 30
0.0
 40
0.0629921259999999
 50
0.0000000000032569
 51
180.212218472704194
  0
ARC
  5
12CED
  8
0
 10
558.5495021091657009
 20
102.249780479536895
 30
0.0
 40
0.0215563362388962
 50
188.8852285458009135
 51
0.884939025360688
  0
ARC
  5
12CEE
  8
0
 10
558.5495021091657009
 20
102.249780479536895
 30
0.0
 40
0.0215563362388964
 50
0.884939025360688
 51
188.8852285458009135
  0
ARC
  5
12CEF
  8
0
 10
558.5505157535405942
 20
102.2503590847212962
 30
0.0
 40
0.041212249324721
 50
358.8495045028577124
 51
169.3975223063652891
  0
ARC
  5
12CF0
  8
0
 10
558.5504750990930916
 20
102.2499640944867991
 30
0.0
 40
0.0412468630983641
 50
168.8478119334228893
 51
359.3992148758005101
  0
ARC
  5
12CF1
  8
0
 10
558.5599870711190533
 20
102.2464684227203975
 30
0.0
 40
0.0527572788159387
 50
176.5950631082644975
 51
3.5999808299513161
  0
ARC
  5
12CF2
  8
0
 10
558.559029369637642
 20
102.2517570256159019
 30
0.0
 40
0.0536472791595105
 50
357.8891755810004156
 51
110.4111067804218038
  0
ARC
  5
12CF3
  8
0
 10
558.5638143238475095
 20
102.2506513843629961
 30
0.0
 40
0.0565011493566088
 50
114.5713401595582042
 51
181.0644034296294933
  0
ARC
  5
12CF4
  8
0
 10
558.5557198213049332
 20
102.2497810620494931
 30
0.0
 40
0.0629921260000003
 50
180.212218472704194
 51
0.0000000000032569
  0
ARC
  5
12CF5
  8
0
 10
558.5557198213049332
 20
102.2497810620494931
 30
0.0
 40
0.0629921259999999
 50
0.0000000000032569
 51
180.212218472704194
  0
ARC
  5
12CF6
  8
0
 10
558.5486937564976415
 20
101.745004902842993
 30
0.0
 40
0.0215563362388962
 50
188.8852285458009135
 51
0.884939025360688
  0
ARC
  5
12CF7
  8
0
 10
558.5486937564976415
 20
101.745004902842993
 30
0.0
 40
0.0215563362388964
 50
0.884939025360688
 51
188.8852285458009135
  0
ARC
  5
12CF8
  8
0
 10
558.5497074008725349
 20
101.7455835080273943
 30
0.0
 40
0.041212249324721
 50
358.8495045028577124
 51
169.3975223063652891
  0
ARC
  5
12CF9
  8
0
 10
558.5496667464251459
 20
101.7451885177928972
 30
0.0
 40
0.0412468630983641
 50
168.8478119334228893
 51
359.3992148758005101
  0
ARC
  5
12CFA
  8
0
 10
558.5591787184511077
 20
101.7416928460264955
 30
0.0
 40
0.0527572788159387
 50
176.5950631082644975
 51
3.5999808299513161
  0
ARC
  5
12CFB
  8
0
 10
558.5582210169695827
 20
101.7469814489219999
 30
0.0
 40
0.0536472791595105
 50
357.8891755810004156
 51
110.4111067804218038
  0
ARC
  5
12CFC
  8
0
 10
558.5630059711794502
 20
101.7458758076690941
 30
0.0
 40
0.0565011493566088
 50
114.5713401595582042
 51
181.0644034296294933
  0
ARC
  5
12CFD
  8
0
 10
558.5549114686368739
 20
101.7450054853556054
 30
0.0
 40
0.0629921260000003
 50
180.212218472704194
 51
0.0000000000032569
  0
ARC
  5
12CFE
  8
0
 10
558.5549114686368739
 20
101.7450054853556054
 30
0.0
 40
0.0629921259999999
 50
0.0000000000032569
 51
180.212218472704194
  0
ARC
  5
12CFF
  8
0
 10
558.5498046275397428
 20
101.9968981063611011
 30
0.0
 40
0.0215563362388962
 50
188.8852285458009135
 51
0.884939025360688
  0
ARC
  5
12D00
  8
0
 10
558.5498046275397428
 20
101.9968981063611011
 30
0.0
 40
0.0215563362388964
 50
0.884939025360688
 51
188.8852285458009135
  0
ARC
  5
12D01
  8
0
 10
558.5508182719146362
 20
101.9974767115455023
 30
0.0
 40
0.041212249324721
 50
358.8495045028577124
 51
169.3975223063652891
  0
ARC
  5
12D02
  8
0
 10
558.5507776174672472
 20
101.9970817213110053
 30
0.0
 40
0.0412468630983641
 50
168.8478119334232019
 51
359.3992148758005101
  0
ARC
  5
12D03
  8
0
 10
558.560289589493209
 20
101.9935860495447031
 30
0.0
 40
0.0527572788159387
 50
176.5950631082648954
 51
3.5999808299513161
  0
ARC
  5
12D04
  8
0
 10
558.559331888011684
 20
101.9988746524400938
 30
0.0
 40
0.0536472791595105
 50
357.8891755810004156
 51
110.4111067804218038
  0
ARC
  5
12D05
  8
0
 10
558.5641168422215515
 20
101.9977690111873017
 30
0.0
 40
0.0565011493566088
 50
114.5713401595582042
 51
181.0644034296294933
  0
ARC
  5
12D06
  8
0
 10
558.5560223396789752
 20
101.9968986888737987
 30
0.0
 40
0.0629921260000003
 50
180.212218472704194
 51
0.0000000000032569
  0
ARC
  5
12D07
  8
0
 10
558.5560223396789752
 20
101.9968986888737987
 30
0.0
 40
0.0629921259999999
 50
0.0000000000032569
 51
180.212218472704194
  0
CIRCLE
  5
12D08
  8
0
 10
559.0316032366397394
 20
104.6005877211113955
 30
0.0
 40
0.0393684199012689
  0
ARC
  5
12D09
  8
0
 10
559.0316035526398082
 20
104.6005870094113988
 30
0.0
 40
0.0991089478204738
 50
335.938946085277621
 51
27.8958908921789401
  0
LINE
  5
12D0A
  8
0
 10
559.0348555474397472
 20
104.5060995321114063
 30
0.0
 11
558.9789386233396726
 21
104.5060995357314937
 31
0.0
  0
LINE
  5
12D0B
  8
0
 10
558.9389979644397499
 20
104.5454696109113968
 30
0.0
 11
558.9389979644397499
 21
104.6005877211113955
 31
0.0
  0
ARC
  5
12D0C
  8
0
 10
559.0347887608883184
 20
104.6036226574116057
 30
0.0
 40
0.0975231481687568
 50
270.0392376935769789
 51
333.5467782870751989
  0
ARC
  5
12D0D
  8
0
 10
558.9786282298268816
 20
104.5457294373246953
 30
0.0
 40
0.0396311171230168
 50
180.3756407745713943
 51
270.4487488971000175
  0
ARC
  5
12D0E
  8
0
 10
559.0352942666814897
 20
104.5996884575161943
 30
0.0
 40
0.0963005010393851
 50
29.3959191063243388
 51
179.464958572742006
  0
CIRCLE
  5
12D0F
  8
0
 10
559.0316032366397394
 20
104.1517693533113942
 30
0.0
 40
0.0393684199012689
  0
ARC
  5
12D10
  8
0
 10
559.0316035526398082
 20
104.1517700650115046
 30
0.0
 40
0.0991089478204738
 50
332.1041091078209888
 51
24.0610539147223612
  0
LINE
  5
12D11
  8
0
 10
559.0348555474397472
 20
104.2462575423113975
 30
0.0
 11
558.9789386233396726
 21
104.2462575386913954
 31
0.0
  0
LINE
  5
12D12
  8
0
 10
558.9389979644397499
 20
104.2068874635114071
 30
0.0
 11
558.9389979644397499
 21
104.1517693533113942
 31
0.0
  0
ARC
  5
12D13
  8
0
 10
559.0347887608883184
 20
104.1487344170112976
 30
0.0
 40
0.0975231481687568
 50
26.4532217129248117
 51
89.9607623064229642
  0
ARC
  5
12D14
  8
0
 10
558.9786282298268816
 20
104.2066276370981939
 30
0.0
 40
0.0396311171230168
 50
89.551251102899954
 51
179.6243592254286057
  0
ARC
  5
12D15
  8
0
 10
559.0352942666814897
 20
104.1526686169066949
 30
0.0
 40
0.0963005010393851
 50
180.535041427257994
 51
330.6040808936757003
  0
ARC
  5
12D16
  8
0
 10
559.0316032366397394
 20
104.6005877211113955
 30
0.0
 40
0.0866141732000001
 50
270.0
 51
180.0
  0
LINE
  5
12D17
  8
0
 10
559.0316032366397394
 20
104.5139735479114051
 30
0.0
 11
558.9764853857460594
 21
104.5139735479114051
 31
0.0
  0
LINE
  5
12D18
  8
0
 10
558.9449890633397899
 20
104.6005877211113955
 30
0.0
 11
558.9449890633397899
 21
104.5454696109113968
 31
0.0
  0
ARC
  5
12D19
  8
0
 10
558.9764851263397532
 20
104.5454696109114963
 30
0.0
 40
0.0314960630000023
 50
180.0000000000065086
 51
269.9999990904294123
  0
ARC
  5
12D1A
  8
0
 10
559.0316032366397394
 20
104.1517693533113942
 30
0.0
 40
0.0866141732000001
 50
180.0
 51
90.0
  0
LINE
  5
12D1B
  8
0
 10
559.0316032366397394
 20
104.2383835265113987
 30
0.0
 11
558.9764853857460594
 21
104.2383835265113987
 31
0.0
  0
LINE
  5
12D1C
  8
0
 10
558.9449890633397899
 20
104.1517693533113942
 30
0.0
 11
558.9449890633397899
 21
104.2068874635114071
 31
0.0
  0
ARC
  5
12D1D
  8
0
 10
558.9764851263397532
 20
104.2068874635114071
 30
0.0
 40
0.0314960630000023
 50
90.0000009095706446
 51
179.9999999999934914
  0
CIRCLE
  5
12D1E
  8
0
 10
558.9331780397396869
 20
103.887989295911396
 30
0.0
 40
0.0541158154592015
  0
ARC
  5
12D1F
  8
0
 10
558.9371030160840519
 20
103.8939038282912009
 30
0.0
 40
0.0215563362388962
 50
8.8852285458009437
 51
180.8849390253606941
  0
ARC
  5
12D20
  8
0
 10
558.9371030160840519
 20
103.8939038282912009
 30
0.0
 40
0.0215563362388964
 50
180.8849390253606941
 51
8.8852285458009437
  0
ARC
  5
12D21
  8
0
 10
558.9331780397396869
 20
103.887989295911396
 30
0.0
 40
0.0629921260000021
 50
348.8427256300063846
 51
182.7963578391940018
  0
ARC
  5
12D22
  8
0
 10
558.9331780397396869
 20
103.887989295911396
 30
0.0
 40
0.0629921260000001
 50
182.7963578391940018
 51
348.8427256300055888
  0
ARC
  5
12D23
  8
0
 10
558.9371398372968542
 20
103.893890353368505
 30
0.0
 40
0.0412122493247209
 50
349.3975223063649196
 51
178.8495045028577124
  0
ARC
  5
12D24
  8
0
 10
558.9371398372968542
 20
103.893890353368505
 30
0.0
 40
0.041212249324721
 50
178.8495045028577124
 51
349.3975223063649196
  0
CIRCLE
  5
12D25
  8
0
 10
558.9325596095696937
 20
103.6357833860644035
 30
0.0
 40
0.0541158154592015
  0
ARC
  5
12D26
  8
0
 10
558.9364845859140587
 20
103.6416979184440947
 30
0.0
 40
0.0215563362388962
 50
8.8852285458009437
 51
180.8849390253606941
  0
ARC
  5
12D27
  8
0
 10
558.9364845859140587
 20
103.6416979184440947
 30
0.0
 40
0.0215563362388964
 50
180.8849390253606941
 51
8.8852285458009437
  0
ARC
  5
12D28
  8
0
 10
558.9325596095696937
 20
103.6357833860644035
 30
0.0
 40
0.0629921260000021
 50
348.8427256300063846
 51
182.7963578391940018
  0
ARC
  5
12D29
  8
0
 10
558.9325596095696937
 20
103.6357833860644035
 30
0.0
 40
0.0629921260000001
 50
182.7963578391940018
 51
348.8427256300055888
  0
ARC
  5
12D2A
  8
0
 10
558.936521407126861
 20
103.6416844435214983
 30
0.0
 40
0.0412122493247209
 50
349.3975223063649196
 51
178.8495045028577124
  0
ARC
  5
12D2B
  8
0
 10
558.936521407126861
 20
103.6416844435214983
 30
0.0
 40
0.041212249324721
 50
178.8495045028577124
 51
349.3975223063649196
  0
CIRCLE
  5
12D2C
  8
0
 10
558.9335490978418193
 20
103.3826655534678025
 30
0.0
 40
0.0541158154592015
  0
ARC
  5
12D2D
  8
0
 10
558.9374740741860705
 20
103.3885800858474937
 30
0.0
 40
0.0215563362388962
 50
8.8852285458009437
 51
180.8849390253606941
  0
ARC
  5
12D2E
  8
0
 10
558.9374740741860705
 20
103.3885800858474937
 30
0.0
 40
0.0215563362388964
 50
180.8849390253606941
 51
8.8852285458009437
  0
ARC
  5
12D2F
  8
0
 10
558.9335490978418193
 20
103.3826655534678025
 30
0.0
 40
0.0629921260000021
 50
348.8427256300063846
 51
182.7963578391940018
  0
ARC
  5
12D30
  8
0
 10
558.9335490978418193
 20
103.3826655534678025
 30
0.0
 40
0.0629921260000001
 50
182.7963578391940018
 51
348.8427256300055888
  0
ARC
  5
12D31
  8
0
 10
558.9375108953987592
 20
103.3885666109248973
 30
0.0
 40
0.0412122493247209
 50
349.3975223063649196
 51
178.8495045028577124
  0
ARC
  5
12D32
  8
0
 10
558.9375108953987592
 20
103.3885666109248973
 30
0.0
 40
0.041212249324721
 50
178.8495045028577124
 51
349.3975223063649196
  0
CIRCLE
  5
12D33
  8
0
 10
558.9331143506625494
 20
103.1316064828589987
 30
0.0
 40
0.0541158154592015
  0
ARC
  5
12D34
  8
0
 10
558.9377076008025824
 20
103.1351862624068048
 30
0.0
 40
0.0215563362388962
 50
8.8852285458009437
 51
180.8849390253606941
  0
ARC
  5
12D35
  8
0
 10
558.9377076008025824
 20
103.1351862624068048
 30
0.0
 40
0.0215563362388964
 50
180.8849390253606941
 51
8.8852285458009437
  0
ARC
  5
12D36
  8
0
 10
558.9331143506625494
 20
103.1316064828589987
 30
0.0
 40
0.0629921260000021
 50
348.8427256300063846
 51
182.7963578391940018
  0
ARC
  5
12D37
  8
0
 10
558.9331143506625494
 20
103.1316064828589987
 30
0.0
 40
0.0629921260000001
 50
182.7963578391940018
 51
348.8427256300055888
  0
ARC
  5
12D38
  8
0
 10
558.9369090797705439
 20
103.1345058696612966
 30
0.0
 40
0.0412122493247209
 50
349.3975223063649196
 51
178.8495045028577124
  0
ARC
  5
12D39
  8
0
 10
558.9369090797705439
 20
103.1345058696612966
 30
0.0
 40
0.041212249324721
 50
178.8495045028577124
 51
349.3975223063649196
  0
CIRCLE
  5
12D3A
  8
0
 10
558.9328014434571514
 20
102.8802425972971974
 30
0.0
 40
0.0541158154592015
  0
ARC
  5
12D3B
  8
0
 10
558.9373363819037195
 20
102.8800816240052995
 30
0.0
 40
0.0215563362388962
 50
8.8852285458009437
 51
180.8849390253606941
  0
ARC
  5
12D3C
  8
0
 10
558.9373363819037195
 20
102.8800816240052995
 30
0.0
 40
0.0215563362388964
 50
180.8849390253606941
 51
8.8852285458009437
  0
ARC
  5
12D3D
  8
0
 10
558.9328014434571514
 20
102.8802425972971974
 30
0.0
 40
0.0629921260000021
 50
348.8427256300063846
 51
182.7963578391940018
  0
ARC
  5
12D3E
  8
0
 10
558.9328014434571514
 20
102.8802425972971974
 30
0.0
 40
0.0629921260000001
 50
182.7963578391940018
 51
348.8427256300055888
  0
ARC
  5
12D3F
  8
0
 10
558.9367632410142051
 20
102.8811898713150015
 30
0.0
 40
0.0412122493247209
 50
349.3975223063649196
 51
178.8495045028577124
  0
ARC
  5
12D40
  8
0
 10
558.9367632410142051
 20
102.8811898713150015
 30
0.0
 40
0.041212249324721
 50
178.8495045028577124
 51
349.3975223063649196
  0
CIRCLE
  5
12D41
  8
0
 10
558.9324553071678565
 20
102.6289655443638935
 30
0.0
 40
0.0541158154592015
  0
ARC
  5
12D42
  8
0
 10
558.9363802835123352
 20
102.6291815503871021
 30
0.0
 40
0.0215563362388962
 50
8.8852285458009437
 51
180.8849390253606941
  0
ARC
  5
12D43
  8
0
 10
558.9363802835123352
 20
102.6291815503871021
 30
0.0
 40
0.0215563362388964
 50
180.8849390253606941
 51
8.8852285458009437
  0
ARC
  5
12D44
  8
0
 10
558.9324553071678565
 20
102.6289655443638935
 30
0.0
 40
0.0629921260000021
 50
348.8427256300063846
 51
182.7963578391940018
  0
ARC
  5
12D45
  8
0
 10
558.9324553071678565
 20
102.6289655443638935
 30
0.0
 40
0.0629921260000001
 50
182.7963578391940018
 51
348.8427256300055888
  0
ARC
  5
12D46
  8
0
 10
558.9364171047249101
 20
102.6291680754645057
 30
0.0
 40
0.0412122493247209
 50
349.3975223063649196
 51
178.8495045028577124
  0
ARC
  5
12D47
  8
0
 10
558.9364171047249101
 20
102.6291680754645057
 30
0.0
 40
0.041212249324721
 50
178.8495045028577124
 51
349.3975223063649196
  0
ARC
  5
12D48
  8
0
 10
559.0653800038791132
 20
103.7675248996865065
 30
0.0
 40
0.0215563362388962
 50
8.8852285458009437
 51
180.8849390253606941
  0
ARC
  5
12D49
  8
0
 10
559.0653800038791132
 20
103.7675248996865065
 30
0.0
 40
0.0215563362388964
 50
180.8849390253606941
 51
8.8852285458009437
  0
ARC
  5
12D4A
  8
0
 10
559.0643663595042199
 20
103.7669462945021053
 30
0.0
 40
0.041212249324721
 50
178.8495045028577124
 51
349.3975223063649196
  0
ARC
  5
12D4B
  8
0
 10
559.0644070139513815
 20
103.7673412847365029
 30
0.0
 40
0.0412468630983641
 50
348.8478119334232019
 51
179.3992148758005101
  0
ARC
  5
12D4C
  8
0
 10
559.0543678454490646
 20
103.7642753832677016
 30
0.0
 40
0.0517382839971493
 50
18.6334531231192209
 51
148.5185592291419994
  0
ARC
  5
12D4D
  8
0
 10
559.0591987827941693
 20
103.7612807622114985
 30
0.0
 40
0.0574220190411998
 50
148.4876099852288007
 51
265.941737099672423
  0
ARC
  5
12D4E
  8
0
 10
559.0583986292140253
 20
103.7500028506155019
 30
0.0
 40
0.0461157581331644
 50
265.941737099672423
 51
321.3258151072690225
  0
ARC
  5
12D4F
  8
0
 10
559.047466349500155
 20
103.7587531740135063
 30
0.0
 40
0.0601187185098928
 50
321.325815107269591
 51
21.5201396419523405
  0
ARC
  5
12D50
  8
0
 10
559.0591622917396535
 20
103.7620050440114028
 30
0.0
 40
0.0629921260000008
 50
18.201523312523161
 51
194.8802093770154045
  0
ARC
  5
12D51
  8
0
 10
559.0591622917396535
 20
103.7620050440114028
 30
0.0
 40
0.0629921259999999
 50
194.8802093770154045
 51
18.2015233125255804
  0
ARC
  5
12D52
  8
0
 10
559.0650848983319747
 20
103.5159296892172023
 30
0.0
 40
0.0215563362388962
 50
8.8852285458009437
 51
180.8849390253606941
  0
ARC
  5
12D53
  8
0
 10
559.0650848983319747
 20
103.5159296892172023
 30
0.0
 40
0.0215563362388964
 50
180.8849390253606941
 51
8.8852285458009437
  0
ARC
  5
12D54
  8
0
 10
559.0640712539569677
 20
103.5153510840328011
 30
0.0
 40
0.041212249324721
 50
178.8495045028577124
 51
349.3975223063649196
  0
ARC
  5
12D55
  8
0
 10
559.0641119084043567
 20
103.5157460742672981
 30
0.0
 40
0.0412468630983641
 50
348.8478119334232019
 51
179.3992148758005101
  0
ARC
  5
12D56
  8
0
 10
559.0540727399020398
 20
103.5126801727982979
 30
0.0
 40
0.0517382839971493
 50
18.6334531231192209
 51
148.5185592291419994
  0
ARC
  5
12D57
  8
0
 10
559.0589036772471445
 20
103.5096855517421943
 30
0.0
 40
0.0574220190411998
 50
148.4876099852288007
 51
265.941737099672423
  0
ARC
  5
12D58
  8
0
 10
559.0581035236667731
 20
103.4984076401461977
 30
0.0
 40
0.0461157581331644
 50
265.941737099672423
 51
321.3258151072690225
  0
ARC
  5
12D59
  8
0
 10
559.0471712439530165
 20
103.5071579635442021
 30
0.0
 40
0.0601187185098928
 50
321.325815107269591
 51
21.5201396419523405
  0
ARC
  5
12D5A
  8
0
 10
559.0588671861927423
 20
103.5104098335420986
 30
0.0
 40
0.0629921260000008
 50
18.201523312523161
 51
194.8802093770154045
  0
ARC
  5
12D5B
  8
0
 10
559.0588671861927423
 20
103.5104098335420986
 30
0.0
 40
0.0629921259999999
 50
194.8802093770154045
 51
18.2015233125255804
  0
ARC
  5
12D5C
  8
0
 10
559.0653800038791132
 20
102.5021631068240993
 30
0.0
 40
0.0215563362388962
 50
8.8852285458009437
 51
180.8849390253606941
  0
ARC
  5
12D5D
  8
0
 10
559.0653800038791132
 20
102.5021631068240993
 30
0.0
 40
0.0215563362388964
 50
180.8849390253606941
 51
8.8852285458009437
  0
ARC
  5
12D5E
  8
0
 10
559.0643663595042199
 20
102.501584501639698
 30
0.0
 40
0.041212249324721
 50
178.8495045028577124
 51
349.3975223063649196
  0
ARC
  5
12D5F
  8
0
 10
559.0644070139513815
 20
102.5019794918741951
 30
0.0
 40
0.0412468630983641
 50
348.8478119334232019
 51
179.3992148758005101
  0
ARC
  5
12D60
  8
0
 10
559.0548950419255334
 20
102.5054751636404973
 30
0.0
 40
0.0527572788159387
 50
356.5950631082645828
 51
183.5999808299513063
  0
ARC
  5
12D61
  8
0
 10
559.0558527434069447
 20
102.5001865607451066
 30
0.0
 40
0.0536472791595105
 50
177.8891755810008135
 51
290.4111067804219033
  0
ARC
  5
12D62
  8
0
 10
559.0510677891971909
 20
102.5012922019978987
 30
0.0
 40
0.0565011493566088
 50
294.5713401595583036
 51
1.064403429629162
  0
ARC
  5
12D63
  8
0
 10
559.0591622917396535
 20
102.5021625243115011
 30
0.0
 40
0.0629921260000003
 50
0.2122184727042037
 51
180.0000000000032117
  0
ARC
  5
12D64
  8
0
 10
559.0591622917396535
 20
102.5021625243115011
 30
0.0
 40
0.0629921259999999
 50
180.0000000000028137
 51
0.2122184727042037
  0
ARC
  5
12D65
  8
0
 10
559.0648854649138002
 20
102.7545445690859935
 30
0.0
 40
0.0215563362388962
 50
8.8852285458009437
 51
180.8849390253606941
  0
ARC
  5
12D66
  8
0
 10
559.0648854649138002
 20
102.7545445690859935
 30
0.0
 40
0.0215563362388964
 50
180.8849390253606941
 51
8.8852285458009437
  0
ARC
  5
12D67
  8
0
 10
559.0638718205390205
 20
102.7539659639016065
 30
0.0
 40
0.041212249324721
 50
178.8495045028577124
 51
349.3975223063649196
  0
ARC
  5
12D68
  8
0
 10
559.0639124749862958
 20
102.7543609541361036
 30
0.0
 40
0.0412468630983641
 50
348.8478119334232019
 51
179.3992148758005101
  0
ARC
  5
12D69
  8
0
 10
559.0544005029603341
 20
102.7578566259024058
 30
0.0
 40
0.0527572788159387
 50
356.5950631082645828
 51
183.5999808299513063
  0
ARC
  5
12D6A
  8
0
 10
559.0553582044417453
 20
102.7525680230070009
 30
0.0
 40
0.0536472791595105
 50
177.8891755810008135
 51
290.4111067804219033
  0
ARC
  5
12D6B
  8
0
 10
559.0505732502321052
 20
102.753673664259793
 30
0.0
 40
0.0565011493566088
 50
294.5713401595583036
 51
1.064403429629162
  0
ARC
  5
12D6C
  8
0
 10
559.0586677527744541
 20
102.7545439865733954
 30
0.0
 40
0.0629921260000003
 50
0.2122184727042037
 51
180.0000000000032117
  0
ARC
  5
12D6D
  8
0
 10
559.0586677527744541
 20
102.7545439865733954
 30
0.0
 40
0.0629921259999999
 50
180.0000000000028137
 51
0.2122184727042037
  0
ARC
  5
12D6E
  8
0
 10
559.0656938175818595
 20
103.2593201457798955
 30
0.0
 40
0.0215563362388962
 50
8.8852285458009437
 51
180.8849390253606941
  0
ARC
  5
12D6F
  8
0
 10
559.0656938175818595
 20
103.2593201457798955
 30
0.0
 40
0.0215563362388964
 50
180.8849390253606941
 51
8.8852285458009437
  0
ARC
  5
12D70
  8
0
 10
559.0646801732069662
 20
103.2587415405954943
 30
0.0
 40
0.041212249324721
 50
178.8495045028577124
 51
349.3975223063653743
  0
ARC
  5
12D71
  8
0
 10
559.0647208276543552
 20
103.2591365308300055
 30
0.0
 40
0.0412468630983641
 50
348.8478119334232019
 51
179.3992148758005101
  0
ARC
  5
12D72
  8
0
 10
559.0552088556282797
 20
103.2626322025962935
 30
0.0
 40
0.0527572788159387
 50
356.5950631082645828
 51
183.5999808299513063
  0
ARC
  5
12D73
  8
0
 10
559.0561665571099184
 20
103.2573435997009028
 30
0.0
 40
0.0536472791595105
 50
177.8891755810008135
 51
290.4111067804219033
  0
ARC
  5
12D74
  8
0
 10
559.0513816029000509
 20
103.2584492409536949
 30
0.0
 40
0.0565011493566088
 50
294.5713401595583036
 51
1.064403429629162
  0
ARC
  5
12D75
  8
0
 10
559.0594761054425135
 20
103.2593195632672973
 30
0.0
 40
0.0629921260000003
 50
0.2122184727042037
 51
180.0000000000032117
  0
ARC
  5
12D76
  8
0
 10
559.0594761054425135
 20
103.2593195632672973
 30
0.0
 40
0.0629921259999999
 50
180.0000000000028137
 51
0.2122184727042037
  0
ARC
  5
12D77
  8
0
 10
559.0645829465397583
 20
103.0074269422618016
 30
0.0
 40
0.0215563362388962
 50
8.8852285458009437
 51
180.8849390253606941
  0
ARC
  5
12D78
  8
0
 10
559.0645829465397583
 20
103.0074269422618016
 30
0.0
 40
0.0215563362388964
 50
180.8849390253606941
 51
8.8852285458009437
  0
ARC
  5
12D79
  8
0
 10
559.0635693021648649
 20
103.0068483370774004
 30
0.0
 40
0.041212249324721
 50
178.8495045028577124
 51
349.3975223063653743
  0
ARC
  5
12D7A
  8
0
 10
559.0636099566122539
 20
103.0072433273118975
 30
0.0
 40
0.0412468630983641
 50
348.8478119334232019
 51
179.3992148758005101
  0
ARC
  5
12D7B
  8
0
 10
559.0540979845861784
 20
103.0107389990781996
 30
0.0
 40
0.0527572788159387
 50
356.5950631082645828
 51
183.5999808299513063
  0
ARC
  5
12D7C
  8
0
 10
559.0550556860677034
 20
103.0054503961826953
 30
0.0
 40
0.0536472791595105
 50
177.8891755810008135
 51
290.4111067804219033
  0
ARC
  5
12D7D
  8
0
 10
559.0502707318579496
 20
103.0065560374356011
 30
0.0
 40
0.0565011493566088
 50
294.5713401595583036
 51
1.064403429629162
  0
ARC
  5
12D7E
  8
0
 10
559.0583652344005259
 20
103.007426359749104
 30
0.0
 40
0.0629921260000003
 50
0.2122184727042037
 51
180.0000000000032117
  0
ARC
  5
12D7F
  8
0
 10
559.0583652344005259
 20
103.007426359749104
 30
0.0
 40
0.0629921259999999
 50
180.0000000000028137
 51
0.2122184727042037
  0
CIRCLE
  5
12D80
  8
0
 10
558.9331780397396869
 20
101.1163357527113931
 30
0.0
 40
0.0541158154592015
  0
ARC
  5
12D81
  8
0
 10
558.9371030160840519
 20
101.1104212203318014
 30
0.0
 40
0.0215563362388962
 50
179.1150609746393059
 51
351.1147714541991149
  0
ARC
  5
12D82
  8
0
 10
558.9371030160840519
 20
101.1104212203318014
 30
0.0
 40
0.0215563362388964
 50
351.1147714541991149
 51
179.1150609746393059
  0
ARC
  5
12D83
  8
0
 10
558.9331780397396869
 20
101.1163357527113931
 30
0.0
 40
0.0629921260000021
 50
177.2036421608059982
 51
11.1572743699935408
  0
ARC
  5
12D84
  8
0
 10
558.9331780397396869
 20
101.1163357527113931
 30
0.0
 40
0.0629921260000001
 50
11.1572743699943295
 51
177.2036421608059982
  0
ARC
  5
12D85
  8
0
 10
558.9371398372968542
 20
101.1104346952543978
 30
0.0
 40
0.0412122493247209
 50
181.1504954971422876
 51
10.6024776936350396
  0
ARC
  5
12D86
  8
0
 10
558.9371398372968542
 20
101.1104346952543978
 30
0.0
 40
0.041212249324721
 50
10.6024776936350396
 51
181.1504954971422876
  0
CIRCLE
  5
12D87
  8
0
 10
558.9325596095696937
 20
101.3685416625584992
 30
0.0
 40
0.0541158154592015
  0
ARC
  5
12D88
  8
0
 10
558.9364845859140587
 20
101.3626271301787938
 30
0.0
 40
0.0215563362388962
 50
179.1150609746393059
 51
351.1147714541991149
  0
ARC
  5
12D89
  8
0
 10
558.9364845859140587
 20
101.3626271301787938
 30
0.0
 40
0.0215563362388964
 50
351.1147714541991149
 51
179.1150609746393059
  0
ARC
  5
12D8A
  8
0
 10
558.9325596095696937
 20
101.3685416625584992
 30
0.0
 40
0.0629921260000021
 50
177.2036421608059982
 51
11.1572743699935408
  0
ARC
  5
12D8B
  8
0
 10
558.9325596095696937
 20
101.3685416625584992
 30
0.0
 40
0.0629921260000001
 50
11.1572743699939405
 51
177.2036421608059982
  0
ARC
  5
12D8C
  8
0
 10
558.936521407126861
 20
101.3626406051014044
 30
0.0
 40
0.0412122493247209
 50
181.1504954971422876
 51
10.6024776936350396
  0
ARC
  5
12D8D
  8
0
 10
558.936521407126861
 20
101.3626406051014044
 30
0.0
 40
0.041212249324721
 50
10.6024776936346399
 51
181.1504954971422876
  0
CIRCLE
  5
12D8E
  8
0
 10
558.9335490978418193
 20
101.6216594951551002
 30
0.0
 40
0.0541158154592015
  0
ARC
  5
12D8F
  8
0
 10
558.9374740741860705
 20
101.6157449627754943
 30
0.0
 40
0.0215563362388962
 50
179.1150609746393059
 51
351.1147714541991149
  0
ARC
  5
12D90
  8
0
 10
558.9374740741860705
 20
101.6157449627754943
 30
0.0
 40
0.0215563362388964
 50
351.1147714541991149
 51
179.1150609746393059
  0
ARC
  5
12D91
  8
0
 10
558.9335490978418193
 20
101.6216594951551002
 30
0.0
 40
0.0629921260000021
 50
177.2036421608059982
 51
11.1572743699935408
  0
ARC
  5
12D92
  8
0
 10
558.9335490978418193
 20
101.6216594951551002
 30
0.0
 40
0.0629921260000001
 50
11.1572743699939405
 51
177.2036421608059982
  0
ARC
  5
12D93
  8
0
 10
558.9375108953987592
 20
101.6157584376981049
 30
0.0
 40
0.0412122493247209
 50
181.1504954971422876
 51
10.6024776936350396
  0
ARC
  5
12D94
  8
0
 10
558.9375108953987592
 20
101.6157584376981049
 30
0.0
 40
0.041212249324721
 50
10.6024776936346399
 51
181.1504954971422876
  0
CIRCLE
  5
12D95
  8
0
 10
558.9331143506625494
 20
101.8727185657639041
 30
0.0
 40
0.0541158154592015
  0
ARC
  5
12D96
  8
0
 10
558.9377076008025824
 20
101.869138786216098
 30
0.0
 40
0.0215563362388962
 50
179.1150609746393059
 51
351.1147714541991149
  0
ARC
  5
12D97
  8
0
 10
558.9377076008025824
 20
101.869138786216098
 30
0.0
 40
0.0215563362388964
 50
351.1147714541991149
 51
179.1150609746393059
  0
ARC
  5
12D98
  8
0
 10
558.9331143506625494
 20
101.8727185657639041
 30
0.0
 40
0.0629921260000021
 50
177.2036421608059982
 51
11.1572743699935408
  0
ARC
  5
12D99
  8
0
 10
558.9331143506625494
 20
101.8727185657639041
 30
0.0
 40
0.0629921260000001
 50
11.1572743699939405
 51
177.2036421608059982
  0
ARC
  5
12D9A
  8
0
 10
558.9369090797705439
 20
101.8698191789616061
 30
0.0
 40
0.0412122493247209
 50
181.1504954971422876
 51
10.6024776936350396
  0
ARC
  5
12D9B
  8
0
 10
558.9369090797705439
 20
101.8698191789616061
 30
0.0
 40
0.041212249324721
 50
10.6024776936346399
 51
181.1504954971422876
  0
CIRCLE
  5
12D9C
  8
0
 10
558.9328014434571514
 20
102.1240824513257053
 30
0.0
 40
0.0541158154592015
  0
ARC
  5
12D9D
  8
0
 10
558.9373363819037195
 20
102.1242434246176032
 30
0.0
 40
0.0215563362388962
 50
179.1150609746393059
 51
351.1147714541991149
  0
ARC
  5
12D9E
  8
0
 10
558.9373363819037195
 20
102.1242434246176032
 30
0.0
 40
0.0215563362388964
 50
351.1147714541991149
 51
179.1150609746393059
  0
ARC
  5
12D9F
  8
0
 10
558.9328014434571514
 20
102.1240824513257053
 30
0.0
 40
0.0629921260000021
 50
177.2036421608059982
 51
11.1572743699935408
  0
ARC
  5
12DA0
  8
0
 10
558.9328014434571514
 20
102.1240824513257053
 30
0.0
 40
0.0629921260000001
 50
11.1572743699939405
 51
177.2036421608059982
  0
ARC
  5
12DA1
  8
0
 10
558.9367632410142051
 20
102.1231351773079012
 30
0.0
 40
0.0412122493247209
 50
181.1504954971422876
 51
10.6024776936350396
  0
ARC
  5
12DA2
  8
0
 10
558.9367632410142051
 20
102.1231351773079012
 30
0.0
 40
0.041212249324721
 50
10.6024776936346399
 51
181.1504954971422876
  0
CIRCLE
  5
12DA3
  8
0
 10
558.9324553071678565
 20
102.375359504258995
 30
0.0
 40
0.0541158154592015
  0
ARC
  5
12DA4
  8
0
 10
558.9363802835123352
 20
102.3751434982358006
 30
0.0
 40
0.0215563362388962
 50
179.1150609746393059
 51
351.1147714541991149
  0
ARC
  5
12DA5
  8
0
 10
558.9363802835123352
 20
102.3751434982358006
 30
0.0
 40
0.0215563362388964
 50
351.1147714541991149
 51
179.1150609746393059
  0
ARC
  5
12DA6
  8
0
 10
558.9324553071678565
 20
102.375359504258995
 30
0.0
 40
0.0629921260000021
 50
177.2036421608059982
 51
11.1572743699935408
  0
ARC
  5
12DA7
  8
0
 10
558.9324553071678565
 20
102.375359504258995
 30
0.0
 40
0.0629921260000001
 50
11.1572743699939405
 51
177.2036421608059982
  0
ARC
  5
12DA8
  8
0
 10
558.9364171047249101
 20
102.375156973158397
 30
0.0
 40
0.0412122493247209
 50
181.1504954971422876
 51
10.6024776936350396
  0
ARC
  5
12DA9
  8
0
 10
558.9364171047249101
 20
102.375156973158397
 30
0.0
 40
0.041212249324721
 50
10.6024776936346399
 51
181.1504954971422876
  0
ARC
  5
12DAA
  8
0
 10
559.0653800038791132
 20
101.2368001489363962
 30
0.0
 40
0.0215563362388962
 50
179.1150609746393059
 51
351.1147714541991149
  0
ARC
  5
12DAB
  8
0
 10
559.0653800038791132
 20
101.2368001489363962
 30
0.0
 40
0.0215563362388964
 50
351.1147714541991149
 51
179.1150609746393059
  0
ARC
  5
12DAC
  8
0
 10
559.0643663595042199
 20
101.2373787541207975
 30
0.0
 40
0.041212249324721
 50
10.6024776936346399
 51
181.1504954971422876
  0
ARC
  5
12DAD
  8
0
 10
559.0644070139513815
 20
101.2369837638863004
 30
0.0
 40
0.0412468630983641
 50
180.6007851241994899
 51
11.1521880665771302
  0
ARC
  5
12DAE
  8
0
 10
559.0543678454490646
 20
101.2400496653552011
 30
0.0
 40
0.0517382839971493
 50
211.4814407708578869
 51
341.3665468768808182
  0
ARC
  5
12DAF
  8
0
 10
559.0591987827941693
 20
101.2430442864114042
 30
0.0
 40
0.0574220190411998
 50
94.0582629003276764
 51
211.5123900147711993
  0
ARC
  5
12DB0
  8
0
 10
559.0583986292140253
 20
101.2543221980074009
 30
0.0
 40
0.0461157581331644
 50
38.6741848927310272
 51
94.0582629003276764
  0
ARC
  5
12DB1
  8
0
 10
559.047466349500155
 20
101.2455718746093964
 30
0.0
 40
0.0601187185098928
 50
338.4798603580476879
 51
38.6741848927304019
  0
ARC
  5
12DB2
  8
0
 10
559.0591622917396535
 20
101.2423200046114005
 30
0.0
 40
0.0629921260000008
 50
165.1197906229845103
 51
341.798476687476807
  0
ARC
  5
12DB3
  8
0
 10
559.0591622917396535
 20
101.2423200046114005
 30
0.0
 40
0.0629921259999999
 50
341.7984766874744196
 51
165.1197906229845103
  0
ARC
  5
12DB4
  8
0
 10
559.0650848983319747
 20
101.4883953594057004
 30
0.0
 40
0.0215563362388962
 50
179.1150609746393059
 51
351.1147714541991149
  0
ARC
  5
12DB5
  8
0
 10
559.0650848983319747
 20
101.4883953594057004
 30
0.0
 40
0.0215563362388964
 50
351.1147714541991149
 51
179.1150609746393059
  0
ARC
  5
12DB6
  8
0
 10
559.0640712539569677
 20
101.4889739645901017
 30
0.0
 40
0.041212249324721
 50
10.6024776936346399
 51
181.1504954971422876
  0
ARC
  5
12DB7
  8
0
 10
559.0641119084043567
 20
101.4885789743557041
 30
0.0
 40
0.0412468630983641
 50
180.6007851241994899
 51
11.1521880665771302
  0
ARC
  5
12DB8
  8
0
 10
559.0540727399020398
 20
101.4916448758245053
 30
0.0
 40
0.0517382839971493
 50
211.4814407708578869
 51
341.3665468768808182
  0
ARC
  5
12DB9
  8
0
 10
559.0589036772471445
 20
101.4946394968806942
 30
0.0
 40
0.0574220190411998
 50
94.0582629003276764
 51
211.5123900147711993
  0
ARC
  5
12DBA
  8
0
 10
559.0581035236667731
 20
101.5059174084767051
 30
0.0
 40
0.0461157581331644
 50
38.6741848927310272
 51
94.0582629003276764
  0
ARC
  5
12DBB
  8
0
 10
559.0471712439530165
 20
101.4971670850787007
 30
0.0
 40
0.0601187185098928
 50
338.4798603580476879
 51
38.6741848927304019
  0
ARC
  5
12DBC
  8
0
 10
559.0588671861927423
 20
101.4939152150807047
 30
0.0
 40
0.0629921260000008
 50
165.1197906229845103
 51
341.798476687476807
  0
ARC
  5
12DBD
  8
0
 10
559.0588671861927423
 20
101.4939152150807047
 30
0.0
 40
0.0629921259999999
 50
341.7984766874744196
 51
165.1197906229845103
  0
ARC
  5
12DBE
  8
0
 10
559.0653800038791132
 20
102.5021619417988035
 30
0.0
 40
0.0215563362388962
 50
179.1150609746393059
 51
351.1147714541991149
  0
ARC
  5
12DBF
  8
0
 10
559.0653800038791132
 20
102.5021619417988035
 30
0.0
 40
0.0215563362388964
 50
351.1147714541991149
 51
179.1150609746393059
  0
ARC
  5
12DC0
  8
0
 10
559.0643663595042199
 20
102.5027405469832047
 30
0.0
 40
0.041212249324721
 50
10.6024776936346399
 51
181.1504954971422876
  0
ARC
  5
12DC1
  8
0
 10
559.0644070139513815
 20
102.5023455567486934
 30
0.0
 40
0.0412468630983641
 50
180.6007851241994899
 51
11.1521880665771302
  0
ARC
  5
12DC2
  8
0
 10
559.0548950419255334
 20
102.4988498849824055
 30
0.0
 40
0.0527572788159387
 50
176.4000191700486937
 51
3.4049368917354532
  0
ARC
  5
12DC3
  8
0
 10
559.0558527434069447
 20
102.5041384878777961
 30
0.0
 40
0.0536472791595105
 50
69.5888932195781535
 51
182.1108244189996128
  0
ARC
  5
12DC4
  8
0
 10
559.0510677891971909
 20
102.503032846625004
 30
0.0
 40
0.0565011493566088
 50
358.9355965703704783
 51
65.4286598404417532
  0
ARC
  5
12DC5
  8
0
 10
559.0591622917396535
 20
102.5021625243115011
 30
0.0
 40
0.0629921260000003
 50
179.9999999999967031
 51
359.787781527295806
  0
ARC
  5
12DC6
  8
0
 10
559.0591622917396535
 20
102.5021625243115011
 30
0.0
 40
0.0629921259999999
 50
359.787781527295806
 51
179.9999999999967031
  0
ARC
  5
12DC7
  8
0
 10
559.0648854649138002
 20
102.249780479536895
 30
0.0
 40
0.0215563362388962
 50
179.1150609746393059
 51
351.1147714541991149
  0
ARC
  5
12DC8
  8
0
 10
559.0648854649138002
 20
102.249780479536895
 30
0.0
 40
0.0215563362388964
 50
351.1147714541991149
 51
179.1150609746393059
  0
ARC
  5
12DC9
  8
0
 10
559.0638718205390205
 20
102.2503590847212962
 30
0.0
 40
0.041212249324721
 50
10.6024776936346399
 51
181.1504954971422876
  0
ARC
  5
12DCA
  8
0
 10
559.0639124749862958
 20
102.2499640944867991
 30
0.0
 40
0.0412468630983641
 50
180.6007851241994899
 51
11.1521880665771302
  0
ARC
  5
12DCB
  8
0
 10
559.0544005029603341
 20
102.2464684227203975
 30
0.0
 40
0.0527572788159387
 50
176.4000191700486937
 51
3.4049368917354532
  0
ARC
  5
12DCC
  8
0
 10
559.0553582044417453
 20
102.2517570256159019
 30
0.0
 40
0.0536472791595105
 50
69.5888932195781535
 51
182.1108244189996128
  0
ARC
  5
12DCD
  8
0
 10
559.0505732502321052
 20
102.2506513843629961
 30
0.0
 40
0.0565011493566088
 50
358.9355965703704783
 51
65.4286598404417532
  0
ARC
  5
12DCE
  8
0
 10
559.0586677527744541
 20
102.2497810620494931
 30
0.0
 40
0.0629921260000003
 50
179.9999999999967031
 51
359.787781527295806
  0
ARC
  5
12DCF
  8
0
 10
559.0586677527744541
 20
102.2497810620494931
 30
0.0
 40
0.0629921259999999
 50
359.787781527295806
 51
179.9999999999967031
  0
ARC
  5
12DD0
  8
0
 10
559.0656938175818595
 20
101.745004902842993
 30
0.0
 40
0.0215563362388962
 50
179.1150609746393059
 51
351.1147714541991149
  0
ARC
  5
12DD1
  8
0
 10
559.0656938175818595
 20
101.745004902842993
 30
0.0
 40
0.0215563362388964
 50
351.1147714541991149
 51
179.1150609746393059
  0
ARC
  5
12DD2
  8
0
 10
559.0646801732069662
 20
101.7455835080273943
 30
0.0
 40
0.041212249324721
 50
10.6024776936346399
 51
181.1504954971422876
  0
ARC
  5
12DD3
  8
0
 10
559.0647208276543552
 20
101.7451885177928972
 30
0.0
 40
0.0412468630983641
 50
180.6007851241994899
 51
11.1521880665771302
  0
ARC
  5
12DD4
  8
0
 10
559.0552088556282797
 20
101.7416928460264955
 30
0.0
 40
0.0527572788159387
 50
176.4000191700486937
 51
3.4049368917354532
  0
ARC
  5
12DD5
  8
0
 10
559.0561665571099184
 20
101.7469814489219999
 30
0.0
 40
0.0536472791595105
 50
69.5888932195781535
 51
182.1108244189996128
  0
ARC
  5
12DD6
  8
0
 10
559.0513816029000509
 20
101.7458758076690941
 30
0.0
 40
0.0565011493566088
 50
358.9355965703704783
 51
65.4286598404417532
  0
ARC
  5
12DD7
  8
0
 10
559.0594761054425135
 20
101.7450054853556054
 30
0.0
 40
0.0629921260000003
 50
179.9999999999967031
 51
359.787781527295806
  0
ARC
  5
12DD8
  8
0
 10
559.0594761054425135
 20
101.7450054853556054
 30
0.0
 40
0.0629921259999999
 50
359.787781527295806
 51
179.9999999999967031
  0
ARC
  5
12DD9
  8
0
 10
559.0645829465397583
 20
101.9968981063611011
 30
0.0
 40
0.0215563362388962
 50
179.1150609746393059
 51
351.1147714541991149
  0
ARC
  5
12DDA
  8
0
 10
559.0645829465397583
 20
101.9968981063611011
 30
0.0
 40
0.0215563362388964
 50
351.1147714541991149
 51
179.1150609746393059
  0
ARC
  5
12DDB
  8
0
 10
559.0635693021648649
 20
101.9974767115455023
 30
0.0
 40
0.041212249324721
 50
10.6024776936346399
 51
181.1504954971422876
  0
ARC
  5
12DDC
  8
0
 10
559.0636099566122539
 20
101.9970817213110053
 30
0.0
 40
0.0412468630983641
 50
180.6007851241994899
 51
11.1521880665767306
  0
ARC
  5
12DDD
  8
0
 10
559.0540979845861784
 20
101.9935860495447031
 30
0.0
 40
0.0527572788159387
 50
176.4000191700486937
 51
3.4049368917350469
  0
ARC
  5
12DDE
  8
0
 10
559.0550556860677034
 20
101.9988746524400938
 30
0.0
 40
0.0536472791595105
 50
69.5888932195781535
 51
182.1108244189996128
  0
ARC
  5
12DDF
  8
0
 10
559.0502707318579496
 20
101.9977690111873017
 30
0.0
 40
0.0565011493566088
 50
358.9355965703704783
 51
65.4286598404417532
  0
ARC
  5
12DE0
  8
0
 10
559.0583652344005259
 20
101.9968986888737987
 30
0.0
 40
0.0629921260000003
 50
179.9999999999967031
 51
359.787781527295806
  0
ARC
  5
12DE1
  8
0
 10
559.0583652344005259
 20
101.9968986888737987
 30
0.0
 40
0.0629921259999999
 50
359.787781527295806
 51
179.9999999999967031
  0
ARC
  5
12DE2
  8
0
 10
566.7008545796885528
 20
101.2219994250164063
 30
0.0
 40
1.7538140313228321
 50
258.7502243422765105
 51
266.1915249041617244
  0
ARC
  5
12DE3
  8
0
 10
567.1284254425753488
 20
111.3846369298018999
 30
0.0
 40
11.9249960154930399
 50
267.3850498668440991
 51
268.4185512749248801
  0
ARC
  5
12DE4
  8
0
 10
567.252080581761561
 20
99.6781842929109132
 30
0.0
 40
0.1663418436251373
 50
289.4515914654621156
 51
306.1670866358791727
  0
ARC
  5
12DE5
  8
0
 10
566.9613369540511485
 20
100.6839181528225993
 30
0.0
 40
1.2130154788060621
 50
272.5013057115796187
 51
286.5799291132080953
  0
ARC
  5
12DE6
  8
0
 10
566.5219393998719397
 20
109.9728151651962946
 30
0.0
 40
10.5122922094078106
 50
271.5119975502357192
 51
272.6843914090985095
  0
LINE
  5
12DE7
  8
0
 10
570.4567778481913365
 20
92.4947668817114845
 30
0.0
 11
568.7638644623397113
 21
92.4947668817114845
 31
0.0
  0
LINE
  5
12DE8
  8
0
 10
568.7638644622880975
 20
88.7546094717114755
 30
0.0
 11
570.4567778481398364
 21
88.7546094717114755
 31
0.0
  0
LINE
  5
12DE9
  8
0
 10
564.4971355776398241
 20
94.023334562211474
 30
0.0
 11
564.4971355776398241
 21
93.6544373301114632
 31
0.0
  0
LINE
  5
12DEA
  8
0
 10
564.5003022294397397
 20
94.023334562211474
 30
0.0
 11
564.5003022294397397
 21
93.6544373301114632
 31
0.0
  0
LINE
  5
12DEB
  8
0
 10
564.5064730806398074
 20
94.023334562211474
 30
0.0
 11
564.5064730806398074
 21
93.6544373301114632
 31
0.0
  0
LINE
  5
12DEC
  8
0
 10
564.5056545307396618
 20
94.023334562211474
 30
0.0
 11
564.5056545307396618
 21
93.6544373301114632
 31
0.0
  0
LINE
  5
12DED
  8
0
 10
564.5008501550397568
 20
94.023334562211474
 30
0.0
 11
564.5008501550397568
 21
93.6544373301114632
 31
0.0
  0
LINE
  5
12DEE
  8
0
 10
564.5139849555397404
 20
94.023334562211474
 30
0.0
 11
564.5139849555397404
 21
93.6544373301114632
 31
0.0
  0
LINE
  5
12DEF
  8
0
 10
564.5131664056398222
 20
94.023334562211474
 30
0.0
 11
564.5131664056398222
 21
93.6544373301114632
 31
0.0
  0
LINE
  5
12DF0
  8
0
 10
564.5241477929397433
 20
94.023334562211474
 30
0.0
 11
564.5241477929397433
 21
93.6544373301114632
 31
0.0
  0
LINE
  5
12DF1
  8
0
 10
564.5228012569398288
 20
94.023334562211474
 30
0.0
 11
564.5228012569398288
 21
93.6544373301114632
 31
0.0
  0
LINE
  5
12DF2
  8
0
 10
564.5361134701397532
 20
94.023334562211474
 30
0.0
 11
564.5361134701397532
 21
93.6544373301114632
 31
0.0
  0
LINE
  5
12DF3
  8
0
 10
564.5345121448398231
 20
94.023334562211474
 30
0.0
 11
564.5345121448398231
 21
93.6544373301114632
 31
0.0
  0
LINE
  5
12DF4
  8
0
 10
564.5500903281397314
 20
94.023334562211474
 30
0.0
 11
564.5500903281397314
 21
93.6544373301114632
 31
0.0
  0
LINE
  5
12DF5
  8
0
 10
564.5482420148397296
 20
94.023334562211474
 30
0.0
 11
564.5482420148397296
 21
93.6544373301114632
 31
0.0
  0
LINE
  5
12DF6
  8
0
 10
564.5660102728396623
 20
94.023334562211474
 30
0.0
 11
564.5660102728396623
 21
93.6544373301114632
 31
0.0
  0
LINE
  5
12DF7
  8
0
 10
564.5639239765397406
 20
94.023334562211474
 30
0.0
 11
564.5639239765397406
 21
93.6544373301114632
 31
0.0
  0
LINE
  5
12DF8
  8
0
 10
564.5837957441398203
 20
94.023334562211474
 30
0.0
 11
564.5837957441398203
 21
93.6544373301114632
 31
0.0
  0
LINE
  5
12DF9
  8
0
 10
564.5814816289397413
 20
94.023334562211474
 30
0.0
 11
564.5814816289397413
 21
93.6544373301114632
 31
0.0
  0
LINE
  5
12DFA
  8
0
 10
564.6033600928396936
 20
94.023334562211474
 30
0.0
 11
564.6033600928396936
 21
93.6544373301114632
 31
0.0
  0
LINE
  5
12DFB
  8
0
 10
564.6008294329398041
 20
94.023334562211474
 30
0.0
 11
564.6008294329398041
 21
93.6544373301114632
 31
0.0
  0
LINE
  5
12DFC
  8
0
 10
564.6246080034397892
 20
94.023334562211474
 30
0.0
 11
564.6246080034397892
 21
93.6544373301114632
 31
0.0
  0
LINE
  5
12DFD
  8
0
 10
564.6218731279398071
 20
94.023334562211474
 30
0.0
 11
564.6218731279398071
 21
93.6544373301114632
 31
0.0
  0
LINE
  5
12DFE
  8
0
 10
564.64743595833977
 20
94.023334562211474
 30
0.0
 11
564.64743595833977
 21
93.6544373301114632
 31
0.0
  0
LINE
  5
12DFF
  8
0
 10
564.6445101912396467
 20
94.023334562211474
 30
0.0
 11
564.6445101912396467
 21
93.6544373301114632
 31
0.0
  0
LINE
  5
12E00
  8
0
 10
564.6686303373397777
 20
94.023334562211474
 30
0.0
 11
564.6686303373397777
 21
93.6544373301114632
 31
0.0
  0
LINE
  5
12E01
  8
0
 10
564.6717327419397634
 20
94.023334562211474
 30
0.0
 11
564.6717327419397634
 21
93.6544373301114632
 31
0.0
  0
LINE
  5
12E02
  8
0
 10
564.9479408628398005
 20
94.023334562211474
 30
0.0
 11
564.9479408628398005
 21
93.6544373301114632
 31
0.0
  0
LINE
  5
12E03
  8
0
 10
564.9350922599396654
 20
94.023334562211474
 30
0.0
 11
564.9350922599396654
 21
93.6544373301114632
 31
0.0
  0
LINE
  5
12E04
  8
0
 10
564.9311576503397418
 20
93.6544373301114632
 30
0.0
 11
564.9311576503397418
 21
94.023334562211474
 31
0.0
  0
LINE
  5
12E05
  8
0
 10
564.9035577496397309
 20
94.023334562211474
 30
0.0
 11
564.9035577496397309
 21
93.6544373301114632
 31
0.0
  0
LINE
  5
12E06
  8
0
 10
564.8996231400396937
 20
93.6544373301114632
 30
0.0
 11
564.8996231400396937
 21
94.023334562211474
 31
0.0
  0
LINE
  5
12E07
  8
0
 10
564.8722442684396583
 20
94.023334562211474
 30
0.0
 11
564.8722442684396583
 21
93.6544373301114632
 31
0.0
  0
LINE
  5
12E08
  8
0
 10
564.8683096588397348
 20
93.6544373301114632
 30
0.0
 11
564.8683096588397348
 21
94.023334562211474
 31
0.0
  0
LINE
  5
12E09
  8
0
 10
564.8413043724398221
 20
94.023334562211474
 30
0.0
 11
564.8413043724398221
 21
93.6544373301114632
 31
0.0
  0
LINE
  5
12E0A
  8
0
 10
564.8373697628397849
 20
93.6544373301114632
 30
0.0
 11
564.8373697628397849
 21
94.023334562211474
 31
0.0
  0
LINE
  5
12E0B
  8
0
 10
564.8108887977398354
 20
94.023334562211474
 30
0.0
 11
564.8108887977398354
 21
93.6544373301114632
 31
0.0
  0
LINE
  5
12E0C
  8
0
 10
564.8071444808398383
 20
93.6544373301114632
 30
0.0
 11
564.8071444808398383
 21
94.023334562211474
 31
0.0
  0
LINE
  5
12E0D
  8
0
 10
564.7811457260396537
 20
94.023334562211474
 30
0.0
 11
564.7811457260396537
 21
93.6544373301114632
 31
0.0
  0
LINE
  5
12E0E
  8
0
 10
564.7774953959396953
 20
93.6544373301114632
 30
0.0
 11
564.7774953959396953
 21
94.023334562211474
 31
0.0
  0
LINE
  5
12E0F
  8
0
 10
564.7522200625396636
 20
94.023334562211474
 30
0.0
 11
564.7522200625396636
 21
93.6544373301114632
 31
0.0
  0
LINE
  5
12E10
  8
0
 10
564.7486815032398226
 20
93.6544373301114632
 30
0.0
 11
564.7486815032398226
 21
94.023334562211474
 31
0.0
  0
LINE
  5
12E11
  8
0
 10
564.7242527300397796
 20
94.023334562211474
 30
0.0
 11
564.7242527300397796
 21
93.6544373301114632
 31
0.0
  0
LINE
  5
12E12
  8
0
 10
564.7208431812397293
 20
93.6544373301114632
 30
0.0
 11
564.7208431812397293
 21
94.023334562211474
 31
0.0
  0
LINE
  5
12E13
  8
0
 10
564.6973799827397897
 20
94.023334562211474
 30
0.0
 11
564.6973799827397897
 21
93.6544373301114632
 31
0.0
  0
LINE
  5
12E14
  8
0
 10
564.6941160553398049
 20
93.654437330111449
 30
0.0
 11
564.6941160553398049
 21
94.023334562211474
 31
0.0
  0
LINE
  5
12E15
  8
0
 10
564.7455760458398117
 20
94.023334562211474
 30
0.0
 11
564.7455760458398117
 21
93.6544373301114632
 31
0.0
  0
LINE
  5
12E16
  8
0
 10
564.7438365585396696
 20
94.023334562211474
 30
0.0
 11
564.7438365585396696
 21
93.6544373301114632
 31
0.0
  0
LINE
  5
12E17
  8
0
 10
564.7728355256398345
 20
94.023334562211474
 30
0.0
 11
564.7728355256398345
 21
93.6544373301114632
 31
0.0
  0
LINE
  5
12E18
  8
0
 10
564.771096038339806
 20
94.023334562211474
 30
0.0
 11
564.771096038339806
 21
93.6544373301114632
 31
0.0
  0
LINE
  5
12E19
  8
0
 10
564.8009613747396997
 20
94.023334562211474
 30
0.0
 11
564.8009613747396997
 21
93.6544373301114632
 31
0.0
  0
LINE
  5
12E1A
  8
0
 10
564.799221887439785
 20
94.023334562211474
 30
0.0
 11
564.799221887439785
 21
93.6544373301114632
 31
0.0
  0
LINE
  5
12E1B
  8
0
 10
564.829816566739737
 20
94.023334562211474
 30
0.0
 11
564.829816566739737
 21
93.6544373301114632
 31
0.0
  0
LINE
  5
12E1C
  8
0
 10
564.8280770794398222
 20
94.023334562211474
 30
0.0
 11
564.8280770794398222
 21
93.6544373301114632
 31
0.0
  0
LINE
  5
12E1D
  8
0
 10
564.8592605221398344
 20
94.023334562211474
 30
0.0
 11
564.8592605221398344
 21
93.6544373301114632
 31
0.0
  0
LINE
  5
12E1E
  8
0
 10
564.8575210348398059
 20
94.023334562211474
 30
0.0
 11
564.8575210348398059
 21
93.6544373301114632
 31
0.0
  0
LINE
  5
12E1F
  8
0
 10
564.889149792839703
 20
94.023334562211474
 30
0.0
 11
564.889149792839703
 21
93.6544373301114632
 31
0.0
  0
LINE
  5
12E20
  8
0
 10
564.8874103055397882
 20
94.023334562211474
 30
0.0
 11
564.8874103055397882
 21
93.6544373301114632
 31
0.0
  0
LINE
  5
12E21
  8
0
 10
564.9193387613396453
 20
94.023334562211474
 30
0.0
 11
564.9193387613396453
 21
93.6544373301114632
 31
0.0
  0
LINE
  5
12E22
  8
0
 10
564.9175992740397305
 20
94.023334562211474
 30
0.0
 11
564.9175992740397305
 21
93.6544373301114632
 31
0.0
  0
LINE
  5
12E23
  8
0
 10
565.4007162392397277
 20
94.023334562211474
 30
0.0
 11
565.4007162392397277
 21
93.6544373301114632
 31
0.0
  0
LINE
  5
12E24
  8
0
 10
565.3975495874398121
 20
94.023334562211474
 30
0.0
 11
565.3975495874398121
 21
93.6544373301114632
 31
0.0
  0
LINE
  5
12E25
  8
0
 10
565.3913787362397443
 20
94.023334562211474
 30
0.0
 11
565.3913787362397443
 21
93.6544373301114632
 31
0.0
  0
LINE
  5
12E26
  8
0
 10
565.3921972861397762
 20
94.023334562211474
 30
0.0
 11
565.3921972861397762
 21
93.6544373301114632
 31
0.0
  0
LINE
  5
12E27
  8
0
 10
565.3970016618397949
 20
94.023334562211474
 30
0.0
 11
565.3970016618397949
 21
93.6544373301114632
 31
0.0
  0
LINE
  5
12E28
  8
0
 10
565.3838668613396976
 20
94.023334562211474
 30
0.0
 11
565.3838668613396976
 21
93.6544373301114632
 31
0.0
  0
LINE
  5
12E29
  8
0
 10
565.3846854112397295
 20
94.023334562211474
 30
0.0
 11
565.3846854112397295
 21
93.6544373301114632
 31
0.0
  0
LINE
  5
12E2A
  8
0
 10
565.3737040239398084
 20
94.023334562211474
 30
0.0
 11
565.3737040239398084
 21
93.6544373301114632
 31
0.0
  0
LINE
  5
12E2B
  8
0
 10
565.3750505599398366
 20
94.023334562211474
 30
0.0
 11
565.3750505599398366
 21
93.6544373301114632
 31
0.0
  0
LINE
  5
12E2C
  8
0
 10
565.3617383467396849
 20
94.023334562211474
 30
0.0
 11
565.3617383467396849
 21
93.6544373301114632
 31
0.0
  0
LINE
  5
12E2D
  8
0
 10
565.3633396720397286
 20
94.023334562211474
 30
0.0
 11
565.3633396720397286
 21
93.6544373301114632
 31
0.0
  0
LINE
  5
12E2E
  8
0
 10
565.3477614887398204
 20
94.023334562211474
 30
0.0
 11
565.3477614887398204
 21
93.6544373301114632
 31
0.0
  0
LINE
  5
12E2F
  8
0
 10
565.3496098020398222
 20
94.023334562211474
 30
0.0
 11
565.3496098020398222
 21
93.6544373301114632
 31
0.0
  0
LINE
  5
12E30
  8
0
 10
565.3318415440397757
 20
94.023334562211474
 30
0.0
 11
565.3318415440397757
 21
93.6544373301114632
 31
0.0
  0
LINE
  5
12E31
  8
0
 10
565.3339278403398112
 20
94.023334562211474
 30
0.0
 11
565.3339278403398112
 21
93.6544373301114632
 31
0.0
  0
LINE
  5
12E32
  8
0
 10
565.3140560727397315
 20
94.023334562211474
 30
0.0
 11
565.3140560727397315
 21
93.6544373301114632
 31
0.0
  0
LINE
  5
12E33
  8
0
 10
565.3163701879398104
 20
94.023334562211474
 30
0.0
 11
565.3163701879398104
 21
93.6544373301114632
 31
0.0
  0
LINE
  5
12E34
  8
0
 10
565.2944917240397444
 20
94.023334562211474
 30
0.0
 11
565.2944917240397444
 21
93.6544373301114632
 31
0.0
  0
LINE
  5
12E35
  8
0
 10
565.2970223839397477
 20
94.023334562211474
 30
0.0
 11
565.2970223839397477
 21
93.6544373301114632
 31
0.0
  0
LINE
  5
12E36
  8
0
 10
565.2732438134396489
 20
94.023334562211474
 30
0.0
 11
565.2732438134396489
 21
93.6544373301114632
 31
0.0
  0
LINE
  5
12E37
  8
0
 10
565.2759786889397446
 20
94.023334562211474
 30
0.0
 11
565.2759786889397446
 21
93.6544373301114632
 31
0.0
  0
LINE
  5
12E38
  8
0
 10
565.2504158585396681
 20
94.023334562211474
 30
0.0
 11
565.2504158585396681
 21
93.6544373301114632
 31
0.0
  0
LINE
  5
12E39
  8
0
 10
565.2533416256397913
 20
94.023334562211474
 30
0.0
 11
565.2533416256397913
 21
93.6544373301114632
 31
0.0
  0
LINE
  5
12E3A
  8
0
 10
565.2292214795396603
 20
94.023334562211474
 30
0.0
 11
565.2292214795396603
 21
93.6544373301114632
 31
0.0
  0
LINE
  5
12E3B
  8
0
 10
565.2261190749396746
 20
94.023334562211474
 30
0.0
 11
565.2261190749396746
 21
93.6544373301114632
 31
0.0
  0
LINE
  5
12E3C
  8
0
 10
564.9499109540397512
 20
94.023334562211474
 30
0.0
 11
564.9499109540397512
 21
93.6544373301114632
 31
0.0
  0
LINE
  5
12E3D
  8
0
 10
564.962759556939659
 20
94.023334562211474
 30
0.0
 11
564.962759556939659
 21
93.6544373301114632
 31
0.0
  0
LINE
  5
12E3E
  8
0
 10
564.9666941665396962
 20
93.6544373301114632
 30
0.0
 11
564.9666941665396962
 21
94.023334562211474
 31
0.0
  0
LINE
  5
12E3F
  8
0
 10
564.9942940672397071
 20
94.023334562211474
 30
0.0
 11
564.9942940672397071
 21
93.6544373301114632
 31
0.0
  0
LINE
  5
12E40
  8
0
 10
564.9982286768397444
 20
93.6544373301114632
 30
0.0
 11
564.9982286768397444
 21
94.023334562211474
 31
0.0
  0
LINE
  5
12E41
  8
0
 10
565.0256075484397797
 20
94.023334562211474
 30
0.0
 11
565.0256075484397797
 21
93.6544373301114632
 31
0.0
  0
LINE
  5
12E42
  8
0
 10
565.0295421580397033
 20
93.6544373301114632
 30
0.0
 11
565.0295421580397033
 21
94.023334562211474
 31
0.0
  0
LINE
  5
12E43
  8
0
 10
565.0565474444397296
 20
94.023334562211474
 30
0.0
 11
565.0565474444397296
 21
93.6544373301114632
 31
0.0
  0
LINE
  5
12E44
  8
0
 10
565.0604820540396531
 20
93.6544373301114632
 30
0.0
 11
565.0604820540396531
 21
94.023334562211474
 31
0.0
  0
LINE
  5
12E45
  8
0
 10
565.0869630191398301
 20
94.023334562211474
 30
0.0
 11
565.0869630191398301
 21
93.6544373301114632
 31
0.0
  0
LINE
  5
12E46
  8
0
 10
565.0907073360398272
 20
93.6544373301114632
 30
0.0
 11
565.0907073360398272
 21
94.023334562211474
 31
0.0
  0
LINE
  5
12E47
  8
0
 10
565.1167060908397843
 20
94.023334562211474
 30
0.0
 11
565.1167060908397843
 21
93.6544373301114632
 31
0.0
  0
LINE
  5
12E48
  8
0
 10
565.1203564209397427
 20
93.6544373301114632
 30
0.0
 11
565.1203564209397427
 21
94.023334562211474
 31
0.0
  0
LINE
  5
12E49
  8
0
 10
565.1456317543397745
 20
94.023334562211474
 30
0.0
 11
565.1456317543397745
 21
93.6544373301114632
 31
0.0
  0
LINE
  5
12E4A
  8
0
 10
565.1491703136397291
 20
93.6544373301114632
 30
0.0
 11
565.1491703136397291
 21
94.023334562211474
 31
0.0
  0
LINE
  5
12E4B
  8
0
 10
565.1735990868396584
 20
94.023334562211474
 30
0.0
 11
565.1735990868396584
 21
93.6544373301114632
 31
0.0
  0
LINE
  5
12E4C
  8
0
 10
565.1770086356398224
 20
93.6544373301114632
 30
0.0
 11
565.1770086356398224
 21
94.023334562211474
 31
0.0
  0
LINE
  5
12E4D
  8
0
 10
565.2004718341396483
 20
94.023334562211474
 30
0.0
 11
565.2004718341396483
 21
93.6544373301114632
 31
0.0
  0
LINE
  5
12E4E
  8
0
 10
565.2037357615397468
 20
93.654437330111449
 30
0.0
 11
565.2037357615397468
 21
94.023334562211474
 31
0.0
  0
LINE
  5
12E4F
  8
0
 10
565.15227577103974
 20
94.023334562211474
 30
0.0
 11
565.15227577103974
 21
93.6544373301114632
 31
0.0
  0
LINE
  5
12E50
  8
0
 10
565.1540152583397685
 20
94.023334562211474
 30
0.0
 11
565.1540152583397685
 21
93.6544373301114632
 31
0.0
  0
LINE
  5
12E51
  8
0
 10
565.1250162912398309
 20
94.023334562211474
 30
0.0
 11
565.1250162912398309
 21
93.6544373301114632
 31
0.0
  0
LINE
  5
12E52
  8
0
 10
565.1267557785397457
 20
94.023334562211474
 30
0.0
 11
565.1267557785397457
 21
93.6544373301114632
 31
0.0
  0
LINE
  5
12E53
  8
0
 10
565.0968904421397383
 20
94.023334562211474
 30
0.0
 11
565.0968904421397383
 21
93.6544373301114632
 31
0.0
  0
LINE
  5
12E54
  8
0
 10
565.0986299294396531
 20
94.023334562211474
 30
0.0
 11
565.0986299294396531
 21
93.6544373301114632
 31
0.0
  0
LINE
  5
12E55
  8
0
 10
565.0680352501398147
 20
94.023334562211474
 30
0.0
 11
565.0680352501398147
 21
93.6544373301114632
 31
0.0
  0
LINE
  5
12E56
  8
0
 10
565.0697747374397295
 20
94.023334562211474
 30
0.0
 11
565.0697747374397295
 21
93.6544373301114632
 31
0.0
  0
LINE
  5
12E57
  8
0
 10
565.038591294739831
 20
94.023334562211474
 30
0.0
 11
565.038591294739831
 21
93.6544373301114632
 31
0.0
  0
LINE
  5
12E58
  8
0
 10
565.0403307820397458
 20
94.023334562211474
 30
0.0
 11
565.0403307820397458
 21
93.6544373301114632
 31
0.0
  0
LINE
  5
12E59
  8
0
 10
565.0087020240397351
 20
94.023334562211474
 30
0.0
 11
565.0087020240397351
 21
93.6544373301114632
 31
0.0
  0
LINE
  5
12E5A
  8
0
 10
565.0104415113396499
 20
94.023334562211474
 30
0.0
 11
565.0104415113396499
 21
93.6544373301114632
 31
0.0
  0
LINE
  5
12E5B
  8
0
 10
564.9785130555397927
 20
94.023334562211474
 30
0.0
 11
564.9785130555397927
 21
93.6544373301114632
 31
0.0
  0
LINE
  5
12E5C
  8
0
 10
564.9802525428397075
 20
94.023334562211474
 30
0.0
 11
564.9802525428397075
 21
93.6544373301114632
 31
0.0
  0
ARC
  5
12E5E
  8
0
 10
566.4014248740356834
 20
99.7804989754585563
 30
0.0
 40
0.281871314635421
 50
237.3020794466870029
 51
261.2836275548950198
  0
ARC
  5
12E5F
  8
0
 10
566.2734289008150199
 20
99.5811088399075857
 30
0.0
 40
0.0449337800070511
 50
202.0623130179313875
 51
237.3020794466874008
  0
ARC
  5
12E60
  8
0
 10
566.2762067948002596
 20
99.5822630491166052
 30
0.0
 40
0.0479418103953281
 50
185.0822840747649138
 51
202.0937149513345048
  0
ARC
  5
12E61
  8
0
 10
566.2572079316529425
 20
99.5772352248329753
 30
0.0
 40
0.028765064174325
 50
157.6576577307029936
 51
178.4444985095744016
  0
ARC
  5
12E62
  8
0
 10
566.3008936822584474
 20
99.5334628823838869
 30
0.0
 40
0.0890715753951301
 50
107.5798001556138956
 51
142.1067351482030858
  0
ARC
  5
12E63
  8
0
 10
566.6343455884124296
 20
98.4446745320753678
 30
0.0
 40
1.227938819054442
 50
92.0560824080081943
 51
106.978971342970695
  0
ARC
  5
12E64
  8
0
 10
567.8569120336385367
 20
64.3906763655323857
 30
0.0
 40
35.3038754876172902
 50
91.7166571203488701
 51
92.0560824080081943
  0
ARC
  5
12E65
  8
0
 10
566.798906771081306
 20
96.6196356792005133
 30
0.0
 40
3.0590715845683052
 50
84.3753257308225955
 51
89.9922676283339342
  0
ARC
  5
12E66
  8
0
 10
566.6933454886583377
 20
96.5208085661937645
 30
0.0
 40
3.169204292542656
 50
80.0265696501548405
 51
82.6509362388064943
  0
ARC
  5
12E67
  8
0
 10
567.1750321652682487
 20
99.2600167599186136
 30
0.0
 40
0.3879665136045155
 50
64.1805093090267462
 51
80.0265696501548405
  0
ARC
  5
12E68
  8
0
 10
567.3033376497839981
 20
99.5330719260003747
 30
0.0
 40
0.086356534716266
 50
49.5362915365642493
 51
61.9049146387254225
  0
ARC
  5
12E69
  8
0
 10
567.3200213299350025
 20
99.5854626349051841
 30
0.0
 40
0.0513931734420164
 50
306.0226210631153094
 51
338.2269889486930197
  0
ARC
  5
12E6A
  8
0
 10
567.3329217970793934
 20
99.5796558011586228
 30
0.0
 40
0.0372640364476274
 50
339.1609489786836207
 51
359.8794082076133236
  0
ARC
  5
12E6B
  8
0
 10
567.3497113142079797
 20
99.5792866970266317
 30
0.0
 40
0.0204765000114899
 50
0.8133682376114088
 51
41.684382691116447
  0
ARC
  5
12E6C
  8
0
 10
567.2817705218817537
 20
99.5187868706298389
 30
0.0
 40
0.1114500140469659
 50
41.684382691116447
 51
45.8641124276528629
  0
ENDSEC
  0
EOF
