  0
SECTION
  2
HEADER
  9
$ACADVER
  1
AC1009
  9
$INSBASE
 10
168.7111570243164067
 20
14.0337245575788998
 30
0.0
  9
$EXTMIN
 10
160.6686781378502928
 20
14.0328690285089497
 30
-0.0015258207003583
  9
$EXTMAX
 10
169.8974444824322916
 20
26.5935912848273084
 30
0.0000000349246037
  9
$LIMMIN
 10
0.0
 20
0.0
  9
$LIMMAX
 10
11.6929133858000007
 20
8.2677165353999982
  9
$ORTHOMODE
 70
     0
  9
$REGENMODE
 70
     1
  9
$FILLMODE
 70
     1
  9
$QTEXTMODE
 70
     0
  9
$MIRRTEXT
 70
     0
  9
$DRAGMODE
 70
     2
  9
$LTSCALE
 40
0.6431102362
  9
$OSMODE
 70
    37
  9
$ATTMODE
 70
     1
  9
$TEXTSIZE
 40
0.2
  9
$TRACEWID
 40
0.05
  9
$TEXTSTYLE
  7
STANDARD
  9
$CLAYER
  8
0
  9
$CELTYPE
  6
BYLAYER
  9
$CECOLOR
 62
   256
  9
$DIMSCALE
 40
1.0
  9
$DIMASZ
 40
0.1875
  9
$DIMEXO
 40
0.0625
  9
$DIMDLI
 40
0.4443307087
  9
$DIMRND
 40
0.0
  9
$DIMDLE
 40
0.0
  9
$DIMEXE
 40
0.125
  9
$DIMTP
 40
0.01
  9
$DIMTM
 40
0.01
  9
$DIMTXT
 40
1.0
  9
$DIMCEN
 40
0.1052362205
  9
$DIMTSZ
 40
0.0
  9
$DIMTOL
 70
     1
  9
$DIMLIM
 70
     0
  9
$DIMTIH
 70
     1
  9
$DIMTOH
 70
     1
  9
$DIMSE1
 70
     0
  9
$DIMSE2
 70
     0
  9
$DIMTAD
 70
     0
  9
$DIMZIN
 70
     0
  9
$DIMBLK
  1

  9
$DIMASO
 70
     1
  9
$DIMSHO
 70
     1
  9
$DIMPOST
  1
\X
  9
$DIMAPOST
  1

  9
$DIMALT
 70
     1
  9
$DIMALTD
 70
     2
  9
$DIMALTF
 40
25.3999999999999986
  9
$DIMLFAC
 40
1.0
  9
$DIMTOFL
 70
     0
  9
$DIMTVP
 40
0.0
  9
$DIMTIX
 70
     0
  9
$DIMSOXD
 70
     0
  9
$DIMSAH
 70
     0
  9
$DIMBLK1
  1

  9
$DIMBLK2
  1

  9
$DIMSTYLE
  2
STANDARD
  9
$DIMCLRD
 70
     0
  9
$DIMCLRE
 70
     0
  9
$DIMCLRT
 70
     0
  9
$DIMTFAC
 40
1.0
  9
$DIMGAP
 40
0.09
  9
$LUNITS
 70
     2
  9
$LUPREC
 70
     4
  9
$SKETCHINC
 40
0.1
  9
$FILLETRAD
 40
0.0
  9
$AUNITS
 70
     0
  9
$AUPREC
 70
     0
  9
$MENU
  1
.
  9
$ELEVATION
 40
0.0
  9
$PELEVATION
 40
0.0
  9
$THICKNESS
 40
0.0
  9
$LIMCHECK
 70
     0
  9
$BLIPMODE
 70
     0
  9
$CHAMFERA
 40
0.0
  9
$CHAMFERB
 40
0.0
  9
$SKPOLY
 70
     0
  9
$TDCREATE
 40
2458172.4620254631154239
  9
$TDUPDATE
 40
2459016.7927662041038275
  9
$TDINDWG
 40
0.0941180787
  9
$TDUSRTIMER
 40
0.0941180787
  9
$USRTIMER
 70
     1
  9
$ANGBASE
 50
0.0
  9
$ANGDIR
 70
     0
  9
$PDMODE
 70
     0
  9
$PDSIZE
 40
0.3125
  9
$PLINEWID
 40
0.0
  9
$COORDS
 70
     1
  9
$SPLFRAME
 70
     0
  9
$SPLINETYPE
 70
     6
  9
$SPLINESEGS
 70
     8
  9
$ATTDIA
 70
     1
  9
$ATTREQ
 70
     1
  9
$HANDLING
 70
     1
  9
$HANDSEED
  5
2348
  9
$SURFTAB1
 70
     6
  9
$SURFTAB2
 70
     6
  9
$SURFTYPE
 70
     6
  9
$SURFU
 70
     6
  9
$SURFV
 70
     6
  9
$UCSNAME
  2

  9
$UCSORG
 10
0.0
 20
0.0
 30
0.0
  9
$UCSXDIR
 10
1.0
 20
0.0
 30
0.0
  9
$UCSYDIR
 10
0.0
 20
1.0
 30
0.0
  9
$PUCSNAME
  2

  9
$PUCSORG
 10
0.0
 20
0.0
 30
0.0
  9
$PUCSXDIR
 10
1.0
 20
0.0
 30
0.0
  9
$PUCSYDIR
 10
0.0
 20
1.0
 30
0.0
  9
$USERI1
 70
     0
  9
$USERI2
 70
     0
  9
$USERI3
 70
     0
  9
$USERI4
 70
     0
  9
$USERI5
 70
     0
  9
$USERR1
 40
0.0
  9
$USERR2
 40
0.0
  9
$USERR3
 40
0.0
  9
$USERR4
 40
0.0
  9
$USERR5
 40
0.0
  9
$WORLDVIEW
 70
     1
  9
$SHADEDGE
 70
     3
  9
$SHADEDIF
 70
    70
  9
$TILEMODE
 70
     1
  9
$MAXACTVP
 70
    64
  9
$PLIMCHECK
 70
     0
  9
$PEXTMIN
 10
1.0000000000000000E+20
 20
1.0000000000000000E+20
 30
1.0000000000000000E+20
  9
$PEXTMAX
 10
-1.0000000000000000E+20
 20
-1.0000000000000000E+20
 30
-1.0000000000000000E+20
  9
$PLIMMIN
 10
0.0
 20
0.0
  9
$PLIMMAX
 10
12.0
 20
9.0
  9
$UNITMODE
 70
     0
  9
$VISRETAIN
 70
     1
  9
$PLINEGEN
 70
     0
  9
$PSLTSCALE
 70
     1
  0
ENDSEC
  0
SECTION
  2
TABLES
  0
TABLE
  2
VPORT
 70
     1
  0
VPORT
  2
*ACTIVE
 70
     0
 10
0.0
 20
0.0
 11
1.0
 21
1.0
 12
-0.0028044735500732
 22
-0.0000218155303529
 13
0.0
 23
0.0
 14
1.0
 24
1.0
 15
0.0
 25
0.0
 16
0.0
 26
0.0
 36
58.1790077635351821
 17
165.2858657836914063
 27
20.3132519721984899
 37
0.0
 40
12.6652497646927102
 41
2.6486111111111108
 42
50.0
 43
0.0
 44
0.0
 50
0.0
 51
0.0
 71
     0
 72
   100
 73
     1
 74
     1
 75
     0
 76
     0
 77
     0
 78
     0
  0
ENDTAB
  0
TABLE
  2
LTYPE
 70
     2
  0
LTYPE
  2
CONTINUOUS
 70
     0
  3
Solid line
 72
    65
 73
     0
 40
0.0
  0
LTYPE
  2
PHANTOM2
 70
     0
  3
___ _ _ ___ _ _ ___ _ _ ___ _ _
 72
    65
 73
     6
 40
1.25
 49
0.625
 49
-0.125
 49
0.125
 49
-0.125
 49
0.125
 49
-0.125
  0
ENDTAB
  0
TABLE
  2
LAYER
 70
     2
  0
LAYER
  2
0
 70
     0
 62
   255
  6
CONTINUOUS
  0
LAYER
  2
DEFPOINTS
 70
     0
 62
     7
  6
CONTINUOUS
  0
ENDTAB
  0
TABLE
  2
STYLE
 70
     1
  0
STYLE
  2
STANDARD
 70
     0
 40
0.0
 41
0.8
 50
0.0
 71
     0
 42
0.2
  3
txt
  4

  0
ENDTAB
  0
TABLE
  2
VIEW
 70
     0
  0
ENDTAB
  0
TABLE
  2
UCS
 70
     0
  0
ENDTAB
  0
TABLE
  2
APPID
 70
     9
  0
APPID
  2
ACAD
 70
     0
  0
APPID
  2
ACAD_MLEADERVER
 70
     0
  0
APPID
  2
ACAD_EXEMPT_FROM_CAD_STANDARDS
 70
     0
  0
APPID
  2
ACAD_DSTYLE_DIMJAG
 70
     0
  0
APPID
  2
ACAD_DSTYLE_DIMTALN
 70
     0
  0
APPID
  2
ACAD_NAV_VCDISPLAY
 70
     0
  0
APPID
  2
ACAECLAYERSTANDARD
 70
     0
  0
APPID
  2
ACCMTRANSPARENCY
 70
     0
  0
APPID
  2
ACDBATTR
 70
     0
  0
ENDTAB
  0
TABLE
  2
DIMSTYLE
 70
     1
  0
DIMSTYLE
  2
STANDARD
 70
     0
  3

  4

  5

  6

  7

 40
1.0
 41
0.1875
 42
0.0625
 43
0.38
 44
0.125
 45
0.0
 46
0.0
 47
0.01
 48
0.01
140
0.15625
141
0.09
142
0.0
143
25.3999999999999986
144
1.0
145
0.0
146
1.0
147
0.09
 71
     1
 72
     0
 73
     1
 74
     1
 75
     0
 76
     0
 77
     0
 78
     4
170
     0
171
     2
172
     0
173
     0
174
     0
175
     0
176
     0
177
     0
178
     0
  0
ENDTAB
  0
ENDSEC
  0
SECTION
  2
BLOCKS
  0
BLOCK
  8
0
  2
$MODEL_SPACE
 70
     0
 10
0.0
 20
0.0
 30
0.0
  3
$MODEL_SPACE
  1

  0
ENDBLK
  5
21
  8
0
  0
BLOCK
 67
     1
  8
0
  2
$PAPER_SPACE
 70
     0
 10
0.0
 20
0.0
 30
0.0
  3
$PAPER_SPACE
  1

  0
ENDBLK
  5
1D
 67
     1
  8
0
  0
BLOCK
  8
0
  2
_FILLED
 70
     0
 10
0.0
 20
0.0
 30
0.0
  3
_FILLED
  1

  0
SOLID
  5
2104
  8
0
  6
BYBLOCK
 62
     0
 10
0.0
 20
0.0
 30
0.0
 11
-1.0
 21
0.1666666667
 31
0.0
 12
-1.0
 22
-0.1666666667
 32
0.0
 13
-1.0
 23
-0.1666666667
 33
0.0
  0
ENDBLK
  5
2105
  8
0
  6
BYBLOCK
 62
     0
  0
ENDSEC
  0
SECTION
  2
ENTITIES
  0
ATTDEF
  5
157D
  8
DEFPOINTS
 10
168.7115255088909009
 20
14.0376696385241395
 30
0.0
 40
0.001
  1
K-77985T
  3

  2
MODELNUMBER
 70
     0
1001
ACDBATTR
1070
     0
1070
     1
  0
ATTDEF
  5
157E
  8
DEFPOINTS
 10
168.7115255088909009
 20
14.0360029718574708
 30
0.0
 40
0.001
  1
COMPONENTS
  3

  2
TRADENAME
 70
     0
1001
ACDBATTR
1070
     0
1070
     1
  0
ATTDEF
  5
157F
  8
DEFPOINTS
 10
168.7115255088909009
 20
14.0343363051908092
 30
0.0
 40
0.001
  1
BATHROOM SINK FAUCET
  3

  2
PRODUCT
 70
     0
1001
ACDBATTR
1070
     0
1070
     1
  0
LINE
  5
21DB
  8
0
 10
160.6797770710811903
 20
21.9679185061674715
 30
0.0
 11
160.8814551149428951
 21
23.11169153009876
 31
0.0
  0
ARC
  5
21DC
  8
0
 10
165.030506777399097
 20
22.3795902041436605
 30
0.0
 40
3.1501542202020332
 50
358.5562529761613746
 51
169.9908411629079978
  0
LINE
  5
21DD
  8
0
 10
168.1796609613664089
 20
14.3683702267789002
 30
0.0
 11
168.1796609613664089
 21
22.3002205796789106
 31
0.0
  0
LINE
  5
21DE
  8
0
 10
169.2426530872666035
 20
14.3683702267789002
 30
0.0
 11
169.2426530873227932
 21
22.3801812504788984
 31
0.0
  0
LINE
  5
21DF
  8
0
 10
167.5398971817664062
 20
14.0337245575788998
 30
0.0
 11
169.8824168668664072
 21
14.0337245575788998
 31
0.0
  0
LINE
  5
21E0
  8
0
 10
168.1599759219664065
 20
14.3401467745788995
 30
0.0
 11
169.2623381266662932
 21
14.3401467745788995
 31
0.0
  0
LINE
  5
21E1
  8
0
 10
168.1737348178889988
 20
14.3434028750472304
 30
0.0
 11
167.5452101602664072
 21
14.1947883183788992
 31
0.0
  0
LINE
  5
21E2
  8
0
 10
169.2485792307163877
 20
14.3434028749788993
 30
0.0
 11
169.8771038883664062
 21
14.1947883183788992
 31
0.0
  0
LINE
  5
21E3
  8
0
 10
167.5300546621662932
 20
14.1756314910788994
 30
0.0
 11
167.5300546621662932
 21
14.0435670772788992
 31
0.0
  0
LINE
  5
21E4
  8
0
 10
169.8922593865663089
 20
14.1756314910788994
 30
0.0
 11
169.8922593865663089
 21
14.0435670772788992
 31
0.0
  0
ARC
  5
21E5
  8
0
 10
169.8725743471663918
 20
14.1756314910788994
 30
0.0
 40
0.0196850394
 50
0.0
 51
76.6969999998993046
  0
ARC
  5
21E6
  8
0
 10
167.5497397013346017
 20
14.1756314912858894
 30
0.0
 40
0.019685039168248
 50
103.3029997655361996
 51
180.0000006024721984
  0
ARC
  5
21E7
  8
0
 10
169.8824168668664072
 20
14.0435670772788992
 30
0.0
 40
0.0098425197
 50
270.0
 51
0.0
  0
ARC
  5
21E8
  8
0
 10
167.5398971816956077
 20
14.0435670771081895
 30
0.0
 40
0.0098425195292888
 50
179.9999990062457869
 51
270.0000004116250238
  0
LINE
  5
21E9
  8
0
 10
161.9282979597280985
 20
22.9271046447032703
 30
0.0
 11
161.7266199581137016
 21
21.7833318606640098
 31
0.0
  0
ARC
  5
21EA
  8
0
 10
161.7072339787162036
 20
21.7867501318790495
 30
0.0
 40
0.0196850393776318
 50
260.0000000453057964
 51
350.0000000005751986
  0
LINE
  5
21EB
  8
0
 10
161.7038157075164122
 20
21.7673641524789083
 30
0.0
 11
160.6957447790661888
 21
21.9451142548106013
 31
0.0
  0
ARC
  5
21EC
  8
0
 10
160.6991630502521105
 20
21.9645002341314104
 30
0.0
 40
0.0196850392970676
 50
169.9999974907966873
 51
260.0000000453075018
  0
ARC
  5
21ED
  8
0
 10
165.0219778175128056
 20
22.3721044058753513
 30
0.0
 40
4.2206829978748717
 50
0.1096432473708761
 51
89.8903567526288327
  0
ARC
  5
21EE
  8
0
 10
165.0504899585750138
 20
22.3558274125099494
 30
0.0
 40
4.2370015437469277
 50
90.2763418345546569
 51
169.7236581685494912
  0
LINE
  5
21EF
  8
0
 10
167.5452100790598138
 20
14.1947883668788997
 30
0.0
 11
169.8771039695729996
 21
14.1947883668788997
 31
0.0
  0
ARC
  5
21F1
  8
0
 10
168.1993460006810039
 20
14.3683702266935391
 30
0.0
 40
0.0196850393146377
 50
179.9999997515562882
 51
270.0000001029192731
  0
LINE
  5
21F2
  8
0
 10
168.199346000716389
 20
14.3486851873788996
 30
0.0
 11
169.2229680479163108
 21
14.3486851892176297
 31
0.0
  0
ARC
  5
21F3
  8
0
 10
169.222968047881011
 20
14.3683702286031902
 30
0.0
 40
0.019685039385557
 50
270.0000001029209216
 51
359.9999946901862131
  0
ARC
  5
21F4
  8
0
 10
168.2192672868557963
 20
14.1505437845439701
 30
0.0
 40
0.1981611327108851
 50
90.8085242914318655
 51
103.2838296520097003
  0
ARC
  5
21F5
  8
0
 10
169.203135028323203
 20
14.1510825241514695
 30
0.0
 40
0.1976165298590555
 50
76.70519228695116
 51
89.321245911374163
  0
ENDSEC
  0
EOF
