  0
SECTION
  2
HEADER
  9
$ACADVER
  1
AC1009
  9
$INSBASE
 10
4752.0467867793349797
 20
519.8340518955401421
 30
0.0
  9
$EXTMIN
 10
4744.8158957480181925
 20
519.8017796909805384
 30
-0.0000000000112498
  9
$EXTMAX
 10
4754.5821606506688113
 20
529.289717957512039
 30
0.0000000000002956
  9
$LIMMIN
 10
0.0
 20
0.0
  9
$LIMMAX
 10
11.6929133858000007
 20
8.2677165353999982
  9
$ORTHOMODE
 70
     0
  9
$REGENMODE
 70
     1
  9
$FILLMODE
 70
     1
  9
$QTEXTMODE
 70
     0
  9
$MIRRTEXT
 70
     0
  9
$DRAGMODE
 70
     2
  9
$LTSCALE
 40
0.6431102362
  9
$OSMODE
 70
     7
  9
$ATTMODE
 70
     1
  9
$TEXTSIZE
 40
0.2
  9
$TRACEWID
 40
0.05
  9
$TEXTSTYLE
  7
STANDARD
  9
$CLAYER
  8
0
  9
$CELTYPE
  6
BYLAYER
  9
$CECOLOR
 62
   256
  9
$DIMSCALE
 40
1.0
  9
$DIMASZ
 40
0.1875
  9
$DIMEXO
 40
0.0625
  9
$DIMDLI
 40
0.4443307087
  9
$DIMRND
 40
0.0
  9
$DIMDLE
 40
0.0
  9
$DIMEXE
 40
0.125
  9
$DIMTP
 40
0.01
  9
$DIMTM
 40
0.01
  9
$DIMTXT
 40
2.0
  9
$DIMCEN
 40
0.1052362205
  9
$DIMTSZ
 40
0.0
  9
$DIMTOL
 70
     1
  9
$DIMLIM
 70
     0
  9
$DIMTIH
 70
     1
  9
$DIMTOH
 70
     1
  9
$DIMSE1
 70
     0
  9
$DIMSE2
 70
     0
  9
$DIMTAD
 70
     0
  9
$DIMZIN
 70
     0
  9
$DIMBLK
  1

  9
$DIMASO
 70
     1
  9
$DIMSHO
 70
     1
  9
$DIMPOST
  1
\X
  9
$DIMAPOST
  1

  9
$DIMALT
 70
     1
  9
$DIMALTD
 70
     2
  9
$DIMALTF
 40
25.3999999999999986
  9
$DIMLFAC
 40
1.0
  9
$DIMTOFL
 70
     0
  9
$DIMTVP
 40
0.0
  9
$DIMTIX
 70
     0
  9
$DIMSOXD
 70
     0
  9
$DIMSAH
 70
     0
  9
$DIMBLK1
  1

  9
$DIMBLK2
  1

  9
$DIMSTYLE
  2
STANDARD
  9
$DIMCLRD
 70
     0
  9
$DIMCLRE
 70
     0
  9
$DIMCLRT
 70
     0
  9
$DIMTFAC
 40
1.0
  9
$DIMGAP
 40
0.09
  9
$LUNITS
 70
     2
  9
$LUPREC
 70
     4
  9
$SKETCHINC
 40
0.1
  9
$FILLETRAD
 40
0.0
  9
$AUNITS
 70
     0
  9
$AUPREC
 70
     0
  9
$MENU
  1
.
  9
$ELEVATION
 40
0.0
  9
$PELEVATION
 40
0.0
  9
$THICKNESS
 40
0.0
  9
$LIMCHECK
 70
     0
  9
$BLIPMODE
 70
     0
  9
$CHAMFERA
 40
0.0
  9
$CHAMFERB
 40
0.0
  9
$SKPOLY
 70
     0
  9
$TDCREATE
 40
2458060.468368056230247
  9
$TDUPDATE
 40
2459393.796180556062609
  9
$TDINDWG
 40
1.5293950694
  9
$TDUSRTIMER
 40
1.5293950694
  9
$USRTIMER
 70
     1
  9
$ANGBASE
 50
0.0
  9
$ANGDIR
 70
     0
  9
$PDMODE
 70
     0
  9
$PDSIZE
 40
0.3125
  9
$PLINEWID
 40
0.0
  9
$COORDS
 70
     1
  9
$SPLFRAME
 70
     0
  9
$SPLINETYPE
 70
     6
  9
$SPLINESEGS
 70
     8
  9
$ATTDIA
 70
     1
  9
$ATTREQ
 70
     1
  9
$HANDLING
 70
     1
  9
$HANDSEED
  5
1D9D1
  9
$SURFTAB1
 70
     6
  9
$SURFTAB2
 70
     6
  9
$SURFTYPE
 70
     6
  9
$SURFU
 70
     6
  9
$SURFV
 70
     6
  9
$UCSNAME
  2

  9
$UCSORG
 10
0.0
 20
0.0
 30
0.0
  9
$UCSXDIR
 10
1.0
 20
0.0
 30
0.0
  9
$UCSYDIR
 10
0.0
 20
1.0
 30
0.0
  9
$PUCSNAME
  2

  9
$PUCSORG
 10
0.0
 20
0.0
 30
0.0
  9
$PUCSXDIR
 10
1.0
 20
0.0
 30
0.0
  9
$PUCSYDIR
 10
0.0
 20
1.0
 30
0.0
  9
$USERI1
 70
     0
  9
$USERI2
 70
     0
  9
$USERI3
 70
     0
  9
$USERI4
 70
     0
  9
$USERI5
 70
     0
  9
$USERR1
 40
0.0
  9
$USERR2
 40
0.0
  9
$USERR3
 40
0.0
  9
$USERR4
 40
0.0
  9
$USERR5
 40
0.0
  9
$WORLDVIEW
 70
     1
  9
$SHADEDGE
 70
     3
  9
$SHADEDIF
 70
    70
  9
$TILEMODE
 70
     1
  9
$MAXACTVP
 70
    64
  9
$PLIMCHECK
 70
     0
  9
$PEXTMIN
 10
1.0000000000000000E+20
 20
1.0000000000000000E+20
 30
1.0000000000000000E+20
  9
$PEXTMAX
 10
-1.0000000000000000E+20
 20
-1.0000000000000000E+20
 30
-1.0000000000000000E+20
  9
$PLIMMIN
 10
0.0
 20
0.0
  9
$PLIMMAX
 10
12.0
 20
9.0
  9
$UNITMODE
 70
     0
  9
$VISRETAIN
 70
     1
  9
$PLINEGEN
 70
     0
  9
$PSLTSCALE
 70
     1
  0
ENDSEC
  0
SECTION
  2
TABLES
  0
TABLE
  2
VPORT
 70
     1
  0
VPORT
  2
*ACTIVE
 70
     0
 10
0.0
 20
0.0
 11
1.0
 21
1.0
 12
838.3336717540314567
 22
391.9661437217072262
 13
0.0
 23
0.0
 14
1.0
 24
1.0
 15
0.0
 25
0.0
 16
0.0
 26
0.0
 36
60.4960186965801583
 17
3911.3653564453120453
 27
132.5796051025390057
 37
0.0
 40
9.5608289574395258
 41
2.3461538461538458
 42
50.0
 43
0.0
 44
0.0
 50
0.0
 51
0.0
 71
     0
 72
   100
 73
     1
 74
     1
 75
     0
 76
     0
 77
     0
 78
     0
  0
ENDTAB
  0
TABLE
  2
LTYPE
 70
     2
  0
LTYPE
  2
CONTINUOUS
 70
     0
  3
Solid line
 72
    65
 73
     0
 40
0.0
  0
LTYPE
  2
PHANTOM2
 70
     0
  3
___ _ _ ___ _ _ ___ _ _ ___ _ _
 72
    65
 73
     6
 40
1.25
 49
0.625
 49
-0.125
 49
0.125
 49
-0.125
 49
0.125
 49
-0.125
  0
ENDTAB
  0
TABLE
  2
LAYER
 70
     2
  0
LAYER
  2
0
 70
     0
 62
   255
  6
CONTINUOUS
  0
LAYER
  2
DEFPOINTS
 70
     0
 62
     7
  6
CONTINUOUS
  0
ENDTAB
  0
TABLE
  2
STYLE
 70
     1
  0
STYLE
  2
STANDARD
 70
     0
 40
0.0
 41
0.8
 50
0.0
 71
     0
 42
0.2
  3
txt
  4

  0
ENDTAB
  0
TABLE
  2
VIEW
 70
     0
  0
ENDTAB
  0
TABLE
  2
UCS
 70
     0
  0
ENDTAB
  0
TABLE
  2
APPID
 70
    11
  0
APPID
  2
ACAD
 70
     0
  0
APPID
  2
ACAD_MLEADERVER
 70
     0
  0
APPID
  2
ACAD_EXEMPT_FROM_CAD_STANDARDS
 70
     0
  0
APPID
  2
ACAD_NAV_VCDISPLAY
 70
     0
  0
APPID
  2
ACAECLAYERSTANDARD
 70
     0
  0
APPID
  2
ACCMTRANSPARENCY
 70
     0
  0
APPID
  2
ACAD_DSTYLE_DIMJAG
 70
     0
  0
APPID
  2
ACAD_DSTYLE_DIMTALN
 70
     0
  0
APPID
  2
ACDBATTR
 70
     0
  0
APPID
  2
ACADANNOTATIVE
 70
     0
  0
APPID
  2
DCO15
 70
     0
  0
ENDTAB
  0
TABLE
  2
DIMSTYLE
 70
     1
  0
DIMSTYLE
  2
STANDARD
 70
     0
  3

  4

  5

  6

  7

 40
1.0
 41
0.1875
 42
0.0625
 43
0.38
 44
0.125
 45
0.0
 46
0.0
 47
0.01
 48
0.01
140
0.15625
141
0.09
142
0.0
143
25.3999999999999986
144
1.0
145
0.0
146
1.0
147
0.09
 71
     1
 72
     0
 73
     1
 74
     1
 75
     0
 76
     0
 77
     0
 78
     4
170
     0
171
     2
172
     0
173
     0
174
     0
175
     0
176
     0
177
     0
178
     0
  0
ENDTAB
  0
ENDSEC
  0
SECTION
  2
BLOCKS
  0
BLOCK
  8
0
  2
$MODEL_SPACE
 70
     0
 10
0.0
 20
0.0
 30
0.0
  3
$MODEL_SPACE
  1

  0
ENDBLK
  5
21
  8
0
  0
BLOCK
 67
     1
  8
0
  2
$PAPER_SPACE
 70
     0
 10
0.0
 20
0.0
 30
0.0
  3
$PAPER_SPACE
  1

  0
ENDBLK
  5
1D
 67
     1
  8
0
  0
ENDSEC
  0
SECTION
  2
ENTITIES
  0
ATTDEF
  5
159BF
  8
DEFPOINTS
 10
4752.0467861097122295
 20
519.8373871332123599
 30
0.0
 40
0.001
  1
K-77989T-8AMU
  3

  2
MODELNUMBER
 70
     0
1001
ACDBATTR
1070
     0
1070
     1
  0
ATTDEF
  5
159C0
  8
DEFPOINTS
 10
4752.0467861097122295
 20
519.8357202928333436
 30
0.0
 40
0.001
  1
COMPONENTS
  3

  2
TRADENAME
 70
     0
1001
ACDBATTR
1070
     0
1070
     1
  0
ATTDEF
  5
159C1
  8
DEFPOINTS
 10
4752.0467861097122295
 20
519.8340537998791433
 30
0.0
 40
0.001
  1
HANDSHOWER
  3

  2
PRODUCT
 70
     0
1001
ACDBATTR
1070
     0
1070
     1
  0
LINE
  5
1D63F
  8
0
 10
4744.979857645364973
 20
519.8340518955401421
 30
0.0
 11
4747.302692291306812
 21
519.8340518955401421
 31
0.0
  0
LINE
  5
1D640
  8
0
 10
4750.8755269368357403
 20
519.8340518955401421
 30
0.0
 11
4753.218046621836038
 21
519.8340518955401421
 31
0.0
  0
LINE
  5
1D641
  8
0
 10
4752.5822198501018647
 20
520.1471458075401415
 30
0.0
 11
4751.5113537085699136
 21
520.1471458075401415
 31
0.0
  0
LINE
  5
1D642
  8
0
 10
4750.8656844171364355
 20
519.9760491195545455
 30
0.0
 11
4750.8656844171364355
 21
519.8438944152401291
 31
0.0
  0
LINE
  5
1D643
  8
0
 10
4753.2278891415371618
 20
519.9760491195545455
 30
0.0
 11
4753.2278891415371618
 21
519.8438944152401291
 31
0.0
  0
LINE
  5
1D644
  8
0
 10
4751.5039332352371275
 20
520.1462591967400613
 30
0.0
 11
4750.8807316607362736
 21
519.9951800271401225
 31
0.0
  0
ARC
  5
1D645
  8
0
 10
4750.8853694564941179
 20
519.9760491195545455
 30
0.0
 40
0.0196850393586176
 50
103.6269948040657027
 51
180.0000000416914077
  0
ARC
  5
1D646
  8
0
 10
4750.8755269368357403
 20
519.8438944152401291
 30
0.0
 40
0.0098425197000003
 50
180.0000000000032117
 51
270.0
  0
ARC
  5
1D647
  8
0
 10
4751.5113537085699136
 20
520.1156497422966822
 30
0.0
 40
0.0314960652434153
 50
90.0
 51
103.6269940273323016
  0
ARC
  5
1D648
  8
0
 10
4751.5270329885361207
 20
520.1591625857211056
 30
0.0
 40
0.0120183058371381
 50
181.7084481254696868
 51
269.0864477200566967
  0
ARC
  5
1D649
  8
0
 10
3255.2054191513539081
 20
487.7274789570429903
 30
0.0
 40
1496.6610212499779209
 50
1.2416462293753301
 51
1.369029699307492
  0
ARC
  5
1D64A
  8
0
 10
4750.2017995614851316
 20
523.453797595168794
 30
0.0
 40
1.237822866244781
 50
1.463332050103181
 51
48.5158925169258168
  0
ARC
  5
1D64B
  8
0
 10
4732.0693388336030694
 20
505.0012607363503889
 30
0.0
 40
27.1066779730684715
 50
45.6388580540540829
 51
47.4698883534212328
  0
ARC
  5
1D64C
  8
0
 10
4751.9380825503458254
 20
526.7757528620328458
 30
0.0
 40
2.3715154978091442
 50
193.8239456821441991
 51
229.3390125229811076
  0
ARC
  5
1D64D
  8
0
 10
4752.0467867793349797
 20
526.7391798991817495
 30
0.0
 40
2.5493503703107541
 50
66.2085110988840171
 51
113.7914889011159971
  0
ARC
  5
1D64E
  8
0
 10
4752.0180151512749944
 20
526.8086633248436783
 30
0.0
 40
2.4741655157248288
 50
113.8309416534854961
 51
132.0322427134512111
  0
ARC
  5
1D64F
  8
0
 10
4751.9381396959406629
 20
526.8877416565291014
 30
0.0
 40
2.36195676409179
 50
131.8774258418409033
 51
167.1584494025649121
  0
LINE
  5
1D650
  8
0
 10
4747.3223773305362556
 20
521.017122761740211
 30
0.0
 11
4747.3223773305362556
 21
520.5053117379693504
 31
0.0
  0
LINE
  5
1D651
  8
0
 10
4747.3223773305362556
 20
520.365547958710863
 30
0.0
 11
4747.3223773305362556
 21
519.8537369347693584
 31
0.0
  0
LINE
  5
1D652
  8
0
 10
4744.9601726061373483
 20
521.017122761740211
 30
0.0
 11
4744.9601726061373483
 21
520.5053117377985927
 31
0.0
  0
LINE
  5
1D653
  8
0
 10
4744.9601726061373483
 20
520.365547958710863
 30
0.0
 11
4744.9601726061373483
 21
519.8537369347693584
 31
0.0
  0
LINE
  5
1D654
  8
0
 10
4744.9798511396265894
 20
521.0368078010401405
 30
0.0
 11
4747.3026987967050445
 21
521.0368078010401405
 31
0.0
  0
LINE
  5
1D655
  8
0
 10
4747.302692291306812
 20
520.4856266987401341
 30
0.0
 11
4744.979857645193988
 21
520.4856266987401341
 31
0.0
  0
LINE
  5
1D656
  8
0
 10
4744.979857645364973
 20
520.3852329979401929
 30
0.0
 11
4747.302692291306812
 21
520.3852329979401929
 31
0.0
  0
ARC
  5
1D657
  8
0
 10
4744.979857645364973
 20
520.365547958710863
 30
0.0
 40
0.0196850392292891
 50
89.9999997941646797
 51
180.0000004968740939
  0
LINE
  5
1D658
  8
0
 10
4744.9798576454359136
 20
520.3852329979401929
 30
0.0
 11
4744.9798982438360326
 21
520.3875588782401564
 31
0.0
  0
ARC
  5
1D659
  8
0
 10
4744.9995801130344262
 20
520.3872153694734379
 30
0.0
 40
0.0196848666082439
 50
127.3949170968506053
 51
179.0001150637741034
  0
ARC
  5
1D65A
  8
0
 10
4746.1413598218359766
 20
518.8935628474403075
 30
0.0
 40
1.899753684499893
 50
123.066592989739604
 51
127.3950626641106965
  0
ARC
  5
1D65B
  8
0
 10
4744.979857645193988
 20
520.5053117377985927
 30
0.0
 40
0.0196850390585779
 50
179.9999992973133942
 51
270.0000007027060747
  0
ARC
  5
1D65C
  8
0
 10
4744.9798576470311673
 20
521.0171227612208895
 30
0.0
 40
0.0196850408947376
 50
90.0189406168389326
 51
179.99999848897329
  0
ARC
  5
1D65D
  8
0
 10
4747.3026922894696327
 20
521.0171227610502456
 30
0.0
 40
0.0196850410653529
 50
0.0000020077835122
 51
89.9810598775306403
  0
ARC
  5
1D65E
  8
0
 10
4747.302692291306812
 20
520.5053117379693504
 30
0.0
 40
0.01968503922929
 50
269.9999995031291746
 51
0.000000205812523
  0
ARC
  5
1D65F
  8
0
 10
4744.979857645364973
 20
519.8537369347693584
 30
0.0
 40
0.0196850392292896
 50
179.9999995031259061
 51
270.0000002058353061
  0
LINE
  5
1D660
  8
0
 10
4747.3223773305362556
 20
520.365547958710863
 30
0.0
 11
4747.3223773305362556
 21
519.8537369347693584
 31
0.0
  0
ARC
  5
1D661
  8
0
 10
4747.302692291306812
 20
520.365547958710863
 30
0.0
 40
0.0196850392292891
 50
359.9999995031259914
 51
90.0000002058353346
  0
LINE
  5
1D662
  8
0
 10
4747.3026922912358714
 20
520.3852329979401929
 30
0.0
 11
4747.3026516928357523
 21
520.3875588782401564
 31
0.0
  0
ARC
  5
1D663
  8
0
 10
4747.2829698236382683
 20
520.3872153694734379
 30
0.0
 40
0.0196848666082439
 50
0.9998849362258491
 51
52.6050829031493379
  0
ARC
  5
1D664
  8
0
 10
4746.1411901148358083
 20
518.8935628474403075
 30
0.0
 40
1.899753684499893
 50
52.6049373358893178
 51
56.9334070102604173
  0
ARC
  5
1D665
  8
0
 10
4747.302692291306812
 20
519.8537369347693584
 30
0.0
 40
0.0196850392292896
 50
269.9999997941646939
 51
0.0000004968740892
  0
LINE
  5
1D666
  8
0
 10
4747.3026516928357523
 20
520.3875588782401564
 30
0.0
 11
4744.9798982438360326
 21
520.3875588782401564
 31
0.0
  0
ARC
  5
1D667
  8
0
 10
4752.0467867793349797
 20
526.6057287269115932
 30
0.0
 40
2.5572515941285161
 50
66.8430803661157711
 51
113.1569196338842005
  0
ARC
  5
1D668
  8
0
 10
4752.0230141105766961
 20
526.6635453597383503
 30
0.0
 40
2.4947447094053028
 50
113.177109479957295
 51
128.307178083029612
  0
ARC
  5
1D669
  8
0
 10
4751.9789985073293792
 20
526.7192644269501898
 30
0.0
 40
2.4237377535466682
 50
128.307178083029612
 51
155.4335657978697043
  0
ARC
  5
1D66A
  8
0
 10
4751.8841638611411327
 20
526.7687535060124446
 30
0.0
 40
2.3169192917732171
 50
155.5716048233138906
 51
171.1811758740273035
  0
ARC
  5
1D66B
  8
0
 10
4752.2576921499348828
 20
526.7113577135593232
 30
0.0
 40
2.6948311873448998
 50
171.1928387272421901
 51
176.8482941673557889
  0
ARC
  5
1D66C
  8
0
 10
4752.0467867793349797
 20
526.5965005158733447
 30
0.0
 40
2.4442947271657842
 50
77.0600081597236795
 51
102.9399918402763063
  0
ARC
  5
1D66D
  8
0
 10
4752.0416554693920261
 20
526.6197053486373534
 30
0.0
 40
2.4205301295110409
 50
102.9446139646115057
 51
116.9273951823817015
  0
ARC
  5
1D66E
  8
0
 10
4752.0157434579668916
 20
526.6707202444647464
 30
0.0
 40
2.3633116715421671
 50
116.9273951823817015
 51
138.4060288764331972
  0
ARC
  5
1D66F
  8
0
 10
4751.9590802638658715
 20
526.72493842670292
 30
0.0
 40
2.284944360473705
 50
138.4795578370246858
 51
152.8401863653010082
  0
ARC
  5
1D670
  8
0
 10
4751.9128589347646994
 20
526.7486519964395484
 30
0.0
 40
2.232994917227169
 50
152.8401863653010082
 51
167.4294525837838137
  0
ARC
  5
1D671
  8
0
 10
4751.8905169095496603
 20
526.7531535095040454
 30
0.0
 40
2.2102087913519091
 50
167.4172959644733112
 51
190.1087972120413099
  0
ARC
  5
1D672
  8
0
 10
4751.9241655617106517
 20
526.7592276025908404
 30
0.0
 40
2.2444012031853791
 50
190.1106827353738993
 51
211.4999106937520992
  0
ARC
  5
1D673
  8
0
 10
4752.0178025916929982
 20
526.8172850424630269
 30
0.0
 40
2.3545748946373619
 50
211.5139528363903025
 51
226.8352777094575004
  0
ARC
  5
1D674
  8
0
 10
4733.0047342021161967
 20
506.0803944816536841
 30
0.0
 40
25.7794728700642004
 50
45.4311816130386035
 51
47.5423436914766384
  0
ARC
  5
1D675
  8
0
 10
4750.1744919760167249
 20
523.4153513421947537
 30
0.0
 40
1.3823818995437069
 50
17.9770835774032385
 51
48.2009365153533977
  0
ARC
  5
1D676
  8
0
 10
4752.0978774125778727
 20
524.0369543277960247
 30
0.0
 40
0.638957747607246
 50
197.7644963659406017
 51
243.4741403903171033
  0
ARC
  5
1D677
  8
0
 10
4752.0306897934806329
 20
524.0229196668492477
 30
0.0
 40
0.2591141667796588
 50
126.7486534587218046
 51
233.2513465412781954
  0
ARC
  5
1D678
  8
0
 10
4752.0467867793349797
 20
523.9909545095912335
 30
0.0
 40
0.2944235958952758
 50
54.4632195418350591
 51
125.5367804581648983
  0
ARC
  5
1D679
  8
0
 10
4752.0628837651902359
 20
524.0229196668492477
 30
0.0
 40
0.2591141667796588
 50
306.7486534587217761
 51
53.2513465412781812
  0
ARC
  5
1D67A
  8
0
 10
4752.0467867793349797
 20
524.0286370975991304
 30
0.0
 40
0.273490535628771
 50
231.2654870518130963
 51
308.7345129481868184
  0
ARC
  5
1D67B
  8
0
 10
4751.6142338735917292
 20
524.5914171637776917
 30
0.0
 40
0.2614874277169646
 50
92.0410136997386843
 51
163.2848617741016994
  0
ARC
  5
1D67C
  8
0
 10
4751.6262592411976584
 20
524.5681695067955843
 30
0.0
 40
0.2853680877351061
 50
13.6649567453995395
 51
94.288256417177962
  0
ARC
  5
1D67D
  8
0
 10
4751.6597297537846316
 20
524.5877734477143122
 30
0.0
 40
0.2484636287079375
 50
319.1291656342881993
 51
11.0947872936177703
  0
ARC
  5
1D67E
  8
0
 10
4751.6416907386246749
 20
524.612263426284926
 30
0.0
 40
0.2782107061337284
 50
242.6703545566817866
 51
317.7461065829381823
  0
ARC
  5
1D67F
  8
0
 10
4751.6384945035943019
 20
524.6227201927617898
 30
0.0
 40
0.2861348871646518
 50
199.3997917905271038
 51
244.2004273602209992
  0
ARC
  5
1D680
  8
0
 10
4751.5954903309902875
 20
524.6050889805293309
 30
0.0
 40
0.2397274618040885
 50
165.1262820334156061
 51
198.8390767915767015
  0
ARC
  5
1D681
  8
0
 10
4752.0467867793349797
 20
526.6017555772409651
 30
0.0
 40
2.4553576639883818
 50
75.4830840590028203
 51
104.516915940997194
  0
ARC
  5
1D682
  8
0
 10
4751.8410210289948736
 20
526.8880905251363629
 30
0.0
 40
2.165059009626273
 50
176.9995108913936974
 51
183.6314465841979029
  0
ARC
  5
1D683
  8
0
 10
4751.893550684298134
 20
526.7548644480882558
 30
0.0
 40
2.228302846177554
 50
159.5762535940035889
 51
200.4237464059964111
  0
ARC
  5
1D684
  8
0
 10
4751.9145646784272685
 20
526.7515732108846578
 30
0.0
 40
2.2491483715695288
 50
149.7191075362771926
 51
159.6844871823329868
  0
ARC
  5
1D685
  8
0
 10
4751.9889759034331291
 20
526.7028500738102821
 30
0.0
 40
2.3379797828994722
 50
126.6175378609637932
 51
149.6074938237588015
  0
ARC
  5
1D686
  8
0
 10
4752.0362887663422953
 20
526.6342918240253539
 30
0.0
 40
2.4212295187549731
 50
104.469419496788305
 51
126.5484859945084963
  0
ARC
  5
1D687
  8
0
 10
4751.9721254035066522
 20
526.7868671973272967
 30
0.0
 40
2.3131072815760612
 50
200.487442675508305
 51
227.0656656939954985
  0
ARC
  5
1D688
  8
0
 10
4733.1254105563821213
 20
506.1890206656115083
 30
0.0
 40
25.6059687808850711
 50
45.452462026358738
 51
47.5849887412715233
  0
ARC
  5
1D689
  8
0
 10
4750.1826346128400473
 20
523.4255797209852972
 30
0.0
 40
1.3578986487358879
 50
17.8647411524416704
 51
48.1830143252713299
  0
ARC
  5
1D68A
  8
0
 10
4752.1090726525999344
 20
524.0446134624869501
 30
0.0
 40
0.6655570156512045
 50
197.7107109261359881
 51
240.2359982945719992
  0
ARC
  5
1D68B
  8
0
 10
4751.7510873029914364
 20
526.8280781849146024
 30
0.0
 40
0.484533450678566
 50
95.4414027163813614
 51
173.2424053466725127
  0
ARC
  5
1D68C
  8
0
 10
4753.1653698047912258
 20
526.6770163956573469
 30
0.0
 40
1.9068366086901221
 50
173.7353387590254101
 51
186.2337324720184881
  0
ARC
  5
1D68D
  8
0
 10
4751.7602268478567566
 20
526.5306548698240476
 30
0.0
 40
0.4941600900686363
 50
187.0547513454739033
 51
263.5901402481167111
  0
ARC
  5
1D68E
  8
0
 10
4751.8256397085733624
 20
528.6232234345128518
 30
0.0
 40
0.062590689727904
 50
47.8456712316837525
 51
132.1543287683161907
  0
ARC
  5
1D68F
  8
0
 10
4751.8280299661910249
 20
528.6207167904254902
 30
0.0
 40
0.0660531989553283
 50
132.2321443838982873
 51
180.3058504084735887
  0
LINE
  5
1D690
  8
0
 10
4751.761977708336417
 20
528.6203641934401958
 30
0.0
 11
4751.761977708336417
 21
528.6080285317400467
 31
0.0
  0
ARC
  5
1D691
  8
0
 10
4751.825954389508297
 20
528.6085819203649407
 30
0.0
 40
0.0639790744909813
 50
180.4955874752874081
 51
0.3862217598274232
  0
ARC
  5
1D692
  8
0
 10
4751.8201760474630646
 20
528.6185043029996677
 30
0.0
 40
0.0697615879069649
 50
0.8215369200142877
 51
47.1202071186185307
  0
LINE
  5
1D693
  8
0
 10
4751.8899304642363859
 20
528.6195045466402007
 30
0.0
 11
4751.8899320104337676
 21
528.6090131898897653
 31
0.0
  0
CIRCLE
  5
1D694
  8
0
 10
4751.825987386036104
 20
528.6044546133401809
 30
0.0
 40
0.0240200923371025
  0
ARC
  5
1D695
  8
0
 10
4751.8282784270259071
 20
528.6513162615306101
 30
0.0
 40
0.0484335179907115
 50
238.0754003758424062
 51
296.3267365366008903
  0
ARC
  5
1D696
  8
0
 10
4751.3946286875170699
 20
528.5281491798989464
 30
0.0
 40
0.062590689727904
 50
47.8456712316837525
 51
132.1543287683161907
  0
ARC
  5
1D697
  8
0
 10
4751.3970189451347323
 20
528.5256425358115848
 30
0.0
 40
0.0660531989553283
 50
132.2321443838982873
 51
180.3058504084735887
  0
LINE
  5
1D698
  8
0
 10
4751.330966687279215
 20
528.5252899388264041
 30
0.0
 11
4751.330966687279215
 21
528.512954277126255
 31
0.0
  0
ARC
  5
1D699
  8
0
 10
4751.394943368451095
 20
528.513507665751149
 30
0.0
 40
0.0639790744909813
 50
180.4955874752874081
 51
0.3862217598274232
  0
ARC
  5
1D69A
  8
0
 10
4751.3891650264049531
 20
528.5234300483859897
 30
0.0
 40
0.0697615879069649
 50
0.8215369200142877
 51
47.1202071186185307
  0
LINE
  5
1D69B
  8
0
 10
4751.4589194431791839
 20
528.524430292026409
 30
0.0
 11
4751.4589209893756561
 21
528.5139389352759736
 31
0.0
  0
CIRCLE
  5
1D69C
  8
0
 10
4751.3949763649798115
 20
528.5093803587263892
 30
0.0
 40
0.0240200923371025
  0
ARC
  5
1D69D
  8
0
 10
4750.996958148696649
 20
528.3422567632961773
 30
0.0
 40
0.062590689727904
 50
47.8456712316837525
 51
132.1543287683161907
  0
ARC
  5
1D69E
  8
0
 10
4750.9993484063152209
 20
528.3397501192089294
 30
0.0
 40
0.0660531989553283
 50
132.2321443838982873
 51
180.3058504084735887
  0
LINE
  5
1D69F
  8
0
 10
4750.9332961484587941
 20
528.339397522223635
 30
0.0
 11
4750.9332961484587941
 21
528.3270618605235995
 31
0.0
  0
ARC
  5
1D6A0
  8
0
 10
4750.9972728296306741
 20
528.3276152491484936
 30
0.0
 40
0.0639790744909813
 50
180.4955874752874081
 51
0.3862217598274232
  0
ARC
  5
1D6A1
  8
0
 10
4750.9914944875863512
 20
528.3375376317833343
 30
0.0
 40
0.0697615879069649
 50
0.8215369200142877
 51
47.1202071186185307
  0
LINE
  5
1D6A2
  8
0
 10
4751.061248904358763
 20
528.3385378754236399
 30
0.0
 11
4751.0612504505570541
 21
528.3280465186733181
 31
0.0
  0
CIRCLE
  5
1D6A3
  8
0
 10
4750.9973058261593906
 20
528.3234879421236201
 30
0.0
 40
0.0240200923371025
  0
ARC
  5
1D6A4
  8
0
 10
4751.2756226268938917
 20
527.9987401688921409
 30
0.0
 40
0.062590689727904
 50
47.8456712316837525
 51
132.1543287683161907
  0
ARC
  5
1D6A5
  8
0
 10
4751.2780128845106447
 20
527.996233524804552
 30
0.0
 40
0.0660531989553283
 50
132.2321443838982873
 51
180.3058504084735887
  0
LINE
  5
1D6A6
  8
0
 10
4751.2119606266560368
 20
527.9958809278194849
 30
0.0
 11
4751.2119606266560368
 21
527.9835452661194495
 31
0.0
  0
ARC
  5
1D6A7
  8
0
 10
4751.2759373078279168
 20
527.9840986547442299
 30
0.0
 40
0.0639790744909813
 50
180.4955874752874081
 51
0.3862217598274232
  0
ARC
  5
1D6A8
  8
0
 10
4751.2701589657826844
 20
527.9940210373790705
 30
0.0
 40
0.0697615879069649
 50
0.8215369200142877
 51
47.1202071186185307
  0
LINE
  5
1D6A9
  8
0
 10
4751.3399133825560057
 20
527.9950212810193761
 30
0.0
 11
4751.3399149287542969
 21
527.9845299242690544
 31
0.0
  0
CIRCLE
  5
1D6AA
  8
0
 10
4751.2759703043557238
 20
527.97997134771947
 30
0.0
 40
0.0240200923371025
  0
ARC
  5
1D6AB
  8
0
 10
4750.6512074458960342
 20
528.0746438620910794
 30
0.0
 40
0.062590689727904
 50
47.8456712316837525
 51
132.1543287683161907
  0
ARC
  5
1D6AC
  8
0
 10
4750.6535977035136966
 20
528.0721372180038315
 30
0.0
 40
0.0660531989553283
 50
132.2321443838982873
 51
180.3058504084735887
  0
LINE
  5
1D6AD
  8
0
 10
4750.5875454456590887
 20
528.0717846210185371
 30
0.0
 11
4750.5875454456590887
 21
528.0594489593185017
 31
0.0
  0
ARC
  5
1D6AE
  8
0
 10
4750.6515221268300593
 20
528.0600023479432821
 30
0.0
 40
0.0639790744909813
 50
180.4955874752874081
 51
0.3862217598274232
  0
ARC
  5
1D6AF
  8
0
 10
4750.6457437847857364
 20
528.0699247305781228
 30
0.0
 40
0.0697615879069649
 50
0.8215369200142877
 51
47.1202071186185307
  0
LINE
  5
1D6B0
  8
0
 10
4750.7154982015590576
 20
528.070924974218542
 30
0.0
 11
4750.7154997477564393
 21
528.0604336174682203
 31
0.0
  0
CIRCLE
  5
1D6B1
  8
0
 10
4750.6515551233587757
 20
528.0558750409185222
 30
0.0
 40
0.0240200923371025
  0
ARC
  5
1D6B2
  8
0
 10
4750.3765595849727106
 20
527.7398323817775463
 30
0.0
 40
0.062590689727904
 50
47.8456712316837525
 51
132.1543287683161907
  0
ARC
  5
1D6B3
  8
0
 10
4750.3789498425912825
 20
527.7373257376901847
 30
0.0
 40
0.0660531989553283
 50
132.2321443838982873
 51
180.3058504084735887
  0
LINE
  5
1D6B4
  8
0
 10
4750.3128975847357651
 20
527.7369731407051177
 30
0.0
 11
4750.3128975847357651
 21
527.7246374790050822
 31
0.0
  0
ARC
  5
1D6B5
  8
0
 10
4750.3768742659067357
 20
527.7251908676297489
 30
0.0
 40
0.0639790744909813
 50
180.4955874752874081
 51
0.3862217598274232
  0
ARC
  5
1D6B6
  8
0
 10
4750.3710959238624127
 20
527.7351132502647033
 30
0.0
 40
0.0697615879069649
 50
0.8215369200142877
 51
47.1202071186185307
  0
LINE
  5
1D6B7
  8
0
 10
4750.440850340635734
 20
527.7361134939051226
 30
0.0
 11
4750.4408518868331157
 21
527.7256221371548008
 31
0.0
  0
CIRCLE
  5
1D6B8
  8
0
 10
4750.3769072624354521
 20
527.7210635606051028
 30
0.0
 40
0.0240200923371025
  0
ARC
  5
1D6B9
  8
0
 10
4750.1835853142310953
 20
527.355737312341148
 30
0.0
 40
0.062590689727904
 50
47.8456712316837525
 51
132.1543287683161907
  0
ARC
  5
1D6BA
  8
0
 10
4750.1859755718487577
 20
527.3532306682537865
 30
0.0
 40
0.0660531989553283
 50
132.2321443838982873
 51
180.3058504084735887
  0
LINE
  5
1D6BB
  8
0
 10
4750.1199233139932403
 20
527.3528780712686057
 30
0.0
 11
4750.1199233139932403
 21
527.3405424095685703
 31
0.0
  0
ARC
  5
1D6BC
  8
0
 10
4750.1838999951651203
 20
527.3410957981933507
 30
0.0
 40
0.0639790744909813
 50
180.4955874752874081
 51
0.3862217598274232
  0
ARC
  5
1D6BD
  8
0
 10
4750.1781216531198879
 20
527.3510181808281914
 30
0.0
 40
0.0697615879069649
 50
0.8215369200142877
 51
47.1202071186185307
  0
LINE
  5
1D6BE
  8
0
 10
4750.2478760698932092
 20
527.3520184244686106
 30
0.0
 11
4750.2478776160896814
 21
527.3415270677181752
 31
0.0
  0
CIRCLE
  5
1D6BF
  8
0
 10
4750.1839329916938368
 20
527.3369684911685908
 30
0.0
 40
0.0240200923371025
  0
ARC
  5
1D6C0
  8
0
 10
4750.086076272419632
 20
526.9385726530257443
 30
0.0
 40
0.062590689727904
 50
47.8456712316837525
 51
132.1543287683161907
  0
ARC
  5
1D6C1
  8
0
 10
4750.0884665300382039
 20
526.9360660089383828
 30
0.0
 40
0.0660531989553283
 50
132.2321443838982873
 51
180.3058504084735887
  0
LINE
  5
1D6C2
  8
0
 10
4750.0224142721826865
 20
526.9357134119530883
 30
0.0
 11
4750.0224142721826865
 21
526.9233777502530529
 31
0.0
  0
ARC
  5
1D6C3
  8
0
 10
4750.0863909533545666
 20
526.923931138877947
 30
0.0
 40
0.0639790744909813
 50
180.4955874752874081
 51
0.3862217598274232
  0
ARC
  5
1D6C4
  8
0
 10
4750.0806126113102437
 20
526.933853521512674
 30
0.0
 40
0.0697615879069649
 50
0.8215369200142877
 51
47.1202071186185307
  0
LINE
  5
1D6C5
  8
0
 10
4750.1503670280826555
 20
526.934853765153207
 30
0.0
 11
4750.1503685742800371
 21
526.9243624084028852
 31
0.0
  0
CIRCLE
  5
1D6C6
  8
0
 10
4750.0864239498832831
 20
526.9198038318530735
 30
0.0
 40
0.0240200923371025
  0
ARC
  5
1D6C7
  8
0
 10
4750.0856363076927664
 20
526.510210275811005
 30
0.0
 40
0.062590689727904
 50
47.8456712316837525
 51
132.1543287683161907
  0
ARC
  5
1D6C8
  8
0
 10
4750.0880265653113383
 20
526.5077036317236434
 30
0.0
 40
0.0660531989553283
 50
132.2321443838982873
 51
180.3058504084735887
  0
LINE
  5
1D6C9
  8
0
 10
4750.021974307455821
 20
526.507351034738349
 30
0.0
 11
4750.021974307455821
 21
526.4950153730381999
 31
0.0
  0
ARC
  5
1D6CA
  8
0
 10
4750.0859509886267915
 20
526.4955687616632076
 30
0.0
 40
0.0639790744909813
 50
180.4955874752874081
 51
0.3862217598274232
  0
ARC
  5
1D6CB
  8
0
 10
4750.0801726465815591
 20
526.5054911442980483
 30
0.0
 40
0.0697615879069649
 50
0.8215369200142877
 51
47.1202071186185307
  0
LINE
  5
1D6CC
  8
0
 10
4750.1499270633557899
 20
526.5064913879383539
 30
0.0
 11
4750.1499286095531716
 21
526.4960000311880322
 31
0.0
  0
CIRCLE
  5
1D6CD
  8
0
 10
4750.0859839851564175
 20
526.4914414546383341
 30
0.0
 40
0.0240200923371025
  0
ARC
  5
1D6CE
  8
0
 10
4750.5045773258716508
 20
526.703144507449565
 30
0.0
 40
0.062590689727904
 50
47.8456712316837525
 51
132.1543287683161907
  0
ARC
  5
1D6CF
  8
0
 10
4750.5069675834902228
 20
526.7006378633623171
 30
0.0
 40
0.0660531989553283
 50
132.2321443838982873
 51
180.3058504084735887
  0
LINE
  5
1D6D0
  8
0
 10
4750.4409153256347054
 20
526.7002852663770227
 30
0.0
 11
4750.4409153256347054
 21
526.6879496046769873
 31
0.0
  0
ARC
  5
1D6D1
  8
0
 10
4750.5048920068065854
 20
526.6885029933017677
 30
0.0
 40
0.0639790744909813
 50
180.4955874752874081
 51
0.3862217598274232
  0
ARC
  5
1D6D2
  8
0
 10
4750.4991136647622625
 20
526.698425375936722
 30
0.0
 40
0.0697615879069649
 50
0.8215369200142877
 51
47.1202071186185307
  0
LINE
  5
1D6D3
  8
0
 10
4750.5688680815346743
 20
526.6994256195770276
 30
0.0
 11
4750.5688696277329655
 21
526.6889342628267059
 31
0.0
  0
CIRCLE
  5
1D6D4
  8
0
 10
4750.5049250033353019
 20
526.6843756862770078
 30
0.0
 40
0.0240200923371025
  0
ARC
  5
1D6D5
  8
0
 10
4750.1852157905650529
 20
526.0926052373514494
 30
0.0
 40
0.062590689727904
 50
47.8456712316837525
 51
132.1543287683161907
  0
ARC
  5
1D6D6
  8
0
 10
4750.1876060481808963
 20
526.0900985932638605
 30
0.0
 40
0.0660531989553283
 50
132.2321443838982873
 51
180.3058504084735887
  0
LINE
  5
1D6D7
  8
0
 10
4750.1215537903262884
 20
526.0897459962786797
 30
0.0
 11
4750.1215537903262884
 21
526.0774103345786443
 31
0.0
  0
ARC
  5
1D6D8
  8
0
 10
4750.185530471497259
 20
526.0779637232035384
 30
0.0
 40
0.0639790744909813
 50
180.4955874752874081
 51
0.3862217598274232
  0
ARC
  5
1D6D9
  8
0
 10
4750.1797521294529361
 20
526.0878861058382654
 30
0.0
 40
0.0697615879069649
 50
0.8215369200142877
 51
47.1202071186185307
  0
LINE
  5
1D6DA
  8
0
 10
4750.2495065462262573
 20
526.0888863494787984
 30
0.0
 11
4750.2495080924245485
 21
526.0783949927284766
 31
0.0
  0
CIRCLE
  5
1D6DB
  8
0
 10
4750.1855634680268849
 20
526.0738364161786649
 30
0.0
 40
0.0240200923371025
  0
ARC
  5
1D6DC
  8
0
 10
4750.5974683373378866
 20
526.1903989909598067
 30
0.0
 40
0.062590689727904
 50
47.8456712316837525
 51
132.1543287683161907
  0
ARC
  5
1D6DD
  8
0
 10
4750.5998585949582775
 20
526.1878923468724452
 30
0.0
 40
0.0660531989553283
 50
132.2321443838982873
 51
180.3058504084735887
  0
LINE
  5
1D6DE
  8
0
 10
4750.5338063371009412
 20
526.1875397498871507
 30
0.0
 11
4750.5338063371009412
 21
526.1752040881873427
 31
0.0
  0
ARC
  5
1D6DF
  8
0
 10
4750.5977830182728212
 20
526.1757574768121231
 30
0.0
 40
0.0639790744909813
 50
180.4955874752874081
 51
0.3862217598274232
  0
ARC
  5
1D6E0
  8
0
 10
4750.5920046762275888
 20
526.1856798594468501
 30
0.0
 40
0.0697615879069649
 50
0.8215369200142877
 51
47.1202071186185307
  0
LINE
  5
1D6E1
  8
0
 10
4750.6617590930009101
 20
526.1866801030872693
 30
0.0
 11
4750.6617606391992013
 21
526.1761887463369476
 31
0.0
  0
CIRCLE
  5
1D6E2
  8
0
 10
4750.5978160148024472
 20
526.1716301697872495
 30
0.0
 40
0.0240200923371025
  0
ARC
  5
1D6E3
  8
0
 10
4750.3757712148817518
 20
525.7052875725629519
 30
0.0
 40
0.062590689727904
 50
47.8456712316837525
 51
132.1543287683161907
  0
ARC
  5
1D6E4
  8
0
 10
4750.3781614724994142
 20
525.7027809284757041
 30
0.0
 40
0.0660531989553283
 50
132.2321443838982873
 51
180.3058504084735887
  0
LINE
  5
1D6E5
  8
0
 10
4750.3121092146429874
 20
525.7024283314904096
 30
0.0
 11
4750.3121092146429874
 21
525.6900926697903742
 31
0.0
  0
ARC
  5
1D6E6
  8
0
 10
4750.3760858958148674
 20
525.6906460584151546
 30
0.0
 40
0.0639790744909813
 50
180.4955874752874081
 51
0.3862217598274232
  0
ARC
  5
1D6E7
  8
0
 10
4750.370307553771454
 20
525.7005684410499953
 30
0.0
 40
0.0697615879069649
 50
0.8215369200142877
 51
47.1202071186185307
  0
LINE
  5
1D6E8
  8
0
 10
4750.4400619705438658
 20
525.7015686846904146
 30
0.0
 11
4750.4400635167412474
 21
525.6910773279399791
 31
0.0
  0
CIRCLE
  5
1D6E9
  8
0
 10
4750.3761188923426744
 20
525.6865187513903948
 30
0.0
 40
0.0240200923371025
  0
ARC
  5
1D6EA
  8
0
 10
4750.8660975895472802
 20
525.7376321234110037
 30
0.0
 40
0.062590689727904
 50
47.8456712316837525
 51
132.1543287683161907
  0
ARC
  5
1D6EB
  8
0
 10
4750.8684878471658521
 20
525.7351254793236421
 30
0.0
 40
0.0660531989553283
 50
132.2321443838982873
 51
180.3058504084735887
  0
LINE
  5
1D6EC
  8
0
 10
4750.8024355893103348
 20
525.7347728823383477
 30
0.0
 11
4750.8024355893103348
 21
525.7224372206381986
 31
0.0
  0
ARC
  5
1D6ED
  8
0
 10
4750.8664122704822148
 20
525.722990609262979
 30
0.0
 40
0.0639790744909813
 50
180.4955874752874081
 51
0.3862217598274232
  0
ARC
  5
1D6EE
  8
0
 10
4750.8606339284369824
 20
525.7329129918979334
 30
0.0
 40
0.0697615879069649
 50
0.8215369200142877
 51
47.1202071186185307
  0
LINE
  5
1D6EF
  8
0
 10
4750.9303883452103037
 20
525.7339132355383526
 30
0.0
 11
4750.9303898914067759
 21
525.7234218787880309
 31
0.0
  0
CIRCLE
  5
1D6F0
  8
0
 10
4750.8664452670100218
 20
525.7188633022383328
 30
0.0
 40
0.0240200923371025
  0
ARC
  5
1D6F1
  8
0
 10
4751.1748375990891873
 20
526.0240515106377188
 30
0.0
 40
0.062590689727904
 50
47.8456712316837525
 51
132.1543287683161907
  0
ARC
  5
1D6F2
  8
0
 10
4751.1772278567068497
 20
526.0215448665502436
 30
0.0
 40
0.0660531989553283
 50
132.2321443838982873
 51
180.3058504084735887
  0
LINE
  5
1D6F3
  8
0
 10
4751.1111755988522418
 20
526.0211922695649491
 30
0.0
 11
4751.1111755988522418
 21
526.0088566078650274
 31
0.0
  0
ARC
  5
1D6F4
  8
0
 10
4751.1751522800241219
 20
526.0094099964898078
 30
0.0
 40
0.0639790744909813
 50
180.4955874752874081
 51
0.3862217598274232
  0
ARC
  5
1D6F5
  8
0
 10
4751.1693739379788894
 20
526.0193323791246485
 30
0.0
 40
0.0697615879069649
 50
0.8215369200142877
 51
47.1202071186185307
  0
LINE
  5
1D6F6
  8
0
 10
4751.2391283547522107
 20
526.0203326227649541
 30
0.0
 11
4751.2391299009486829
 21
526.009841266014746
 31
0.0
  0
CIRCLE
  5
1D6F7
  8
0
 10
4751.1751852765519288
 20
526.005282689465048
 30
0.0
 40
0.0240200923371025
  0
ARC
  5
1D6F8
  8
0
 10
4751.0225385551466388
 20
526.2837447749635658
 30
0.0
 40
0.062590689727904
 50
47.8456712316837525
 51
132.1543287683161907
  0
ARC
  5
1D6F9
  8
0
 10
4751.0249288127661202
 20
526.2812381308763179
 30
0.0
 40
0.0660531989553283
 50
132.2321443838982873
 51
180.3058504084735887
  0
LINE
  5
1D6FA
  8
0
 10
4750.9588765549096934
 20
526.2808855338910234
 30
0.0
 11
4750.9588765549096934
 21
526.2685498721911017
 31
0.0
  0
ARC
  5
1D6FB
  8
0
 10
4751.0228532360815734
 20
526.2691032608158821
 30
0.0
 40
0.0639790744909813
 50
180.4955874752874081
 51
0.3862217598274232
  0
ARC
  5
1D6FC
  8
0
 10
4751.0170748940372505
 20
526.2790256434507228
 30
0.0
 40
0.0697615879069649
 50
0.8215369200142877
 51
47.1202071186185307
  0
LINE
  5
1D6FD
  8
0
 10
4751.0868293108096623
 20
526.2800258870909147
 30
0.0
 11
4751.0868308570079535
 21
526.2695345303407066
 31
0.0
  0
CIRCLE
  5
1D6FE
  8
0
 10
4751.0228862326102899
 20
526.2649759537911223
 30
0.0
 40
0.0240200923371025
  0
ARC
  5
1D6FF
  8
0
 10
4750.5980707899479967
 20
527.2149546565333367
 30
0.0
 40
0.062590689727904
 50
47.8456712316837525
 51
132.1543287683161907
  0
ARC
  5
1D700
  8
0
 10
4750.6004610475647496
 20
527.2124480124458614
 30
0.0
 40
0.0660531989553283
 50
132.2321443838982873
 51
180.3058504084735887
  0
LINE
  5
1D701
  8
0
 10
4750.5344087897101417
 20
527.2120954154606807
 30
0.0
 11
4750.5344087897101417
 21
527.1997597537606453
 31
0.0
  0
ARC
  5
1D702
  8
0
 10
4750.5983854708820218
 20
527.2003131423855393
 30
0.0
 40
0.0639790744909813
 50
180.4955874752874081
 51
0.3862217598274232
  0
ARC
  5
1D703
  8
0
 10
4750.5926071288367893
 20
527.2102355250202663
 30
0.0
 40
0.0697615879069649
 50
0.8215369200142877
 51
47.1202071186185307
  0
LINE
  5
1D704
  8
0
 10
4750.6623615456101106
 20
527.2112357686606856
 30
0.0
 11
4750.6623630918084018
 21
527.2007444119102502
 31
0.0
  0
CIRCLE
  5
1D705
  8
0
 10
4750.5984184674107382
 20
527.1961858353605521
 30
0.0
 40
0.0240200923371025
  0
ARC
  5
1D706
  8
0
 10
4751.0226392304648471
 20
527.090225372027362
 30
0.0
 40
0.062590689727904
 50
47.8456712316837525
 51
132.1543287683161907
  0
ARC
  5
1D707
  8
0
 10
4751.0250294880816
 20
527.0877187279401141
 30
0.0
 40
0.0660531989553283
 50
132.2321443838982873
 51
180.3058504084735887
  0
LINE
  5
1D708
  8
0
 10
4750.9589772302269921
 20
527.0873661309548197
 30
0.0
 11
4750.9589772302269921
 21
527.0750304692547843
 31
0.0
  0
ARC
  5
1D709
  8
0
 10
4751.0229539113979627
 20
527.0755838578795647
 30
0.0
 40
0.0639790744909813
 50
180.4955874752874081
 51
0.3862217598274232
  0
ARC
  5
1D70A
  8
0
 10
4751.0171755693527302
 20
527.0855062405144054
 30
0.0
 40
0.0697615879069649
 50
0.8215369200142877
 51
47.1202071186185307
  0
LINE
  5
1D70B
  8
0
 10
4751.086929986126961
 20
527.0865064841548246
 30
0.0
 11
4751.0869315323243427
 21
527.0760151274043892
 31
0.0
  0
CIRCLE
  5
1D70C
  8
0
 10
4751.0229869079257696
 20
527.0714565508548048
 30
0.0
 40
0.0240200923371025
  0
ARC
  5
1D70D
  8
0
 10
4751.1756941789071789
 20
527.3488900477650532
 30
0.0
 40
0.062590689727904
 50
47.8456712316837525
 51
132.1543287683161907
  0
ARC
  5
1D70E
  8
0
 10
4751.1780844365239318
 20
527.3463834036776916
 30
0.0
 40
0.0660531989553283
 50
132.2321443838982873
 51
180.3058504084735887
  0
LINE
  5
1D70F
  8
0
 10
4751.1120321786693239
 20
527.3460308066923972
 30
0.0
 11
4751.1120321786693239
 21
527.3336951449923617
 31
0.0
  0
ARC
  5
1D710
  8
0
 10
4751.176008859841204
 20
527.3342485336172558
 30
0.0
 40
0.0639790744909813
 50
180.4955874752874081
 51
0.3862217598274232
  0
ARC
  5
1D711
  8
0
 10
4751.1702305177959715
 20
527.3441709162519828
 30
0.0
 40
0.0697615879069649
 50
0.8215369200142877
 51
47.1202071186185307
  0
LINE
  5
1D712
  8
0
 10
4751.2399849345692928
 20
527.3451711598925158
 30
0.0
 11
4751.239986480767584
 21
527.334679803142194
 31
0.0
  0
CIRCLE
  5
1D713
  8
0
 10
4751.1760418563699204
 20
527.3301212265923823
 30
0.0
 40
0.0240200923371025
  0
ARC
  5
1D714
  8
0
 10
4750.8667975188918717
 20
527.6643727930639898
 30
0.0
 40
0.062590689727904
 50
47.8456712316837525
 51
132.1543287683161907
  0
ARC
  5
1D715
  8
0
 10
4750.8691877765104437
 20
527.6618661489766282
 30
0.0
 40
0.0660531989553283
 50
132.2321443838982873
 51
180.3058504084735887
  0
LINE
  5
1D716
  8
0
 10
4750.8031355186549263
 20
527.6615135519913338
 30
0.0
 11
4750.8031355186549263
 21
527.6491778902911847
 31
0.0
  0
ARC
  5
1D717
  8
0
 10
4750.8671121998258968
 20
527.649731278915965
 30
0.0
 40
0.0639790744909813
 50
180.4955874752874081
 51
0.3862217598274232
  0
ARC
  5
1D718
  8
0
 10
4750.8613338577806644
 20
527.6596536615508057
 30
0.0
 40
0.0697615879069649
 50
0.8215369200142877
 51
47.1202071186185307
  0
LINE
  5
1D719
  8
0
 10
4750.9310882745548952
 20
527.6606539051913387
 30
0.0
 11
4750.9310898207522769
 21
527.650162548441017
 31
0.0
  0
CIRCLE
  5
1D71A
  8
0
 10
4750.8671451963537038
 20
527.6456039718913189
 30
0.0
 40
0.0240200923371025
  0
ARC
  5
1D71B
  8
0
 10
4751.7781247974817234
 20
528.1765808524035037
 30
0.0
 40
0.062590689727904
 50
47.8456712316837525
 51
132.1543287683161907
  0
ARC
  5
1D71C
  8
0
 10
4751.7805150551002953
 20
528.1740742083160285
 30
0.0
 40
0.0660531989553283
 50
132.2321443838982873
 51
180.3058504084735887
  0
LINE
  5
1D71D
  8
0
 10
4751.7144627972438684
 20
528.1737216113308477
 30
0.0
 11
4751.7144627972438684
 21
528.1613859496308123
 31
0.0
  0
ARC
  5
1D71E
  8
0
 10
4751.7784394784166579
 20
528.161939338255479
 30
0.0
 40
0.0639790744909813
 50
180.4955874752874081
 51
0.3862217598274232
  0
ARC
  5
1D71F
  8
0
 10
4751.7726611363732445
 20
528.1718617208904334
 30
0.0
 40
0.0697615879069649
 50
0.8215369200142877
 51
47.1202071186185307
  0
LINE
  5
1D720
  8
0
 10
4751.8424155531438373
 20
528.1728619645308527
 30
0.0
 11
4751.842417099343038
 21
528.1623706077805309
 31
0.0
  0
CIRCLE
  5
1D721
  8
0
 10
4751.7784724749453744
 20
528.1578120312308329
 30
0.0
 40
0.0240200923371025
  0
ARC
  5
1D722
  8
0
 10
4751.8931100826775946
 20
527.7501471061840448
 30
0.0
 40
0.062590689727904
 50
47.8456712316837525
 51
132.1543287683161907
  0
ARC
  5
1D723
  8
0
 10
4751.895500340295257
 20
527.7476404620966832
 30
0.0
 40
0.0660531989553283
 50
132.2321443838982873
 51
180.3058504084735887
  0
LINE
  5
1D724
  8
0
 10
4751.8294480824397397
 20
527.7472878651113888
 30
0.0
 11
4751.8294480824397397
 21
527.7349522034113534
 31
0.0
  0
ARC
  5
1D725
  8
0
 10
4751.8934247636107102
 20
527.7355055920361337
 30
0.0
 40
0.0639790744909813
 50
180.4955874752874081
 51
0.3862217598274232
  0
ARC
  5
1D726
  8
0
 10
4751.8876464215663873
 20
527.7454279746708607
 30
0.0
 40
0.0697615879069649
 50
0.8215369200142877
 51
47.1202071186185307
  0
LINE
  5
1D727
  8
0
 10
4751.9574008383397086
 20
527.7464282183113937
 30
0.0
 11
4751.9574023845370903
 21
527.7359368615609583
 31
0.0
  0
CIRCLE
  5
1D728
  8
0
 10
4751.8934577601394267
 20
527.7313782850112602
 30
0.0
 40
0.0240200923371025
  0
ARC
  5
1D729
  8
0
 10
4751.8957488011310488
 20
527.7782399332019168
 30
0.0
 40
0.0484335179907115
 50
238.0754003758424062
 51
296.3267365366008903
  0
ARC
  5
1D72A
  8
0
 10
4750.65096219474799
 20
525.3682235757172521
 30
0.0
 40
0.062590689727904
 50
47.8456712316837525
 51
132.1543287683161907
  0
ARC
  5
1D72B
  8
0
 10
4750.6533524523647429
 20
525.3657169316296631
 30
0.0
 40
0.0660531989553283
 50
132.2321443838982873
 51
180.3058504084735887
  0
LINE
  5
1D72C
  8
0
 10
4750.587300194510135
 20
525.3653643346445961
 30
0.0
 11
4750.587300194510135
 21
525.353028672944447
 31
0.0
  0
ARC
  5
1D72D
  8
0
 10
4750.6512768756811056
 20
525.353582061569341
 30
0.0
 40
0.0639790744909813
 50
180.4955874752874081
 51
0.3862217598274232
  0
ARC
  5
1D72E
  8
0
 10
4750.6454985336367827
 20
525.3635044442041817
 30
0.0
 40
0.0697615879069649
 50
0.8215369200142877
 51
47.1202071186185307
  0
LINE
  5
1D72F
  8
0
 10
4750.7152529504101039
 20
525.3645046878444873
 30
0.0
 11
4750.7152544966083951
 21
525.3540133310941656
 31
0.0
  0
CIRCLE
  5
1D730
  8
0
 10
4750.6513098722098221
 20
525.3494547545445812
 30
0.0
 40
0.0240200923371025
  0
ARC
  5
1D731
  8
0
 10
4751.2761756614372644
 20
525.3987109344634518
 30
0.0
 40
0.062590689727904
 50
47.8456712316837525
 51
132.1543287683161907
  0
ARC
  5
1D732
  8
0
 10
4751.2785659190531078
 20
525.3962042903760903
 30
0.0
 40
0.0660531989553283
 50
132.2321443838982873
 51
180.3058504084735887
  0
LINE
  5
1D733
  8
0
 10
4751.2125136611975904
 20
525.3958516933907958
 30
0.0
 11
4751.2125136611975904
 21
525.3835160316908741
 31
0.0
  0
ARC
  5
1D734
  8
0
 10
4751.2764903423703799
 20
525.3840694203156545
 30
0.0
 40
0.0639790744909813
 50
180.4955874752874081
 51
0.3862217598274232
  0
ARC
  5
1D735
  8
0
 10
4751.270712000326057
 20
525.3939918029506089
 30
0.0
 40
0.0697615879069649
 50
0.8215369200142877
 51
47.1202071186185307
  0
LINE
  5
1D736
  8
0
 10
4751.3404664170975593
 20
525.3949920465909145
 30
0.0
 11
4751.34046796329676
 21
525.3845006898405927
 31
0.0
  0
CIRCLE
  5
1D737
  8
0
 10
4751.2765233388990964
 20
525.379942113290781
 30
0.0
 40
0.0240200923371025
  0
ARC
  5
1D738
  8
0
 10
4750.9962524619077158
 20
525.0954169792762514
 30
0.0
 40
0.062590689727904
 50
47.8456712316837525
 51
132.1543287683161907
  0
ARC
  5
1D739
  8
0
 10
4750.9986427195253782
 20
525.0929103351888898
 30
0.0
 40
0.0660531989553283
 50
132.2321443838982873
 51
180.3058504084735887
  0
LINE
  5
1D73A
  8
0
 10
4750.9325904616698608
 20
525.0925577382035954
 30
0.0
 11
4750.9325904616698608
 21
525.0802220765036736
 31
0.0
  0
ARC
  5
1D73B
  8
0
 10
4750.9965671428408314
 20
525.080775465128454
 30
0.0
 40
0.0639790744909813
 50
180.4955874752874081
 51
0.3862217598274232
  0
ARC
  5
1D73C
  8
0
 10
4750.9907888007955989
 20
525.0906978477634084
 30
0.0
 40
0.0697615879069649
 50
0.8215369200142877
 51
47.1202071186185307
  0
LINE
  5
1D73D
  8
0
 10
4751.0605432175698297
 20
525.091698091403714
 30
0.0
 11
4751.0605447637672114
 21
525.0812067346533922
 31
0.0
  0
CIRCLE
  5
1D73E
  8
0
 10
4750.9966001393686383
 20
525.0766481581036942
 30
0.0
 40
0.0240200923371025
  0
ARC
  5
1D73F
  8
0
 10
4751.7787149355563088
 20
525.2157630712849823
 30
0.0
 40
0.062590689727904
 50
47.8456712316837525
 51
132.1543287683161907
  0
ARC
  5
1D740
  8
0
 10
4751.7811051931748807
 20
525.213256427197507
 30
0.0
 40
0.0660531989553283
 50
132.2321443838982873
 51
180.3058504084735887
  0
LINE
  5
1D741
  8
0
 10
4751.7150529353202728
 20
525.2129038302123263
 30
0.0
 11
4751.7150529353202728
 21
525.2005681685122909
 31
0.0
  0
ARC
  5
1D742
  8
0
 10
4751.7790296164912434
 20
525.2011215571369576
 30
0.0
 40
0.0639790744909813
 50
180.4955874752874081
 51
0.3862217598274232
  0
ARC
  5
1D743
  8
0
 10
4751.7732512744469204
 20
525.2110439397719119
 30
0.0
 40
0.0697615879069649
 50
0.8215369200142877
 51
47.1202071186185307
  0
LINE
  5
1D744
  8
0
 10
4751.8430056912193322
 20
525.2120441834123312
 30
0.0
 11
4751.8430072374167139
 21
525.2015528266618958
 31
0.0
  0
CIRCLE
  5
1D745
  8
0
 10
4751.7790626130199598
 20
525.1969942501123114
 30
0.0
 40
0.0240200923371025
  0
ARC
  5
1D746
  8
0
 10
4751.8931659778691028
 20
525.6172518020920279
 30
0.0
 40
0.062590689727904
 50
47.8456712316837525
 51
132.1543287683161907
  0
ARC
  5
1D747
  8
0
 10
4751.8955562354867652
 20
525.6147451580045526
 30
0.0
 40
0.0660531989553283
 50
132.2321443838982873
 51
180.3058504084735887
  0
LINE
  5
1D748
  8
0
 10
4751.8295039776312478
 20
525.6143925610192582
 30
0.0
 11
4751.8295039776312478
 21
525.6020568993193365
 31
0.0
  0
ARC
  5
1D749
  8
0
 10
4751.8934806588031279
 20
525.6026102879441169
 30
0.0
 40
0.0639790744909813
 50
180.4955874752874081
 51
0.3862217598274232
  0
ARC
  5
1D74A
  8
0
 10
4751.8877023167578955
 20
525.6125326705788439
 30
0.0
 40
0.0697615879069649
 50
0.8215369200142877
 51
47.1202071186185307
  0
LINE
  5
1D74B
  8
0
 10
4751.9574567335303072
 20
525.6135329142192631
 30
0.0
 11
4751.9574582797276889
 21
525.6030415574690551
 31
0.0
  0
CIRCLE
  5
1D74C
  8
0
 10
4751.8935136553309349
 20
525.5984829809192433
 30
0.0
 40
0.0240200923371025
  0
ARC
  5
1D74D
  8
0
 10
4751.7812071181506326
 20
528.2136136669236066
 30
0.0
 40
0.046216884057309
 50
242.1951942185822872
 51
292.1935630172054061
  0
ARC
  5
1D74E
  8
0
 10
4751.4022468169614513
 20
528.5571324385722392
 30
0.0
 40
0.0485186194774836
 50
232.6153299332877111
 51
290.070601024095879
  0
ARC
  5
1D74F
  8
0
 10
4751.0086081953368193
 20
528.3735464483814894
 30
0.0
 40
0.0486880336204846
 50
229.6427486306579908
 51
284.9110763899918766
  0
ARC
  5
1D750
  8
0
 10
4750.6671303988487125
 20
528.1098178321248042
 30
0.0
 40
0.0489053462283405
 50
228.6488386670428952
 51
279.1403982735184854
  0
ARC
  5
1D751
  8
0
 10
4750.3950173491220994
 20
527.7794888994561688
 30
0.0
 40
0.0493887436576194
 50
230.8221212339767021
 51
274.7341706634679781
  0
ARC
  5
1D752
  8
0
 10
4750.2058380726848554
 20
527.398874086606952
 30
0.0
 40
0.0499192785148802
 50
232.2861314644027004
 51
268.7415696723110159
  0
ARC
  5
1D753
  8
0
 10
4750.109069844134865
 20
526.9869787343401413
 30
0.0
 40
0.0505389505999387
 50
239.1322407085039004
 51
263.6079450262121782
  0
ARC
  5
1D754
  8
0
 10
4750.6101662087676232
 20
527.2609319243123309
 30
0.0
 40
0.0473604780786476
 50
243.87089173105241
 51
275.5610062991729023
  0
ARC
  5
1D755
  8
0
 10
4750.8754248263458067
 20
527.7066118733316671
 30
0.0
 40
0.0468109983214356
 50
241.9367496636384942
 51
282.6060017500936965
  0
ARC
  5
1D756
  8
0
 10
4751.2821347793596942
 20
528.0374746233928818
 30
0.0
 40
0.0464062727341882
 50
240.3487249565436912
 51
287.4135501717951229
  0
ARC
  5
1D757
  8
0
 10
4751.4945574242210569
 20
527.6120410839140504
 30
0.0
 40
0.128249399367851
 50
21.9584934235504292
 51
119.3899235607817957
  0
ARC
  5
1D758
  8
0
 10
4751.4926463416586557
 20
527.6149652377511075
 30
0.0
 40
0.1247639311470232
 50
119.2842554989787942
 51
185.0068312519888991
  0
ARC
  5
1D759
  8
0
 10
4751.4947205738099001
 20
527.6151469587515521
 30
0.0
 40
0.1268461082617633
 50
185.0068312519856875
 51
250.6521516582783988
  0
ARC
  5
1D75A
  8
0
 10
4751.4953405342912447
 20
527.6169125598169103
 30
0.0
 40
0.1287173907419627
 50
250.6521516582783988
 51
332.2202999867881203
  0
ARC
  5
1D75B
  8
0
 10
4751.4976671228077976
 20
527.6131805638450487
 30
0.0
 40
0.1249392476597612
 50
333.2372786774794235
 51
22.0071076518572717
  0
ARC
  5
1D75C
  8
0
 10
4751.4909693530244112
 20
527.601881565617532
 30
0.0
 40
0.0558191365723745
 50
0.4485164780735845
 51
118.7565326957352028
  0
ARC
  5
1D75D
  8
0
 10
4751.4928540835608146
 20
527.6023944762190467
 30
0.0
 40
0.0539327492636905
 50
268.3201520783842966
 51
359.9193056653709277
  0
ARC
  5
1D75E
  8
0
 10
4751.4923865824121094
 20
527.6043112794312719
 30
0.0
 40
0.0558374780349879
 50
180.4135605588325859
 51
268.8573225983524253
  0
ARC
  5
1D75F
  8
0
 10
4751.4901927811997666
 20
527.6039395725050554
 30
0.0
 40
0.0536422314252202
 50
119.0868850124520009
 51
180.0334575961358041
  0
ARC
  5
1D760
  8
0
 10
4750.938217388906196
 20
526.6767463877546334
 30
0.0
 40
0.128249399367851
 50
21.9584934235504292
 51
119.3899235607817957
  0
ARC
  5
1D761
  8
0
 10
4750.9363063063447044
 20
526.6796705415913493
 30
0.0
 40
0.1247639311470232
 50
119.2842554989787942
 51
185.0068312519888991
  0
ARC
  5
1D762
  8
0
 10
4750.9383805384950392
 20
526.6798522625919077
 30
0.0
 40
0.1268461082617633
 50
185.0068312519856875
 51
250.6521516582783988
  0
ARC
  5
1D763
  8
0
 10
4750.9390004989772933
 20
526.6816178636571522
 30
0.0
 40
0.1287173907419627
 50
250.6521516582783988
 51
332.2202999867881203
  0
ARC
  5
1D764
  8
0
 10
4750.9413270874929367
 20
526.677885867685518
 30
0.0
 40
0.1249392476597612
 50
333.2372786774794235
 51
22.0071076518572717
  0
ARC
  5
1D765
  8
0
 10
4750.9346293177095504
 20
526.6665868694578876
 30
0.0
 40
0.0558191365723745
 50
0.4485164780735845
 51
118.7565326957352028
  0
ARC
  5
1D766
  8
0
 10
4750.9365140482468632
 20
526.6670997800594023
 30
0.0
 40
0.0539327492636905
 50
268.3201520783842966
 51
359.9193056653709277
  0
ARC
  5
1D767
  8
0
 10
4750.936046547098158
 20
526.6690165832717412
 30
0.0
 40
0.0558374780349879
 50
180.4135605588325859
 51
268.8573225983524253
  0
ARC
  5
1D768
  8
0
 10
4750.9338527458858152
 20
526.6686448763455246
 30
0.0
 40
0.0536422314252202
 50
119.0868850124520009
 51
180.0334575961358041
  0
ARC
  5
1D769
  8
0
 10
4751.4951497213360199
 20
525.7352004815929831
 30
0.0
 40
0.128249399367851
 50
21.9584934235504292
 51
119.3899235607817957
  0
ARC
  5
1D76A
  8
0
 10
4751.4932386387754377
 20
525.7381246354300401
 30
0.0
 40
0.1247639311470232
 50
119.2842554989787942
 51
185.0068312519888991
  0
ARC
  5
1D76B
  8
0
 10
4751.4953128709248631
 20
525.7383063564303711
 30
0.0
 40
0.1268461082617633
 50
185.0068312519856875
 51
250.6521516582783988
  0
ARC
  5
1D76C
  8
0
 10
4751.4959328314071172
 20
525.740071957495843
 30
0.0
 40
0.1287173907419627
 50
250.6521516582783988
 51
332.2202999867881203
  0
ARC
  5
1D76D
  8
0
 10
4751.4982594199236701
 20
525.7363399615239814
 30
0.0
 40
0.1249392476597612
 50
333.2372786774794235
 51
22.0071076518572717
  0
ARC
  5
1D76E
  8
0
 10
4751.4915616501411932
 20
525.7250409632964647
 30
0.0
 40
0.0558191365723745
 50
0.4485164780735845
 51
118.7565326957352028
  0
ARC
  5
1D76F
  8
0
 10
4751.4934463806766871
 20
525.7255538738979794
 30
0.0
 40
0.0539327492636905
 50
268.3201520783842966
 51
359.9193056653709277
  0
ARC
  5
1D770
  8
0
 10
4751.4929788795279819
 20
525.7274706771103183
 30
0.0
 40
0.0558374780349879
 50
180.4135605588325859
 51
268.8573225983524253
  0
ARC
  5
1D771
  8
0
 10
4751.4907850783156391
 20
525.7270989701838744
 30
0.0
 40
0.0536422314252202
 50
119.0868850124520009
 51
180.0334575961358041
  0
ARC
  5
1D772
  8
0
 10
4750.9365640966334468
 20
526.7139173346841972
 30
0.0
 40
0.0559199727901974
 50
203.6196684866538078
 51
332.4655481750907029
  0
ARC
  5
1D773
  8
0
 10
4751.4916759400930459
 20
527.6493335693965037
 30
0.0
 40
0.0558743184012458
 50
205.1675530363318956
 51
333.9429965913997762
  0
ARC
  5
1D774
  8
0
 10
4751.4916745615946638
 20
525.7733749631331648
 30
0.0
 40
0.0558926913981803
 50
206.3951590126542044
 51
334.150573649905084
  0
ARC
  5
1D775
  8
0
 10
4751.5743458344086321
 20
526.9230555978651864
 30
0.0
 40
0.1418254424250814
 50
233.2892976753431071
 51
306.7107023246570066
  0
ARC
  5
1D776
  8
0
 10
4751.5689132994621104
 20
526.9156750104029925
 30
0.0
 40
0.1326612703090856
 50
200.8238858483699971
 51
233.2647391376665951
  0
ARC
  5
1D777
  8
0
 10
4751.566690182487946
 20
526.9146333091448469
 30
0.0
 40
0.1302131805417373
 50
181.9259378967655039
 51
200.7432116060211058
  0
ARC
  5
1D778
  8
0
 10
4751.5790524596359319
 20
526.9162689181960104
 30
0.0
 40
0.1335716046733026
 50
306.8324281106263243
 51
335.8468123511710814
  0
ARC
  5
1D779
  8
0
 10
4751.5817891013957706
 20
526.9146859257029973
 30
0.0
 40
0.1304272217889072
 50
335.9894229854078844
 51
358.0540966353626118
  0
ARC
  5
1D77A
  8
0
 10
4751.5743731446500533
 20
526.8995526915380196
 30
0.0
 40
0.1428979757550473
 50
42.1719650374158377
 51
137.6361905704015101
  0
ARC
  5
1D77B
  8
0
 10
4751.5670247490288602
 20
526.9099748977496347
 30
0.0
 40
0.1304744954946639
 50
138.8435290313867938
 51
179.8760520250123989
  0
ARC
  5
1D77C
  8
0
 10
4751.5812538658328776
 20
526.9098992165285154
 30
0.0
 40
0.1308877336244752
 50
0.1566860120743491
 51
40.8372723058678915
  0
ARC
  5
1D77D
  8
0
 10
4751.5743460293879252
 20
526.9351038948844916
 30
0.0
 40
0.0866834097997671
 50
44.2332951755024197
 51
134.933626169473996
  0
ARC
  5
1D77E
  8
0
 10
4751.5754239310681442
 20
526.9347591120874768
 30
0.0
 40
0.0876903376226747
 50
135.2731011515975865
 51
224.7256868227208884
  0
ARC
  5
1D77F
  8
0
 10
4751.5743458345177714
 20
526.9336912895628302
 30
0.0
 40
0.0861729263010435
 50
224.7256868227208884
 51
315.2743143581507184
  0
ARC
  5
1D780
  8
0
 10
4751.5732665445775638
 20
526.9347645909656421
 30
0.0
 40
0.0876950411176332
 50
315.2723197482857245
 51
43.900138600865489
  0
ARC
  5
1D781
  8
0
 10
4751.5743458007100344
 20
526.9337128952367948
 30
0.0
 40
0.0571362020033051
 50
45.0695617961207091
 51
134.9303874478549119
  0
ARC
  5
1D782
  8
0
 10
4751.5743458682118217
 20
526.9339607314159366
 30
0.0
 40
0.057136202075738
 50
225.069561868788611
 51
314.9303873211339919
  0
ARC
  5
1D783
  8
0
 10
4751.5742212845279937
 20
526.9338368469440184
 30
0.0
 40
0.0569605092917188
 50
134.9297712363666903
 51
225.0702737585181126
  0
ARC
  5
1D784
  8
0
 10
4751.5744703845639378
 20
526.9338367796065086
 30
0.0
 40
0.0569605091715283
 50
314.9297710607584122
 51
45.0702738794677273
  0
ARC
  5
1D785
  8
0
 10
4751.5724747457143167
 20
526.9506108694876048
 30
0.0
 40
0.0414365471922111
 50
123.0361794916514953
 51
179.7049765453768089
  0
ARC
  5
1D786
  8
0
 10
4751.5736381980659644
 20
526.9515807544102017
 30
0.0
 40
0.0426061672528636
 50
181.0174088448430041
 51
270.951558521551874
  0
ARC
  5
1D787
  8
0
 10
4751.5751259610487978
 20
526.9515057265160749
 30
0.0
 40
0.0425324201309187
 50
268.9489276828293782
 51
359.0819120431413012
  0
ARC
  5
1D788
  8
0
 10
4751.5762148513458669
 20
526.9506103809181923
 30
0.0
 40
0.0414386214948745
 50
0.295684223887142
 51
56.9560090028396004
  0
ARC
  5
1D789
  8
0
 10
4751.5743458627948712
 20
526.9646929125484576
 30
0.0
 40
0.0435451974825305
 50
190.3674805192667066
 51
349.6321017628259824
  0
ARC
  5
1D78A
  8
0
 10
4751.5743459966843147
 20
526.9532919807419376
 30
0.0
 40
0.0571602567105988
 50
236.4127380104503118
 51
303.8191721889966175
  0
ARC
  5
1D78B
  8
0
 10
4751.5744441912047478
 20
526.953145405639475
 30
0.0
 40
0.0569838298852732
 50
303.8191721889966175
 51
350.2532938400999001
  0
ARC
  5
1D78C
  8
0
 10
4751.5742137906945572
 20
526.9531237412602422
 30
0.0
 40
0.0569469711393633
 50
189.7309486459334096
 51
236.4299048078646024
  0
ARC
  5
1D78D
  8
0
 10
4752.0468501991563244
 20
526.9230555978651864
 30
0.0
 40
0.1418254424250814
 50
233.2892976753431071
 51
306.7107023246570066
  0
ARC
  5
1D78E
  8
0
 10
4752.0414176642088933
 20
526.9156750104029925
 30
0.0
 40
0.1326612703090856
 50
200.8238858483699971
 51
233.2647391376665951
  0
ARC
  5
1D78F
  8
0
 10
4752.0391945472347288
 20
526.9146333091448469
 30
0.0
 40
0.1302131805417373
 50
181.9259378967655039
 51
200.7432116060211058
  0
ARC
  5
1D790
  8
0
 10
4752.0515568243808957
 20
526.9162689181960104
 30
0.0
 40
0.1335716046733026
 50
306.8324281106263243
 51
335.8468123511710814
  0
ARC
  5
1D791
  8
0
 10
4752.0542934661425534
 20
526.9146859257029973
 30
0.0
 40
0.1304272217889072
 50
335.9894229854078844
 51
358.0540966353626118
  0
ARC
  5
1D792
  8
0
 10
4752.0468775093950171
 20
526.8995526915380196
 30
0.0
 40
0.1428979757550473
 50
42.1719650374158377
 51
137.6361905704015101
  0
ARC
  5
1D793
  8
0
 10
4752.0395291137738241
 20
526.9099748977496347
 30
0.0
 40
0.1304744954946639
 50
138.8435290313867938
 51
179.8760520250123989
  0
ARC
  5
1D794
  8
0
 10
4752.053758230578751
 20
526.9098992165285154
 30
0.0
 40
0.1308877336244752
 50
0.1566860120743491
 51
40.8372723058678915
  0
ARC
  5
1D795
  8
0
 10
4752.0468503941337985
 20
526.9351038948844916
 30
0.0
 40
0.0866834097997671
 50
44.2332951755024197
 51
134.933626169473996
  0
ARC
  5
1D796
  8
0
 10
4752.047928295814927
 20
526.9347591120874768
 30
0.0
 40
0.0876903376226747
 50
135.2731011515975865
 51
224.7256868227208884
  0
ARC
  5
1D797
  8
0
 10
4752.0468501992627353
 20
526.9336912895628302
 30
0.0
 40
0.0861729263010435
 50
224.7256868227208884
 51
315.2743143581507184
  0
ARC
  5
1D798
  8
0
 10
4752.0457709093252561
 20
526.9347645909656421
 30
0.0
 40
0.0876950411176332
 50
315.2723197482857245
 51
43.900138600865489
  0
ARC
  5
1D799
  8
0
 10
4752.0468501654559077
 20
526.9337128952367948
 30
0.0
 40
0.0571362020033051
 50
45.0695617961207091
 51
134.9303874478549119
  0
ARC
  5
1D79A
  8
0
 10
4752.0468502329567855
 20
526.9339607314159366
 30
0.0
 40
0.057136202075738
 50
225.069561868788611
 51
314.9303873211339919
  0
ARC
  5
1D79B
  8
0
 10
4752.0467256492729575
 20
526.9338368469440184
 30
0.0
 40
0.0569605092917188
 50
134.9297712363666903
 51
225.0702737585181126
  0
ARC
  5
1D79C
  8
0
 10
4752.0469747493107207
 20
526.9338367796065086
 30
0.0
 40
0.0569605091715283
 50
314.9297710607584122
 51
45.0702738794677273
  0
ARC
  5
1D79D
  8
0
 10
4752.04497911046019
 20
526.9506108694876048
 30
0.0
 40
0.0414365471922111
 50
123.0361794916514953
 51
179.7049765453768089
  0
ARC
  5
1D79E
  8
0
 10
4752.0461425628127472
 20
526.9515807544102017
 30
0.0
 40
0.0426061672528636
 50
181.0174088448430041
 51
270.951558521551874
  0
ARC
  5
1D79F
  8
0
 10
4752.0476303257955806
 20
526.9515057265160749
 30
0.0
 40
0.0425324201309187
 50
268.9489276828293782
 51
359.0819120431413012
  0
ARC
  5
1D7A0
  8
0
 10
4752.0487192160917402
 20
526.9506103809181923
 30
0.0
 40
0.0414386214948745
 50
0.295684223887142
 51
56.9560090028396004
  0
ARC
  5
1D7A1
  8
0
 10
4752.046850227539835
 20
526.9646929125484576
 30
0.0
 40
0.0435451974825305
 50
190.3674805192634949
 51
349.6321017628259824
  0
ARC
  5
1D7A2
  8
0
 10
4752.0468503614301881
 20
526.9532919807419376
 30
0.0
 40
0.0571602567105988
 50
236.4127380104503118
 51
303.8191721889966175
  0
ARC
  5
1D7A3
  8
0
 10
4752.0469485559506211
 20
526.953145405639475
 30
0.0
 40
0.0569838298852732
 50
303.8191721889966175
 51
350.2532938400999001
  0
ARC
  5
1D7A4
  8
0
 10
4752.0467181554386116
 20
526.9531237412602422
 30
0.0
 40
0.0569469711393633
 50
189.7309486459334096
 51
236.4299048078646024
  0
ARC
  5
1D7A5
  8
0
 10
4752.519251809508205
 20
526.9230555978651864
 30
0.0
 40
0.1418254424250814
 50
233.2892976753431071
 51
306.7107023246570066
  0
ARC
  5
1D7A6
  8
0
 10
4752.5138192745598644
 20
526.9156750104029925
 30
0.0
 40
0.1326612703090856
 50
200.8238858483699971
 51
233.2647391376665951
  0
ARC
  5
1D7A7
  8
0
 10
4752.5115961575884285
 20
526.9146333091448469
 30
0.0
 40
0.1302131805417373
 50
181.9259378967655039
 51
200.7432116060211058
  0
ARC
  5
1D7A8
  8
0
 10
4752.5239584347345954
 20
526.9162689181960104
 30
0.0
 40
0.1335716046733026
 50
306.8324281106263243
 51
335.8468123511710814
  0
ARC
  5
1D7A9
  8
0
 10
4752.5266950764953435
 20
526.9146859257029973
 30
0.0
 40
0.1304272217889072
 50
335.9894229854078844
 51
358.0540966353626118
  0
ARC
  5
1D7AA
  8
0
 10
4752.5192791197487168
 20
526.8995526915380196
 30
0.0
 40
0.1428979757550473
 50
42.1719650374158377
 51
137.6361905704015101
  0
ARC
  5
1D7AB
  8
0
 10
4752.5119307241284332
 20
526.9099748977496347
 30
0.0
 40
0.1304744954946639
 50
138.8435290313867938
 51
179.8760520250123989
  0
ARC
  5
1D7AC
  8
0
 10
4752.5261598409324506
 20
526.9098992165285154
 30
0.0
 40
0.1308877336244752
 50
0.1566860120743491
 51
40.8372723058678915
  0
ARC
  5
1D7AD
  8
0
 10
4752.5192520044865887
 20
526.9351038948844916
 30
0.0
 40
0.0866834097997671
 50
44.2332951755024197
 51
134.933626169473996
  0
ARC
  5
1D7AE
  8
0
 10
4752.5203299061668076
 20
526.9347591120874768
 30
0.0
 40
0.0876903376226747
 50
135.2731011515975865
 51
224.7256868227208884
  0
ARC
  5
1D7AF
  8
0
 10
4752.5192518096164349
 20
526.9336912895628302
 30
0.0
 40
0.0861729263010435
 50
224.7256868227208884
 51
315.2743143581507184
  0
ARC
  5
1D7B0
  8
0
 10
4752.5181725196771367
 20
526.9347645909656421
 30
0.0
 40
0.0876950411176332
 50
315.2723197482857245
 51
43.900138600865489
  0
ARC
  5
1D7B1
  8
0
 10
4752.5192517758077884
 20
526.9337128952367948
 30
0.0
 40
0.0571362020033051
 50
45.0695617961207091
 51
134.9303874478549119
  0
ARC
  5
1D7B2
  8
0
 10
4752.5192518433113946
 20
526.9339607314159366
 30
0.0
 40
0.057136202075738
 50
225.069561868788611
 51
314.9303873211339919
  0
ARC
  5
1D7B3
  8
0
 10
4752.5191272596257477
 20
526.9338368469440184
 30
0.0
 40
0.0569605092917188
 50
134.9297712363666903
 51
225.0702737585181126
  0
ARC
  5
1D7B4
  8
0
 10
4752.5193763596616918
 20
526.9338367796065086
 30
0.0
 40
0.0569605091715283
 50
314.9297710607584122
 51
45.0702738794677273
  0
ARC
  5
1D7B5
  8
0
 10
4752.5173807208129801
 20
526.9506108694876048
 30
0.0
 40
0.0414365471922111
 50
123.0361794916514953
 51
179.7049765453768089
  0
ARC
  5
1D7B6
  8
0
 10
4752.5185441731637184
 20
526.9515807544102017
 30
0.0
 40
0.0426061672528636
 50
181.0174088448430041
 51
270.951558521551874
  0
ARC
  5
1D7B7
  8
0
 10
4752.5200319361465517
 20
526.9515057265160749
 30
0.0
 40
0.0425324201309187
 50
268.9489276828293782
 51
359.0819120431413012
  0
ARC
  5
1D7B8
  8
0
 10
4752.5211208264436209
 20
526.9506103809181923
 30
0.0
 40
0.0414386214948745
 50
0.295684223887142
 51
56.9560090028396004
  0
ARC
  5
1D7B9
  8
0
 10
4752.5192518378944442
 20
526.9646929125484576
 30
0.0
 40
0.0435451974825305
 50
190.3674805192634949
 51
349.6321017628259824
  0
ARC
  5
1D7BA
  8
0
 10
4752.5192519717829782
 20
526.9532919807419376
 30
0.0
 40
0.0571602567105988
 50
236.4127380104503118
 51
303.8191721889966175
  0
ARC
  5
1D7BB
  8
0
 10
4752.5193501663052302
 20
526.953145405639475
 30
0.0
 40
0.0569838298852732
 50
303.8191721889966175
 51
350.2532938400999001
  0
ARC
  5
1D7BC
  8
0
 10
4752.5191197657932207
 20
526.9531237412602422
 30
0.0
 40
0.0569469711393633
 50
189.7309486459334096
 51
236.4299048078646024
  0
ARC
  5
1D7BD
  8
0
 10
4751.5743458344086321
 20
526.4664746822821826
 30
0.0
 40
0.1418254424250814
 50
233.2892976753431071
 51
306.7107023246570066
  0
ARC
  5
1D7BE
  8
0
 10
4751.5689132994621104
 20
526.4590940948197613
 30
0.0
 40
0.1326612703090856
 50
200.8238858483699971
 51
233.2647391376665951
  0
ARC
  5
1D7BF
  8
0
 10
4751.566690182487946
 20
526.4580523935617293
 30
0.0
 40
0.1302131805417373
 50
181.9259378967655039
 51
200.7432116060211058
  0
ARC
  5
1D7C0
  8
0
 10
4751.5790524596359319
 20
526.4596880026128929
 30
0.0
 40
0.1335716046733026
 50
306.8324281106263243
 51
335.8468123511710814
  0
ARC
  5
1D7C1
  8
0
 10
4751.5817891013957706
 20
526.4581050101197661
 30
0.0
 40
0.1304272217889072
 50
335.9894229854078844
 51
358.0540966353626118
  0
ARC
  5
1D7C2
  8
0
 10
4751.5743731446500533
 20
526.4429717759549021
 30
0.0
 40
0.1428979757550473
 50
42.1719650374158377
 51
137.6361905704015101
  0
ARC
  5
1D7C3
  8
0
 10
4751.5670247490288602
 20
526.4533939821666308
 30
0.0
 40
0.1304744954946639
 50
138.8435290313867938
 51
179.8760520250123989
  0
ARC
  5
1D7C4
  8
0
 10
4751.5812538658328776
 20
526.4533183009453978
 30
0.0
 40
0.1308877336244752
 50
0.1566860120743491
 51
40.8372723058678915
  0
ARC
  5
1D7C5
  8
0
 10
4751.5743460293879252
 20
526.4785229793012604
 30
0.0
 40
0.0866834097997671
 50
44.2332951755024197
 51
134.933626169473996
  0
ARC
  5
1D7C6
  8
0
 10
4751.5754239310681442
 20
526.4781781965043592
 30
0.0
 40
0.0876903376226747
 50
135.2731011515975865
 51
224.7256868227208884
  0
ARC
  5
1D7C7
  8
0
 10
4751.5743458345177714
 20
526.477110373979599
 30
0.0
 40
0.0861729263010435
 50
224.7256868227208884
 51
315.2743143581507184
  0
ARC
  5
1D7C8
  8
0
 10
4751.5732665445775638
 20
526.4781836753825246
 30
0.0
 40
0.0876950411176332
 50
315.2723197482857245
 51
43.900138600865489
  0
ARC
  5
1D7C9
  8
0
 10
4751.5743458007100344
 20
526.4771319796537909
 30
0.0
 40
0.0571362020033051
 50
45.0695617961207091
 51
134.9303874478549119
  0
ARC
  5
1D7CA
  8
0
 10
4751.5743458682118217
 20
526.4773798158328191
 30
0.0
 40
0.057136202075738
 50
225.069561868788611
 51
314.9303873211339919
  0
ARC
  5
1D7CB
  8
0
 10
4751.5742212845279937
 20
526.4772559313609008
 30
0.0
 40
0.0569605092917188
 50
134.9297712363666903
 51
225.0702737585181126
  0
ARC
  5
1D7CC
  8
0
 10
4751.5744703845639378
 20
526.477255864023391
 30
0.0
 40
0.0569605091715283
 50
314.9297710607584122
 51
45.0702738794677273
  0
ARC
  5
1D7CD
  8
0
 10
4751.5724747457143167
 20
526.4940299539046009
 30
0.0
 40
0.0414365471922111
 50
123.0361794916514953
 51
179.7049765453768089
  0
ARC
  5
1D7CE
  8
0
 10
4751.5736381980659644
 20
526.4949998388271979
 30
0.0
 40
0.0426061672528636
 50
181.0174088448430041
 51
270.951558521551874
  0
ARC
  5
1D7CF
  8
0
 10
4751.5751259610487978
 20
526.4949248109329574
 30
0.0
 40
0.0425324201309187
 50
268.9489276828293782
 51
359.0819120431413012
  0
ARC
  5
1D7D0
  8
0
 10
4751.5762148513458669
 20
526.4940294653349611
 30
0.0
 40
0.0414386214948745
 50
0.295684223887142
 51
56.9560090028396004
  0
ARC
  5
1D7D1
  8
0
 10
4751.5743458627948712
 20
526.5081119969654537
 30
0.0
 40
0.0435451974825305
 50
190.3674805192634949
 51
349.6321017628259824
  0
ARC
  5
1D7D2
  8
0
 10
4751.5743459966843147
 20
526.4967110651589337
 30
0.0
 40
0.0571602567105988
 50
236.4127380104503118
 51
303.8191721889966175
  0
ARC
  5
1D7D3
  8
0
 10
4751.5744441912047478
 20
526.4965644900564712
 30
0.0
 40
0.0569838298852732
 50
303.8191721889966175
 51
350.2532938400999001
  0
ARC
  5
1D7D4
  8
0
 10
4751.5742137906945572
 20
526.4965428256771247
 30
0.0
 40
0.0569469711393633
 50
189.7309486459334096
 51
236.4299048078646024
  0
ARC
  5
1D7D5
  8
0
 10
4752.0468501991563244
 20
526.4664746822821826
 30
0.0
 40
0.1418254424250814
 50
233.2892976753431071
 51
306.7107023246570066
  0
ARC
  5
1D7D6
  8
0
 10
4752.0414176642088933
 20
526.4590940948197613
 30
0.0
 40
0.1326612703090856
 50
200.8238858483699971
 51
233.2647391376665951
  0
ARC
  5
1D7D7
  8
0
 10
4752.0391945472347288
 20
526.4580523935617293
 30
0.0
 40
0.1302131805417373
 50
181.9259378967655039
 51
200.7432116060211058
  0
ARC
  5
1D7D8
  8
0
 10
4752.0515568243808957
 20
526.4596880026128929
 30
0.0
 40
0.1335716046733026
 50
306.8324281106263243
 51
335.8468123511710814
  0
ARC
  5
1D7D9
  8
0
 10
4752.0542934661425534
 20
526.4581050101197661
 30
0.0
 40
0.1304272217889072
 50
335.9894229854078844
 51
358.0540966353626118
  0
ARC
  5
1D7DA
  8
0
 10
4752.0468775093950171
 20
526.4429717759549021
 30
0.0
 40
0.1428979757550473
 50
42.1719650374158377
 51
137.6361905704015101
  0
ARC
  5
1D7DB
  8
0
 10
4752.0395291137738241
 20
526.4533939821666308
 30
0.0
 40
0.1304744954946639
 50
138.8435290313867938
 51
179.8760520250123989
  0
ARC
  5
1D7DC
  8
0
 10
4752.053758230578751
 20
526.4533183009453978
 30
0.0
 40
0.1308877336244752
 50
0.1566860120743491
 51
40.8372723058678915
  0
ARC
  5
1D7DD
  8
0
 10
4752.0468503941337985
 20
526.4785229793012604
 30
0.0
 40
0.0866834097997671
 50
44.2332951755024197
 51
134.933626169473996
  0
ARC
  5
1D7DE
  8
0
 10
4752.047928295814927
 20
526.4781781965043592
 30
0.0
 40
0.0876903376226747
 50
135.2731011515975865
 51
224.7256868227208884
  0
ARC
  5
1D7DF
  8
0
 10
4752.0468501992627353
 20
526.477110373979599
 30
0.0
 40
0.0861729263010435
 50
224.7256868227208884
 51
315.2743143581507184
  0
ARC
  5
1D7E0
  8
0
 10
4752.0457709093252561
 20
526.4781836753825246
 30
0.0
 40
0.0876950411176332
 50
315.2723197482857245
 51
43.900138600865489
  0
ARC
  5
1D7E1
  8
0
 10
4752.0468501654559077
 20
526.4771319796537909
 30
0.0
 40
0.0571362020033051
 50
45.0695617961207091
 51
134.9303874478549119
  0
ARC
  5
1D7E2
  8
0
 10
4752.0468502329567855
 20
526.4773798158328191
 30
0.0
 40
0.057136202075738
 50
225.069561868788611
 51
314.9303873211339919
  0
ARC
  5
1D7E3
  8
0
 10
4752.0467256492729575
 20
526.4772559313609008
 30
0.0
 40
0.0569605092917188
 50
134.9297712363666903
 51
225.0702737585181126
  0
ARC
  5
1D7E4
  8
0
 10
4752.0469747493107207
 20
526.477255864023391
 30
0.0
 40
0.0569605091715283
 50
314.9297710607584122
 51
45.0702738794677273
  0
ARC
  5
1D7E5
  8
0
 10
4752.04497911046019
 20
526.4940299539046009
 30
0.0
 40
0.0414365471922111
 50
123.0361794916514953
 51
179.7049765453768089
  0
ARC
  5
1D7E6
  8
0
 10
4752.0461425628127472
 20
526.4949998388271979
 30
0.0
 40
0.0426061672528636
 50
181.0174088448430041
 51
270.951558521551874
  0
ARC
  5
1D7E7
  8
0
 10
4752.0476303257955806
 20
526.4949248109329574
 30
0.0
 40
0.0425324201309187
 50
268.9489276828293782
 51
359.0819120431413012
  0
ARC
  5
1D7E8
  8
0
 10
4752.0487192160917402
 20
526.4940294653349611
 30
0.0
 40
0.0414386214948745
 50
0.295684223887142
 51
56.9560090028396004
  0
ARC
  5
1D7E9
  8
0
 10
4752.046850227539835
 20
526.5081119969654537
 30
0.0
 40
0.0435451974825305
 50
190.3674805192634949
 51
349.6321017628259824
  0
ARC
  5
1D7EA
  8
0
 10
4752.0468503614301881
 20
526.4967110651589337
 30
0.0
 40
0.0571602567105988
 50
236.4127380104503118
 51
303.8191721889966175
  0
ARC
  5
1D7EB
  8
0
 10
4752.0469485559506211
 20
526.4965644900564712
 30
0.0
 40
0.0569838298852732
 50
303.8191721889966175
 51
350.2532938400999001
  0
ARC
  5
1D7EC
  8
0
 10
4752.0467181554386116
 20
526.4965428256771247
 30
0.0
 40
0.0569469711393633
 50
189.7309486459334096
 51
236.4299048078646024
  0
ARC
  5
1D7ED
  8
0
 10
4752.519251809508205
 20
526.4664746822821826
 30
0.0
 40
0.1418254424250814
 50
233.2892976753431071
 51
306.7107023246570066
  0
ARC
  5
1D7EE
  8
0
 10
4752.5138192745598644
 20
526.4590940948197613
 30
0.0
 40
0.1326612703090856
 50
200.8238858483699971
 51
233.2647391376665951
  0
ARC
  5
1D7EF
  8
0
 10
4752.5115961575884285
 20
526.4580523935617293
 30
0.0
 40
0.1302131805417373
 50
181.9259378967655039
 51
200.7432116060211058
  0
ARC
  5
1D7F0
  8
0
 10
4752.5239584347345954
 20
526.4596880026128929
 30
0.0
 40
0.1335716046733026
 50
306.8324281106263243
 51
335.8468123511710814
  0
ARC
  5
1D7F1
  8
0
 10
4752.5266950764953435
 20
526.4581050101197661
 30
0.0
 40
0.1304272217889072
 50
335.9894229854078844
 51
358.0540966353626118
  0
ARC
  5
1D7F2
  8
0
 10
4752.5192791197487168
 20
526.4429717759549021
 30
0.0
 40
0.1428979757550473
 50
42.1719650374158377
 51
137.6361905704015101
  0
ARC
  5
1D7F3
  8
0
 10
4752.5119307241284332
 20
526.4533939821666308
 30
0.0
 40
0.1304744954946639
 50
138.8435290313867938
 51
179.8760520250123989
  0
ARC
  5
1D7F4
  8
0
 10
4752.5261598409324506
 20
526.4533183009453978
 30
0.0
 40
0.1308877336244752
 50
0.1566860120743491
 51
40.8372723058678915
  0
ARC
  5
1D7F5
  8
0
 10
4752.5192520044865887
 20
526.4785229793012604
 30
0.0
 40
0.0866834097997671
 50
44.2332951755024197
 51
134.933626169473996
  0
ARC
  5
1D7F6
  8
0
 10
4752.5203299061668076
 20
526.4781781965043592
 30
0.0
 40
0.0876903376226747
 50
135.2731011515975865
 51
224.7256868227208884
  0
ARC
  5
1D7F7
  8
0
 10
4752.5192518096164349
 20
526.477110373979599
 30
0.0
 40
0.0861729263010435
 50
224.7256868227208884
 51
315.2743143581507184
  0
ARC
  5
1D7F8
  8
0
 10
4752.5181725196771367
 20
526.4781836753825246
 30
0.0
 40
0.0876950411176332
 50
315.2723197482857245
 51
43.900138600865489
  0
ARC
  5
1D7F9
  8
0
 10
4752.5192517758077884
 20
526.4771319796537909
 30
0.0
 40
0.0571362020033051
 50
45.0695617961207091
 51
134.9303874478549119
  0
ARC
  5
1D7FA
  8
0
 10
4752.5192518433113946
 20
526.4773798158328191
 30
0.0
 40
0.057136202075738
 50
225.069561868788611
 51
314.9303873211339919
  0
ARC
  5
1D7FB
  8
0
 10
4752.5191272596257477
 20
526.4772559313609008
 30
0.0
 40
0.0569605092917188
 50
134.9297712363666903
 51
225.0702737585181126
  0
ARC
  5
1D7FC
  8
0
 10
4752.5193763596616918
 20
526.477255864023391
 30
0.0
 40
0.0569605091715283
 50
314.9297710607584122
 51
45.0702738794677273
  0
ARC
  5
1D7FD
  8
0
 10
4752.5173807208129801
 20
526.4940299539046009
 30
0.0
 40
0.0414365471922111
 50
123.0361794916514953
 51
179.7049765453768089
  0
ARC
  5
1D7FE
  8
0
 10
4752.5185441731637184
 20
526.4949998388271979
 30
0.0
 40
0.0426061672528636
 50
181.0174088448430041
 51
270.951558521551874
  0
ARC
  5
1D7FF
  8
0
 10
4752.5200319361465517
 20
526.4949248109329574
 30
0.0
 40
0.0425324201309187
 50
268.9489276828293782
 51
359.0819120431413012
  0
ARC
  5
1D800
  8
0
 10
4752.5211208264436209
 20
526.4940294653349611
 30
0.0
 40
0.0414386214948745
 50
0.295684223887142
 51
56.9560090028396004
  0
ARC
  5
1D801
  8
0
 10
4752.5192518378944442
 20
526.5081119969654537
 30
0.0
 40
0.0435451974825305
 50
190.3674805192634949
 51
349.6321017628259824
  0
ARC
  5
1D802
  8
0
 10
4752.5192519717829782
 20
526.4967110651589337
 30
0.0
 40
0.0571602567105988
 50
236.4127380104503118
 51
303.8191721889966175
  0
ARC
  5
1D803
  8
0
 10
4752.5193501663052302
 20
526.4965644900564712
 30
0.0
 40
0.0569838298852732
 50
303.8191721889966175
 51
350.2532938400999001
  0
ARC
  5
1D804
  8
0
 10
4752.5191197657932207
 20
526.4965428256771247
 30
0.0
 40
0.0569469711393633
 50
189.7309486459334096
 51
236.4299048078646024
  0
LINE
  5
1D805
  8
0
 10
4752.5896403234346508
 20
520.1462591967400613
 30
0.0
 11
4753.2128418979364142
 21
519.9951800271401225
 31
0.0
  0
ARC
  5
1D806
  8
0
 10
4753.2082041021776604
 20
519.9760491195545455
 30
0.0
 40
0.0196850393586176
 50
359.9999999583085923
 51
76.3730051959342688
  0
ARC
  5
1D807
  8
0
 10
4753.218046621836038
 20
519.8438944152401291
 30
0.0
 40
0.0098425197000003
 50
270.0
 51
359.9999999999968168
  0
ARC
  5
1D808
  8
0
 10
4752.5822198501018647
 20
520.1156497422966822
 30
0.0
 40
0.0314960652433481
 50
76.3730059726162125
 51
90.0
  0
LINE
  5
1D809
  8
0
 10
4750.8807316607362736
 20
519.9951800271401225
 30
0.0
 11
4753.2128418979364142
 21
519.9951800271401225
 31
0.0
  0
ARC
  5
1D80A
  8
0
 10
4752.5665405701356576
 20
520.159162585720992
 30
0.0
 40
0.0120183058369669
 50
270.9135522795784254
 51
358.2915518756890947
  0
ARC
  5
1D80B
  8
0
 10
6248.888154407318325
 20
487.7274789570429903
 30
0.0
 40
1496.6610212499779209
 50
178.6309703006924963
 51
178.7583537706246943
  0
ARC
  5
1D80C
  8
0
 10
4753.8917739971875562
 20
523.453797595168794
 30
0.0
 40
1.237822866244781
 50
131.4841074830740979
 51
178.5366679498968097
  0
ARC
  5
1D80D
  8
0
 10
4772.0225312114707776
 20
505.0030307396278886
 30
0.0
 40
27.1042214542016993
 50
132.5299869325963869
 51
134.3611834344916929
  0
ARC
  5
1D80E
  8
0
 10
4752.1554849045423907
 20
526.7757554156404467
 30
0.0
 40
2.3715220349512811
 50
310.6610625959664276
 51
346.1760296455759089
  0
ARC
  5
1D80F
  8
0
 10
4752.0755584073967839
 20
526.8086633248436783
 30
0.0
 40
2.4741655157248288
 50
47.9677572865487392
 51
66.1690583465144755
  0
ARC
  5
1D810
  8
0
 10
4752.1554338627302059
 20
526.8877416565291014
 30
0.0
 40
2.36195676409179
 50
12.8415505974413797
 51
48.1225741581591322
  0
ARC
  5
1D811
  8
0
 10
4752.0705594480941727
 20
526.6635453597383503
 30
0.0
 40
2.4947447094053028
 50
51.6928219169703169
 51
66.8228905200426908
  0
ARC
  5
1D812
  8
0
 10
4752.1145750513433086
 20
526.7192644269501898
 30
0.0
 40
2.4237377535466682
 50
24.5664342021302495
 51
51.6928219169703169
  0
ARC
  5
1D813
  8
0
 10
4752.2094096975297361
 20
526.7687535060124446
 30
0.0
 40
2.3169192917732171
 50
8.8188241259726752
 51
24.42839517668612
  0
ARC
  5
1D814
  8
0
 10
4751.835881408735986
 20
526.7113577135593232
 30
0.0
 40
2.6948311873448998
 50
3.151705832644156
 51
8.8071612727577762
  0
ARC
  5
1D815
  8
0
 10
4752.0519180892797522
 20
526.6197053486373534
 30
0.0
 40
2.4205301295110409
 50
63.072604817618263
 51
77.0553860353884517
  0
ARC
  5
1D816
  8
0
 10
4752.0778301007048867
 20
526.6707202444647464
 30
0.0
 40
2.3633116715421671
 50
41.5939711235667602
 51
63.072604817618263
  0
ARC
  5
1D817
  8
0
 10
4752.1344932948049973
 20
526.72493842670292
 30
0.0
 40
2.284944360473705
 50
27.1598136346990309
 51
41.5204421629752076
  0
ARC
  5
1D818
  8
0
 10
4752.1807146239079884
 20
526.7486519964395484
 30
0.0
 40
2.232994917227169
 50
12.5705474162161508
 51
27.1598136346990309
  0
ARC
  5
1D819
  8
0
 10
4752.2030566491230275
 20
526.7531535095040454
 30
0.0
 40
2.2102087913519091
 50
349.8912027879587185
 51
12.5827040355266604
  0
ARC
  5
1D81A
  8
0
 10
4752.1694079969602171
 20
526.7592276025908404
 30
0.0
 40
2.2444012031853791
 50
328.5000893062477871
 51
349.8893172646227754
  0
ARC
  5
1D81B
  8
0
 10
4752.0757709669778706
 20
526.8172850424630269
 30
0.0
 40
2.3545748946373619
 50
313.1647222905426133
 51
328.4860471636097259
  0
ARC
  5
1D81C
  8
0
 10
4771.0888393565546721
 20
506.0803944816536841
 30
0.0
 40
25.7794728700642004
 50
132.4576563085232976
 51
134.5688183869613965
  0
ARC
  5
1D81D
  8
0
 10
4753.9191125232582635
 20
523.4153247807380467
 30
0.0
 40
1.3824223233117521
 50
131.7992857204120014
 51
162.0222657082416049
  0
ARC
  5
1D81E
  8
0
 10
4751.9957073181676606
 20
524.0369400041306562
 30
0.0
 40
0.638939942296518
 50
296.5255368715742748
 51
342.2364207578481228
  0
ARC
  5
1D81F
  8
0
 10
4752.4793396850791396
 20
524.5914171637776917
 30
0.0
 40
0.2614874277169646
 50
16.7151382258982508
 51
87.9589863002613157
  0
ARC
  5
1D820
  8
0
 10
4752.4673143174741199
 20
524.5681695067955843
 30
0.0
 40
0.2853680877351061
 50
85.711743582822038
 51
166.3350432546004072
  0
ARC
  5
1D821
  8
0
 10
4752.4338438048871467
 20
524.5877734477143122
 30
0.0
 40
0.2484636287079375
 50
168.9052127063822013
 51
220.8708343657118007
  0
ARC
  5
1D822
  8
0
 10
4752.4518828200471035
 20
524.612263426284926
 30
0.0
 40
0.2782107061337284
 50
222.2538934170617893
 51
297.3296454433182134
  0
ARC
  5
1D823
  8
0
 10
4752.4550790550792954
 20
524.6227201927617898
 30
0.0
 40
0.2861348871646518
 50
295.7995726397790008
 51
340.6002082094727825
  0
ARC
  5
1D824
  8
0
 10
4752.4980832276805813
 20
524.6050889805293309
 30
0.0
 40
0.2397274618040885
 50
341.1609232084201722
 51
14.8737179665843904
  0
ARC
  5
1D825
  8
0
 10
4752.2525525296778142
 20
526.8880905251363629
 30
0.0
 40
2.165059009626273
 50
356.3685534158021255
 51
3.0004891086062462
  0
ARC
  5
1D826
  8
0
 10
4752.2000228743745538
 20
526.7548644480882558
 30
0.0
 40
2.228302846177554
 50
339.5762535940036173
 51
20.4237464059964111
  0
ARC
  5
1D827
  8
0
 10
4752.1790088802454193
 20
526.7515732108846578
 30
0.0
 40
2.2491483715695288
 50
20.3155128176669493
 51
30.2808924637227506
  0
ARC
  5
1D828
  8
0
 10
4752.1045976552386492
 20
526.7028500738102821
 30
0.0
 40
2.3379797828994722
 50
30.3925061762412092
 51
53.3824621390361571
  0
ARC
  5
1D829
  8
0
 10
4752.0572847923285735
 20
526.6342918240253539
 30
0.0
 40
2.4212295187549731
 50
53.4515140054914397
 51
75.5305805032116524
  0
ARC
  5
1D82A
  8
0
 10
4752.1214481551660356
 20
526.7868671973272967
 30
0.0
 40
2.3131072815760612
 50
312.9343343060044731
 51
339.512557324491695
  0
ARC
  5
1D82B
  8
0
 10
4770.968163002289657
 20
506.1890206656115083
 30
0.0
 40
25.6059687808850711
 50
132.4150112587284127
 51
134.5475379736411981
  0
ARC
  5
1D82C
  8
0
 10
4753.9109389458308215
 20
523.4255797209852972
 30
0.0
 40
1.3578986487358879
 50
131.8169856747286985
 51
162.1352588475583048
  0
ARC
  5
1D82D
  8
0
 10
4751.9845009060709344
 20
524.0446134624869501
 30
0.0
 40
0.6655570156512045
 50
299.7640017054279724
 51
342.2892890738639835
  0
ARC
  5
1D82E
  8
0
 10
4752.3424862556803419
 20
526.8280781849146024
 30
0.0
 40
0.484533450678566
 50
6.7575946533275397
 51
84.5585972836186528
  0
ARC
  5
1D82F
  8
0
 10
4750.928203753879643
 20
526.6770163956573469
 30
0.0
 40
1.9068366086901221
 50
353.7662675279814835
 51
6.2646612409745659
  0
ARC
  5
1D830
  8
0
 10
4752.3333467108141122
 20
526.5306548698240476
 30
0.0
 40
0.4941600900686363
 50
276.4098597518831752
 51
352.9452486545259831
  0
ARC
  5
1D831
  8
0
 10
4752.2679338500984159
 20
528.6232234345128518
 30
0.0
 40
0.062590689727904
 50
47.8456712316837525
 51
132.1543287683161907
  0
ARC
  5
1D832
  8
0
 10
4752.2655435924807534
 20
528.6207167904254902
 30
0.0
 40
0.0660531989553283
 50
359.6941495915264113
 51
47.7678556161016274
  0
LINE
  5
1D833
  8
0
 10
4752.3315958503362708
 20
528.6203641934401958
 30
0.0
 11
4752.3315958503362708
 21
528.6080285317400467
 31
0.0
  0
ARC
  5
1D834
  8
0
 10
4752.2676191691643908
 20
528.6085819203649407
 30
0.0
 40
0.0639790744909813
 50
179.6137782401692959
 51
359.5044125247126203
  0
ARC
  5
1D835
  8
0
 10
4752.2733975112087137
 20
528.6185043029996677
 30
0.0
 40
0.0697615879069649
 50
132.8797928813814053
 51
179.1784630799857041
  0
LINE
  5
1D836
  8
0
 10
4752.2036430944363019
 20
528.6195045466402007
 30
0.0
 11
4752.2036415482389202
 21
528.6090131898897653
 31
0.0
  0
CIRCLE
  5
1D837
  8
0
 10
4752.2675861726347648
 20
528.6044546133401809
 30
0.0
 40
0.0240200923371025
  0
ARC
  5
1D838
  8
0
 10
4752.2652951316449617
 20
528.6513162615306101
 30
0.0
 40
0.0484335179907115
 50
243.673263463398996
 51
301.9245996241575085
  0
ARC
  5
1D839
  8
0
 10
4752.6989448711547084
 20
528.5281491798989464
 30
0.0
 40
0.062590689727904
 50
47.8456712316837525
 51
132.1543287683161907
  0
ARC
  5
1D83A
  8
0
 10
4752.696554613537046
 20
528.5256425358115848
 30
0.0
 40
0.0660531989553283
 50
359.6941495915264113
 51
47.7678556161016274
  0
LINE
  5
1D83B
  8
0
 10
4752.7626068713916538
 20
528.5252899388264041
 30
0.0
 11
4752.7626068713916538
 21
528.512954277126255
 31
0.0
  0
ARC
  5
1D83C
  8
0
 10
4752.6986301902197738
 20
528.513507665751149
 30
0.0
 40
0.0639790744909813
 50
179.6137782401692959
 51
359.5044125247126203
  0
ARC
  5
1D83D
  8
0
 10
4752.7044085322659157
 20
528.5234300483859897
 30
0.0
 40
0.0697615879069649
 50
132.8797928813814053
 51
179.1784630799857041
  0
LINE
  5
1D83E
  8
0
 10
4752.6346541154916849
 20
528.524430292026409
 30
0.0
 11
4752.6346525692952127
 21
528.5139389352759736
 31
0.0
  0
CIRCLE
  5
1D83F
  8
0
 10
4752.6985971936928763
 20
528.5093803587263892
 30
0.0
 40
0.0240200923371025
  0
ARC
  5
1D840
  8
0
 10
4753.0966154099751293
 20
528.3422567632961773
 30
0.0
 40
0.062590689727904
 50
47.8456712316837525
 51
132.1543287683161907
  0
ARC
  5
1D841
  8
0
 10
4753.0942251523565574
 20
528.3397501192089294
 30
0.0
 40
0.0660531989553283
 50
359.6941495915264113
 51
47.7678556161016274
  0
LINE
  5
1D842
  8
0
 10
4753.1602774102120748
 20
528.339397522223635
 30
0.0
 11
4753.1602774102120748
 21
528.3270618605235995
 31
0.0
  0
ARC
  5
1D843
  8
0
 10
4753.0963007290401947
 20
528.3276152491484936
 30
0.0
 40
0.0639790744909813
 50
179.6137782401692959
 51
359.5044125247126203
  0
ARC
  5
1D844
  8
0
 10
4753.1020790710854271
 20
528.3375376317833343
 30
0.0
 40
0.0697615879069649
 50
132.8797928813814053
 51
179.1784630799857041
  0
LINE
  5
1D845
  8
0
 10
4753.0323246543121058
 20
528.3385378754236399
 30
0.0
 11
4753.0323231081138147
 21
528.3280465186733181
 31
0.0
  0
CIRCLE
  5
1D846
  8
0
 10
4753.0962677325123877
 20
528.3234879421236201
 30
0.0
 40
0.0240200923371025
  0
ARC
  5
1D847
  8
0
 10
4752.8179509317778866
 20
527.9987401688921409
 30
0.0
 40
0.062590689727904
 50
47.8456712316837525
 51
132.1543287683161907
  0
ARC
  5
1D848
  8
0
 10
4752.8155606741602242
 20
527.996233524804552
 30
0.0
 40
0.0660531989553283
 50
359.6941495915264113
 51
47.7678556161016274
  0
LINE
  5
1D849
  8
0
 10
4752.881612932014832
 20
527.9958809278194849
 30
0.0
 11
4752.881612932014832
 21
527.9835452661194495
 31
0.0
  0
ARC
  5
1D84A
  8
0
 10
4752.8176362508438615
 20
527.9840986547442299
 30
0.0
 40
0.0639790744909813
 50
179.6137782401692959
 51
359.5044125247126203
  0
ARC
  5
1D84B
  8
0
 10
4752.8234145928890939
 20
527.9940210373790705
 30
0.0
 40
0.0697615879069649
 50
132.8797928813814053
 51
179.1784630799857041
  0
LINE
  5
1D84C
  8
0
 10
4752.7536601761148631
 20
527.9950212810193761
 30
0.0
 11
4752.7536586299183909
 21
527.9845299242690544
 31
0.0
  0
CIRCLE
  5
1D84D
  8
0
 10
4752.817603254315145
 20
527.97997134771947
 30
0.0
 40
0.0240200923371025
  0
ARC
  5
1D84E
  8
0
 10
4753.4423661127757441
 20
528.0746438620910794
 30
0.0
 40
0.062590689727904
 50
47.8456712316837525
 51
132.1543287683161907
  0
ARC
  5
1D84F
  8
0
 10
4753.4399758551571722
 20
528.0721372180038315
 30
0.0
 40
0.0660531989553283
 50
359.6941495915264113
 51
47.7678556161016274
  0
LINE
  5
1D850
  8
0
 10
4753.5060281130126896
 20
528.0717846210185371
 30
0.0
 11
4753.5060281130126896
 21
528.0594489593185017
 31
0.0
  0
ARC
  5
1D851
  8
0
 10
4753.442051431841719
 20
528.0600023479432821
 30
0.0
 40
0.0639790744909813
 50
179.6137782401692959
 51
359.5044125247126203
  0
ARC
  5
1D852
  8
0
 10
4753.4478297738860419
 20
528.0699247305781228
 30
0.0
 40
0.0697615879069649
 50
132.8797928813814053
 51
179.1784630799857041
  0
LINE
  5
1D853
  8
0
 10
4753.3780753571127207
 20
528.070924974218542
 30
0.0
 11
4753.378073810915339
 21
528.0604336174682203
 31
0.0
  0
CIRCLE
  5
1D854
  8
0
 10
4753.4420184353130026
 20
528.0558750409185222
 30
0.0
 40
0.0240200923371025
  0
ARC
  5
1D855
  8
0
 10
4753.7170139736990677
 20
527.7398323817775463
 30
0.0
 40
0.062590689727904
 50
47.8456712316837525
 51
132.1543287683161907
  0
ARC
  5
1D856
  8
0
 10
4753.7146237160814053
 20
527.7373257376901847
 30
0.0
 40
0.0660531989553283
 50
359.6941495915264113
 51
47.7678556161016274
  0
LINE
  5
1D857
  8
0
 10
4753.7806759739360132
 20
527.7369731407051177
 30
0.0
 11
4753.7806759739360132
 21
527.7246374790050822
 31
0.0
  0
ARC
  5
1D858
  8
0
 10
4753.7166992927650426
 20
527.7251908676297489
 30
0.0
 40
0.0639790744909813
 50
179.6137782401692959
 51
359.5044125247126203
  0
ARC
  5
1D859
  8
0
 10
4753.7224776348093656
 20
527.7351132502647033
 30
0.0
 40
0.0697615879069649
 50
132.8797928813814053
 51
179.1784630799857041
  0
LINE
  5
1D85A
  8
0
 10
4753.6527232180360443
 20
527.7361134939051226
 30
0.0
 11
4753.6527216718386626
 21
527.7256221371548008
 31
0.0
  0
CIRCLE
  5
1D85B
  8
0
 10
4753.7166662962363262
 20
527.7210635606051028
 30
0.0
 40
0.0240200923371025
  0
ARC
  5
1D85C
  8
0
 10
4753.909988244440683
 20
527.355737312341148
 30
0.0
 40
0.062590689727904
 50
47.8456712316837525
 51
132.1543287683161907
  0
ARC
  5
1D85D
  8
0
 10
4753.9075979868230206
 20
527.3532306682537865
 30
0.0
 40
0.0660531989553283
 50
359.6941495915264113
 51
47.7678556161016274
  0
LINE
  5
1D85E
  8
0
 10
4753.9736502446776285
 20
527.3528780712686057
 30
0.0
 11
4753.9736502446776285
 21
527.3405424095685703
 31
0.0
  0
ARC
  5
1D85F
  8
0
 10
4753.909673563506658
 20
527.3410957981933507
 30
0.0
 40
0.0639790744909813
 50
179.6137782401692959
 51
359.5044125247126203
  0
ARC
  5
1D860
  8
0
 10
4753.9154519055518904
 20
527.3510181808281914
 30
0.0
 40
0.0697615879069649
 50
132.8797928813814053
 51
179.1784630799857041
  0
LINE
  5
1D861
  8
0
 10
4753.8456974887776596
 20
527.3520184244686106
 30
0.0
 11
4753.8456959425811874
 21
527.3415270677181752
 31
0.0
  0
CIRCLE
  5
1D862
  8
0
 10
4753.909640566978851
 20
527.3369684911685908
 30
0.0
 40
0.0240200923371025
  0
ARC
  5
1D863
  8
0
 10
4754.0074972862512368
 20
526.9385726530257443
 30
0.0
 40
0.062590689727904
 50
47.8456712316837525
 51
132.1543287683161907
  0
ARC
  5
1D864
  8
0
 10
4754.0051070286335744
 20
526.9360660089383828
 30
0.0
 40
0.0660531989553283
 50
359.6941495915264113
 51
47.7678556161016274
  0
LINE
  5
1D865
  8
0
 10
4754.0711592864890918
 20
526.9357134119530883
 30
0.0
 11
4754.0711592864890918
 21
526.9233777502530529
 31
0.0
  0
ARC
  5
1D866
  8
0
 10
4754.0071826053172117
 20
526.923931138877947
 30
0.0
 40
0.0639790744909813
 50
179.6137782401692959
 51
359.5044125247126203
  0
ARC
  5
1D867
  8
0
 10
4754.0129609473624441
 20
526.933853521512674
 30
0.0
 40
0.0697615879069649
 50
132.8797928813814053
 51
179.1784630799857041
  0
LINE
  5
1D868
  8
0
 10
4753.9432065305891228
 20
526.934853765153207
 30
0.0
 11
4753.9432049843908317
 21
526.9243624084028852
 31
0.0
  0
CIRCLE
  5
1D869
  8
0
 10
4754.0071496087875857
 20
526.9198038318530735
 30
0.0
 40
0.0240200923371025
  0
ARC
  5
1D86A
  8
0
 10
4754.0079372509790119
 20
526.510210275811005
 30
0.0
 40
0.062590689727904
 50
47.8456712316837525
 51
132.1543287683161907
  0
ARC
  5
1D86B
  8
0
 10
4754.0055469933613495
 20
526.5077036317236434
 30
0.0
 40
0.0660531989553283
 50
359.6941495915264113
 51
47.7678556161016274
  0
LINE
  5
1D86C
  8
0
 10
4754.0715992512159573
 20
526.507351034738349
 30
0.0
 11
4754.0715992512159573
 21
526.4950153730381999
 31
0.0
  0
ARC
  5
1D86D
  8
0
 10
4754.0076225700440773
 20
526.4955687616632076
 30
0.0
 40
0.0639790744909813
 50
179.6137782401692959
 51
359.5044125247126203
  0
ARC
  5
1D86E
  8
0
 10
4754.0134009120884002
 20
526.5054911442980483
 30
0.0
 40
0.0697615879069649
 50
132.8797928813814053
 51
179.1784630799857041
  0
LINE
  5
1D86F
  8
0
 10
4753.9436464953159884
 20
526.5064913879383539
 30
0.0
 11
4753.9436449491176973
 21
526.4960000311880322
 31
0.0
  0
CIRCLE
  5
1D870
  8
0
 10
4754.0075895735162703
 20
526.4914414546383341
 30
0.0
 40
0.0240200923371025
  0
ARC
  5
1D871
  8
0
 10
4753.588996232799218
 20
526.703144507449565
 30
0.0
 40
0.062590689727904
 50
47.8456712316837525
 51
132.1543287683161907
  0
ARC
  5
1D872
  8
0
 10
4753.5866059751815556
 20
526.7006378633623171
 30
0.0
 40
0.0660531989553283
 50
359.6941495915264113
 51
47.7678556161016274
  0
LINE
  5
1D873
  8
0
 10
4753.6526582330370729
 20
526.7002852663770227
 30
0.0
 11
4753.6526582330370729
 21
526.6879496046769873
 31
0.0
  0
ARC
  5
1D874
  8
0
 10
4753.5886815518651929
 20
526.6885029933017677
 30
0.0
 40
0.0639790744909813
 50
179.6137782401692959
 51
359.5044125247126203
  0
ARC
  5
1D875
  8
0
 10
4753.5944598939104253
 20
526.698425375936722
 30
0.0
 40
0.0697615879069649
 50
132.8797928813814053
 51
179.1784630799857041
  0
LINE
  5
1D876
  8
0
 10
4753.524705477137104
 20
526.6994256195770276
 30
0.0
 11
4753.5247039309388128
 21
526.6889342628267059
 31
0.0
  0
CIRCLE
  5
1D877
  8
0
 10
4753.5886485553382954
 20
526.6843756862770078
 30
0.0
 40
0.0240200923371025
  0
ARC
  5
1D878
  8
0
 10
4753.9083577681067254
 20
526.0926052373514494
 30
0.0
 40
0.062590689727904
 50
47.8456712316837525
 51
132.1543287683161907
  0
ARC
  5
1D879
  8
0
 10
4753.905967510489063
 20
526.0900985932638605
 30
0.0
 40
0.0660531989553283
 50
359.6941495915264113
 51
47.7678556161016274
  0
LINE
  5
1D87A
  8
0
 10
4753.9720197683463994
 20
526.0897459962786797
 30
0.0
 11
4753.9720197683463994
 21
526.0774103345786443
 31
0.0
  0
ARC
  5
1D87B
  8
0
 10
4753.9080430871727003
 20
526.0779637232035384
 30
0.0
 40
0.0639790744909813
 50
179.6137782401692959
 51
359.5044125247126203
  0
ARC
  5
1D87C
  8
0
 10
4753.9138214292179327
 20
526.0878861058382654
 30
0.0
 40
0.0697615879069649
 50
132.8797928813814053
 51
179.1784630799857041
  0
LINE
  5
1D87D
  8
0
 10
4753.8440670124464305
 20
526.0888863494787984
 30
0.0
 11
4753.8440654662481393
 21
526.0783949927284766
 31
0.0
  0
CIRCLE
  5
1D87E
  8
0
 10
4753.9080100906458028
 20
526.0738364161786649
 30
0.0
 40
0.0240200923371025
  0
ARC
  5
1D87F
  8
0
 10
4753.4961052213329822
 20
526.1903989909598067
 30
0.0
 40
0.062590689727904
 50
47.8456712316837525
 51
132.1543287683161907
  0
ARC
  5
1D880
  8
0
 10
4753.4937149637153198
 20
526.1878923468724452
 30
0.0
 40
0.0660531989553283
 50
359.6941495915264113
 51
47.7678556161016274
  0
LINE
  5
1D881
  8
0
 10
4753.5597672215699276
 20
526.1875397498871507
 30
0.0
 11
4753.5597672215699276
 21
526.1752040881873427
 31
0.0
  0
ARC
  5
1D882
  8
0
 10
4753.4957905403989571
 20
526.1757574768121231
 30
0.0
 40
0.0639790744909813
 50
179.6137782401692959
 51
359.5044125247126203
  0
ARC
  5
1D883
  8
0
 10
4753.5015688824441895
 20
526.1856798594468501
 30
0.0
 40
0.0697615879069649
 50
132.8797928813814053
 51
179.1784630799857041
  0
LINE
  5
1D884
  8
0
 10
4753.4318144656699587
 20
526.1866801030872693
 30
0.0
 11
4753.4318129194716676
 21
526.1761887463369476
 31
0.0
  0
CIRCLE
  5
1D885
  8
0
 10
4753.4957575438702406
 20
526.1716301697872495
 30
0.0
 40
0.0240200923371025
  0
ARC
  5
1D886
  8
0
 10
4753.717802343790936
 20
525.7052875725629519
 30
0.0
 40
0.062590689727904
 50
47.8456712316837525
 51
132.1543287683161907
  0
ARC
  5
1D887
  8
0
 10
4753.7154120861714546
 20
525.7027809284757041
 30
0.0
 40
0.0660531989553283
 50
359.6941495915264113
 51
47.7678556161016274
  0
LINE
  5
1D888
  8
0
 10
4753.7814643440278815
 20
525.7024283314904096
 30
0.0
 11
4753.7814643440278815
 21
525.6900926697903742
 31
0.0
  0
ARC
  5
1D889
  8
0
 10
4753.7174876628560014
 20
525.6906460584151546
 30
0.0
 40
0.0639790744909813
 50
179.6137782401692959
 51
359.5044125247126203
  0
ARC
  5
1D88A
  8
0
 10
4753.7232660049012338
 20
525.7005684410499953
 30
0.0
 40
0.0697615879069649
 50
132.8797928813814053
 51
179.1784630799857041
  0
LINE
  5
1D88B
  8
0
 10
4753.6535115881279125
 20
525.7015686846904146
 30
0.0
 11
4753.6535100419314404
 21
525.6910773279399791
 31
0.0
  0
CIRCLE
  5
1D88C
  8
0
 10
4753.7174546663281944
 20
525.6865187513903948
 30
0.0
 40
0.0240200923371025
  0
ARC
  5
1D88D
  8
0
 10
4753.2274759691254076
 20
525.7376321234110037
 30
0.0
 40
0.062590689727904
 50
47.8456712316837525
 51
132.1543287683161907
  0
ARC
  5
1D88E
  8
0
 10
4753.2250857115059262
 20
525.7351254793236421
 30
0.0
 40
0.0660531989553283
 50
359.6941495915264113
 51
47.7678556161016274
  0
LINE
  5
1D88F
  8
0
 10
4753.291137969362353
 20
525.7347728823383477
 30
0.0
 11
4753.291137969362353
 21
525.7224372206381986
 31
0.0
  0
ARC
  5
1D890
  8
0
 10
4753.2271612881895635
 20
525.722990609262979
 30
0.0
 40
0.0639790744909813
 50
179.6137782401692959
 51
359.5044125247126203
  0
ARC
  5
1D891
  8
0
 10
4753.2329396302347959
 20
525.7329129918979334
 30
0.0
 40
0.0697615879069649
 50
132.8797928813814053
 51
179.1784630799857041
  0
LINE
  5
1D892
  8
0
 10
4753.1631852134623841
 20
525.7339132355383526
 30
0.0
 11
4753.1631836672640929
 21
525.7234218787880309
 31
0.0
  0
CIRCLE
  5
1D893
  8
0
 10
4753.227128291660847
 20
525.7188633022383328
 30
0.0
 40
0.0240200923371025
  0
ARC
  5
1D894
  8
0
 10
4752.9187359595816815
 20
526.0240515106377188
 30
0.0
 40
0.062590689727904
 50
47.8456712316837525
 51
132.1543287683161907
  0
ARC
  5
1D895
  8
0
 10
4752.9163457019640191
 20
526.0215448665502436
 30
0.0
 40
0.0660531989553283
 50
359.6941495915264113
 51
47.7678556161016274
  0
LINE
  5
1D896
  8
0
 10
4752.982397959820446
 20
526.0211922695649491
 30
0.0
 11
4752.982397959820446
 21
526.0088566078650274
 31
0.0
  0
ARC
  5
1D897
  8
0
 10
4752.9184212786467469
 20
526.0094099964898078
 30
0.0
 40
0.0639790744909813
 50
179.6137782401692959
 51
359.5044125247126203
  0
ARC
  5
1D898
  8
0
 10
4752.9241996206919794
 20
526.0193323791246485
 30
0.0
 40
0.0697615879069649
 50
132.8797928813814053
 51
179.1784630799857041
  0
LINE
  5
1D899
  8
0
 10
4752.8544452039195676
 20
526.0203326227649541
 30
0.0
 11
4752.8544436577221859
 21
526.009841266014746
 31
0.0
  0
CIRCLE
  5
1D89A
  8
0
 10
4752.9183882821198495
 20
526.005282689465048
 30
0.0
 40
0.0240200923371025
  0
ARC
  5
1D89B
  8
0
 10
4753.07103500352423
 20
526.2837447749635658
 30
0.0
 40
0.062590689727904
 50
47.8456712316837525
 51
132.1543287683161907
  0
ARC
  5
1D89C
  8
0
 10
4753.0686447459047486
 20
526.2812381308763179
 30
0.0
 40
0.0660531989553283
 50
359.6941495915264113
 51
47.7678556161016274
  0
LINE
  5
1D89D
  8
0
 10
4753.1346970037611754
 20
526.2808855338910234
 30
0.0
 11
4753.1346970037611754
 21
526.2685498721911017
 31
0.0
  0
ARC
  5
1D89E
  8
0
 10
4753.0707203225892954
 20
526.2691032608158821
 30
0.0
 40
0.0639790744909813
 50
179.6137782401692959
 51
359.5044125247126203
  0
ARC
  5
1D89F
  8
0
 10
4753.0764986646336183
 20
526.2790256434507228
 30
0.0
 40
0.0697615879069649
 50
132.8797928813814053
 51
179.1784630799857041
  0
LINE
  5
1D8A0
  8
0
 10
4753.0067442478612065
 20
526.2800258870909147
 30
0.0
 11
4753.0067427016629154
 21
526.2695345303407066
 31
0.0
  0
CIRCLE
  5
1D8A1
  8
0
 10
4753.0706873260605789
 20
526.2649759537911223
 30
0.0
 40
0.0240200923371025
  0
ARC
  5
1D8A2
  8
0
 10
4753.4955027687237816
 20
527.2149546565333367
 30
0.0
 40
0.062590689727904
 50
47.8456712316837525
 51
132.1543287683161907
  0
ARC
  5
1D8A3
  8
0
 10
4753.4931125111061192
 20
527.2124480124458614
 30
0.0
 40
0.0660531989553283
 50
359.6941495915264113
 51
47.7678556161016274
  0
LINE
  5
1D8A4
  8
0
 10
4753.5591647689607271
 20
527.2120954154606807
 30
0.0
 11
4753.5591647689607271
 21
527.1997597537606453
 31
0.0
  0
ARC
  5
1D8A5
  8
0
 10
4753.495188087788847
 20
527.2003131423855393
 30
0.0
 40
0.0639790744909813
 50
179.6137782401692959
 51
359.5044125247126203
  0
ARC
  5
1D8A6
  8
0
 10
4753.500966429834989
 20
527.2102355250202663
 30
0.0
 40
0.0697615879069649
 50
132.8797928813814053
 51
179.1784630799857041
  0
LINE
  5
1D8A7
  8
0
 10
4753.4312120130607582
 20
527.2112357686606856
 30
0.0
 11
4753.431210466864286
 21
527.2007444119102502
 31
0.0
  0
CIRCLE
  5
1D8A8
  8
0
 10
4753.4951550912619496
 20
527.1961858353605521
 30
0.0
 40
0.0240200923371025
  0
ARC
  5
1D8A9
  8
0
 10
4753.0709343282069312
 20
527.090225372027362
 30
0.0
 40
0.062590689727904
 50
47.8456712316837525
 51
132.1543287683161907
  0
ARC
  5
1D8AA
  8
0
 10
4753.0685440705892688
 20
527.0877187279401141
 30
0.0
 40
0.0660531989553283
 50
359.6941495915264113
 51
47.7678556161016274
  0
LINE
  5
1D8AB
  8
0
 10
4753.1345963284447862
 20
527.0873661309548197
 30
0.0
 11
4753.1345963284447862
 21
527.0750304692547843
 31
0.0
  0
ARC
  5
1D8AC
  8
0
 10
4753.0706196472729061
 20
527.0755838578795647
 30
0.0
 40
0.0639790744909813
 50
179.6137782401692959
 51
359.5044125247126203
  0
ARC
  5
1D8AD
  8
0
 10
4753.0763979893181386
 20
527.0855062405144054
 30
0.0
 40
0.0697615879069649
 50
132.8797928813814053
 51
179.1784630799857041
  0
LINE
  5
1D8AE
  8
0
 10
4753.0066435725448173
 20
527.0865064841548246
 30
0.0
 11
4753.0066420263474356
 21
527.0760151274043892
 31
0.0
  0
CIRCLE
  5
1D8AF
  8
0
 10
4753.0705866507450992
 20
527.0714565508548048
 30
0.0
 40
0.0240200923371025
  0
ARC
  5
1D8B0
  8
0
 10
4752.9178793797636899
 20
527.3488900477650532
 30
0.0
 40
0.062590689727904
 50
47.8456712316837525
 51
132.1543287683161907
  0
ARC
  5
1D8B1
  8
0
 10
4752.915489122146937
 20
527.3463834036776916
 30
0.0
 40
0.0660531989553283
 50
359.6941495915264113
 51
47.7678556161016274
  0
LINE
  5
1D8B2
  8
0
 10
4752.9815413800024544
 20
527.3460308066923972
 30
0.0
 11
4752.9815413800024544
 21
527.3336951449923617
 31
0.0
  0
ARC
  5
1D8B3
  8
0
 10
4752.9175646988296648
 20
527.3342485336172558
 30
0.0
 40
0.0639790744909813
 50
179.6137782401692959
 51
359.5044125247126203
  0
ARC
  5
1D8B4
  8
0
 10
4752.9233430408748973
 20
527.3441709162519828
 30
0.0
 40
0.0697615879069649
 50
132.8797928813814053
 51
179.1784630799857041
  0
LINE
  5
1D8B5
  8
0
 10
4752.853588624101576
 20
527.3451711598925158
 30
0.0
 11
4752.8535870779051038
 21
527.334679803142194
 31
0.0
  0
CIRCLE
  5
1D8B6
  8
0
 10
4752.9175317023009484
 20
527.3301212265923823
 30
0.0
 40
0.0240200923371025
  0
ARC
  5
1D8B7
  8
0
 10
4753.2267760397799066
 20
527.6643727930639898
 30
0.0
 40
0.062590689727904
 50
47.8456712316837525
 51
132.1543287683161907
  0
ARC
  5
1D8B8
  8
0
 10
4753.2243857821613346
 20
527.6618661489766282
 30
0.0
 40
0.0660531989553283
 50
359.6941495915264113
 51
47.7678556161016274
  0
LINE
  5
1D8B9
  8
0
 10
4753.290438040016852
 20
527.6615135519913338
 30
0.0
 11
4753.290438040016852
 21
527.6491778902911847
 31
0.0
  0
ARC
  5
1D8BA
  8
0
 10
4753.226461358844972
 20
527.649731278915965
 30
0.0
 40
0.0639790744909813
 50
179.6137782401692959
 51
359.5044125247126203
  0
ARC
  5
1D8BB
  8
0
 10
4753.2322397008902044
 20
527.6596536615508057
 30
0.0
 40
0.0697615879069649
 50
132.8797928813814053
 51
179.1784630799857041
  0
LINE
  5
1D8BC
  8
0
 10
4753.1624852841168831
 20
527.6606539051913387
 30
0.0
 11
4753.1624837379185919
 21
527.650162548441017
 31
0.0
  0
CIRCLE
  5
1D8BD
  8
0
 10
4753.2264283623162555
 20
527.6456039718913189
 30
0.0
 40
0.0240200923371025
  0
ARC
  5
1D8BE
  8
0
 10
4752.3154487611891454
 20
528.1765808524035037
 30
0.0
 40
0.062590689727904
 50
47.8456712316837525
 51
132.1543287683161907
  0
ARC
  5
1D8BF
  8
0
 10
4752.3130585035705735
 20
528.1740742083160285
 30
0.0
 40
0.0660531989553283
 50
359.6941495915264113
 51
47.7678556161016274
  0
LINE
  5
1D8C0
  8
0
 10
4752.3791107614270004
 20
528.1737216113308477
 30
0.0
 11
4752.3791107614270004
 21
528.1613859496308123
 31
0.0
  0
ARC
  5
1D8C1
  8
0
 10
4752.3151340802542109
 20
528.161939338255479
 30
0.0
 40
0.0639790744909813
 50
179.6137782401692959
 51
359.5044125247126203
  0
ARC
  5
1D8C2
  8
0
 10
4752.3209124223003528
 20
528.1718617208904334
 30
0.0
 40
0.0697615879069649
 50
132.8797928813814053
 51
179.1784630799857041
  0
LINE
  5
1D8C3
  8
0
 10
4752.2511580055270315
 20
528.1728619645308527
 30
0.0
 11
4752.2511564593287403
 21
528.1623706077805309
 31
0.0
  0
CIRCLE
  5
1D8C4
  8
0
 10
4752.3151010837264039
 20
528.1578120312308329
 30
0.0
 40
0.0240200923371025
  0
ARC
  5
1D8C5
  8
0
 10
4752.2004634759950932
 20
527.7501471061840448
 30
0.0
 40
0.062590689727904
 50
47.8456712316837525
 51
132.1543287683161907
  0
ARC
  5
1D8C6
  8
0
 10
4752.1980732183756118
 20
527.7476404620966832
 30
0.0
 40
0.0660531989553283
 50
359.6941495915264113
 51
47.7678556161016274
  0
LINE
  5
1D8C7
  8
0
 10
4752.2641254762320386
 20
527.7472878651113888
 30
0.0
 11
4752.2641254762320386
 21
527.7349522034113534
 31
0.0
  0
ARC
  5
1D8C8
  8
0
 10
4752.2001487950601586
 20
527.7355055920361337
 30
0.0
 40
0.0639790744909813
 50
179.6137782401692959
 51
359.5044125247126203
  0
ARC
  5
1D8C9
  8
0
 10
4752.205927137105391
 20
527.7454279746708607
 30
0.0
 40
0.0697615879069649
 50
132.8797928813814053
 51
179.1784630799857041
  0
LINE
  5
1D8CA
  8
0
 10
4752.1361727203320697
 20
527.7464282183113937
 30
0.0
 11
4752.136171174134688
 21
527.7359368615609583
 31
0.0
  0
CIRCLE
  5
1D8CB
  8
0
 10
4752.2001157985323516
 20
527.7313782850112602
 30
0.0
 40
0.0240200923371025
  0
ARC
  5
1D8CC
  8
0
 10
4752.1978247575407295
 20
527.7782399332019168
 30
0.0
 40
0.0484335179907115
 50
243.673263463398996
 51
301.9245996241575085
  0
ARC
  5
1D8CD
  8
0
 10
4753.4426113639237883
 20
525.3682235757172521
 30
0.0
 40
0.062590689727904
 50
47.8456712316837525
 51
132.1543287683161907
  0
ARC
  5
1D8CE
  8
0
 10
4753.4402211063061259
 20
525.3657169316296631
 30
0.0
 40
0.0660531989553283
 50
359.6941495915264113
 51
47.7678556161016274
  0
LINE
  5
1D8CF
  8
0
 10
4753.5062733641616433
 20
525.3653643346445961
 30
0.0
 11
4753.5062733641616433
 21
525.353028672944447
 31
0.0
  0
ARC
  5
1D8D0
  8
0
 10
4753.4422966829888537
 20
525.353582061569341
 30
0.0
 40
0.0639790744909813
 50
179.6137782401692959
 51
359.5044125247126203
  0
ARC
  5
1D8D1
  8
0
 10
4753.4480750250349956
 20
525.3635044442041817
 30
0.0
 40
0.0697615879069649
 50
132.8797928813814053
 51
179.1784630799857041
  0
LINE
  5
1D8D2
  8
0
 10
4753.3783206082616744
 20
525.3645046878444873
 30
0.0
 11
4753.3783190620642927
 21
525.3540133310941656
 31
0.0
  0
CIRCLE
  5
1D8D3
  8
0
 10
4753.4422636864610467
 20
525.3494547545445812
 30
0.0
 40
0.0240200923371025
  0
ARC
  5
1D8D4
  8
0
 10
4752.8173978972354234
 20
525.3987109344634518
 30
0.0
 40
0.062590689727904
 50
47.8456712316837525
 51
132.1543287683161907
  0
ARC
  5
1D8D5
  8
0
 10
4752.8150076396168515
 20
525.3962042903760903
 30
0.0
 40
0.0660531989553283
 50
359.6941495915264113
 51
47.7678556161016274
  0
LINE
  5
1D8D6
  8
0
 10
4752.8810598974741879
 20
525.3958516933907958
 30
0.0
 11
4752.8810598974741879
 21
525.3835160316908741
 31
0.0
  0
ARC
  5
1D8D7
  8
0
 10
4752.8170832163013984
 20
525.3840694203156545
 30
0.0
 40
0.0639790744909813
 50
179.6137782401692959
 51
359.5044125247126203
  0
ARC
  5
1D8D8
  8
0
 10
4752.8228615583457213
 20
525.3939918029506089
 30
0.0
 40
0.0697615879069649
 50
132.8797928813814053
 51
179.1784630799857041
  0
LINE
  5
1D8D9
  8
0
 10
4752.753107141574219
 20
525.3949920465909145
 30
0.0
 11
4752.7531055953759278
 21
525.3845006898405927
 31
0.0
  0
CIRCLE
  5
1D8DA
  8
0
 10
4752.8170502197717724
 20
525.379942113290781
 30
0.0
 40
0.0240200923371025
  0
ARC
  5
1D8DB
  8
0
 10
4753.097321096764972
 20
525.0954169792762514
 30
0.0
 40
0.062590689727904
 50
47.8456712316837525
 51
132.1543287683161907
  0
ARC
  5
1D8DC
  8
0
 10
4753.0949308391464001
 20
525.0929103351888898
 30
0.0
 40
0.0660531989553283
 50
359.6941495915264113
 51
47.7678556161016274
  0
LINE
  5
1D8DD
  8
0
 10
4753.1609830970019175
 20
525.0925577382035954
 30
0.0
 11
4753.1609830970019175
 21
525.0802220765036736
 31
0.0
  0
ARC
  5
1D8DE
  8
0
 10
4753.0970064158300374
 20
525.080775465128454
 30
0.0
 40
0.0639790744909813
 50
179.6137782401692959
 51
359.5044125247126203
  0
ARC
  5
1D8DF
  8
0
 10
4753.1027847578752699
 20
525.0906978477634084
 30
0.0
 40
0.0697615879069649
 50
132.8797928813814053
 51
179.1784630799857041
  0
LINE
  5
1D8E0
  8
0
 10
4753.0330303411019486
 20
525.091698091403714
 30
0.0
 11
4753.0330287949045669
 21
525.0812067346533922
 31
0.0
  0
CIRCLE
  5
1D8E1
  8
0
 10
4753.0969734193022305
 20
525.0766481581036942
 30
0.0
 40
0.0240200923371025
  0
ARC
  5
1D8E2
  8
0
 10
4752.3148586231136505
 20
525.2157630712849823
 30
0.0
 40
0.062590689727904
 50
47.8456712316837525
 51
132.1543287683161907
  0
ARC
  5
1D8E3
  8
0
 10
4752.3124683654968976
 20
525.213256427197507
 30
0.0
 40
0.0660531989553283
 50
359.6941495915264113
 51
47.7678556161016274
  0
LINE
  5
1D8E4
  8
0
 10
4752.378520623352415
 20
525.2129038302123263
 30
0.0
 11
4752.378520623352415
 21
525.2005681685122909
 31
0.0
  0
ARC
  5
1D8E5
  8
0
 10
4752.3145439421796254
 20
525.2011215571369576
 30
0.0
 40
0.0639790744909813
 50
179.6137782401692959
 51
359.5044125247126203
  0
ARC
  5
1D8E6
  8
0
 10
4752.3203222842257674
 20
525.2110439397719119
 30
0.0
 40
0.0697615879069649
 50
132.8797928813814053
 51
179.1784630799857041
  0
LINE
  5
1D8E7
  8
0
 10
4752.2505678674524461
 20
525.2120441834123312
 30
0.0
 11
4752.2505663212541549
 21
525.2015528266618958
 31
0.0
  0
CIRCLE
  5
1D8E8
  8
0
 10
4752.314510945652728
 20
525.1969942501123114
 30
0.0
 40
0.0240200923371025
  0
ARC
  5
1D8E9
  8
0
 10
4752.2004075808026755
 20
525.6172518020920279
 30
0.0
 40
0.062590689727904
 50
47.8456712316837525
 51
132.1543287683161907
  0
ARC
  5
1D8EA
  8
0
 10
4752.1980173231850131
 20
525.6147451580045526
 30
0.0
 40
0.0660531989553283
 50
359.6941495915264113
 51
47.7678556161016274
  0
LINE
  5
1D8EB
  8
0
 10
4752.264069581039621
 20
525.6143925610192582
 30
0.0
 11
4752.264069581039621
 21
525.6020568993193365
 31
0.0
  0
ARC
  5
1D8EC
  8
0
 10
4752.2000928998677409
 20
525.6026102879441169
 30
0.0
 40
0.0639790744909813
 50
179.6137782401692959
 51
359.5044125247126203
  0
ARC
  5
1D8ED
  8
0
 10
4752.2058712419138828
 20
525.6125326705788439
 30
0.0
 40
0.0697615879069649
 50
132.8797928813814053
 51
179.1784630799857041
  0
LINE
  5
1D8EE
  8
0
 10
4752.1361168251396521
 20
525.6135329142192631
 30
0.0
 11
4752.1361152789422704
 21
525.6030415574690551
 31
0.0
  0
CIRCLE
  5
1D8EF
  8
0
 10
4752.2000599033408434
 20
525.5984829809192433
 30
0.0
 40
0.0240200923371025
  0
ARC
  5
1D8F0
  8
0
 10
4752.3123664405211457
 20
528.2136136669236066
 30
0.0
 40
0.046216884057309
 50
247.8064369827943949
 51
297.8048057814177128
  0
ARC
  5
1D8F1
  8
0
 10
4752.691326741712146
 20
528.5571324385722392
 30
0.0
 40
0.0485186194774836
 50
249.9293989759040926
 51
307.3846700667123173
  0
ARC
  5
1D8F2
  8
0
 10
4753.0849653633358685
 20
528.3735464483814894
 30
0.0
 40
0.0486880336204846
 50
255.088923610008095
 51
310.3572513693420092
  0
ARC
  5
1D8F3
  8
0
 10
4753.4264431598221563
 20
528.1098178321248042
 30
0.0
 40
0.0489053462283405
 50
260.8596017264815146
 51
311.3511613329570764
  0
ARC
  5
1D8F4
  8
0
 10
4753.6985562095487694
 20
527.7794888994561688
 30
0.0
 40
0.0493887436576194
 50
265.2658293365320219
 51
309.1778787660231842
  0
ARC
  5
1D8F5
  8
0
 10
4753.8877354859878324
 20
527.398874086606952
 30
0.0
 40
0.0499192785148802
 50
271.2584303276889273
 51
307.713868535597328
  0
ARC
  5
1D8F6
  8
0
 10
4753.9845037145360038
 20
526.9869787343401413
 30
0.0
 40
0.0505389505999387
 50
276.3920549737878218
 51
300.8677592914962133
  0
ARC
  5
1D8F7
  8
0
 10
4753.4834073499041551
 20
527.2609319243123309
 30
0.0
 40
0.0473604780786476
 50
264.438993700826984
 51
296.1291082689476184
  0
ARC
  5
1D8F8
  8
0
 10
4753.2181487323250622
 20
527.7066118733316671
 30
0.0
 40
0.0468109983214356
 50
257.3939982499061898
 51
298.0632503363614774
  0
ARC
  5
1D8F9
  8
0
 10
4752.8114387793120841
 20
528.0374746233928818
 30
0.0
 40
0.0464062727341882
 50
252.5864498282049055
 51
299.6512750434562804
  0
ARC
  5
1D8FA
  8
0
 10
4752.5990161344507214
 20
527.6120410839140504
 30
0.0
 40
0.128249399367851
 50
60.6100764392181901
 51
158.0415065764495068
  0
ARC
  5
1D8FB
  8
0
 10
4752.6009272170131226
 20
527.6149652377511075
 30
0.0
 40
0.1247639311470232
 50
354.9931687480109872
 51
60.7157445010211987
  0
ARC
  5
1D8FC
  8
0
 10
4752.5988529848627877
 20
527.6151469587515521
 30
0.0
 40
0.1268461082617633
 50
289.3478483417216012
 51
354.9931687480109872
  0
ARC
  5
1D8FD
  8
0
 10
4752.5982330243814431
 20
527.6169125598169103
 30
0.0
 40
0.1287173907419627
 50
207.7797000132119081
 51
289.3478483417216012
  0
ARC
  5
1D8FE
  8
0
 10
4752.5959064358648902
 20
527.6131805638450487
 30
0.0
 40
0.1249392476597612
 50
157.9928923481427034
 51
206.7627213225206049
  0
ARC
  5
1D8FF
  8
0
 10
4752.6026042056473671
 20
527.601881565617532
 30
0.0
 40
0.0558191365723745
 50
61.2434673042647404
 51
179.5514835219264
  0
ARC
  5
1D900
  8
0
 10
4752.6007194751100542
 20
527.6023944762190467
 30
0.0
 40
0.0539327492636905
 50
180.080694334628987
 51
271.6798479216155897
  0
ARC
  5
1D901
  8
0
 10
4752.6011869762596689
 20
527.6043112794312719
 30
0.0
 40
0.0558374780349879
 50
271.1426774016475747
 51
359.586439441167272
  0
ARC
  5
1D902
  8
0
 10
4752.6033807774720117
 20
527.6039395725050554
 30
0.0
 40
0.0536422314252202
 50
359.9665424038640822
 51
60.9131149875479565
  0
ARC
  5
1D903
  8
0
 10
4753.1553561697655823
 20
526.6767463877546334
 30
0.0
 40
0.128249399367851
 50
60.6100764392181901
 51
158.0415065764495068
  0
ARC
  5
1D904
  8
0
 10
4753.1572672523270739
 20
526.6796705415913493
 30
0.0
 40
0.1247639311470232
 50
354.9931687480109872
 51
60.7157445010211987
  0
ARC
  5
1D905
  8
0
 10
4753.1551930201758296
 20
526.6798522625919077
 30
0.0
 40
0.1268461082617633
 50
289.3478483417216012
 51
354.9931687480109872
  0
ARC
  5
1D906
  8
0
 10
4753.1545730596953945
 20
526.6816178636571522
 30
0.0
 40
0.1287173907419627
 50
207.7797000132119081
 51
289.3478483417216012
  0
ARC
  5
1D907
  8
0
 10
4753.1522464711788416
 20
526.677885867685518
 30
0.0
 40
0.1249392476597612
 50
157.9928923481427034
 51
206.7627213225206049
  0
ARC
  5
1D908
  8
0
 10
4753.1589442409604089
 20
526.6665868694578876
 30
0.0
 40
0.0558191365723745
 50
61.2434673042647404
 51
179.5514835219264
  0
ARC
  5
1D909
  8
0
 10
4753.1570595104240056
 20
526.6670997800594023
 30
0.0
 40
0.0539327492636905
 50
180.080694334628987
 51
271.6798479216155897
  0
ARC
  5
1D90A
  8
0
 10
4753.1575270115736203
 20
526.6690165832717412
 30
0.0
 40
0.0558374780349879
 50
271.1426774016475747
 51
359.586439441167272
  0
ARC
  5
1D90B
  8
0
 10
4753.1597208127859631
 20
526.6686448763455246
 30
0.0
 40
0.0536422314252202
 50
359.9665424038640822
 51
60.9131149875479565
  0
ARC
  5
1D90C
  8
0
 10
4752.5984238373339394
 20
525.7352004815929831
 30
0.0
 40
0.128249399367851
 50
60.6100764392181901
 51
158.0415065764495068
  0
ARC
  5
1D90D
  8
0
 10
4752.6003349198972501
 20
525.7381246354300401
 30
0.0
 40
0.1247639311470232
 50
354.9931687480109872
 51
60.7157445010211987
  0
ARC
  5
1D90E
  8
0
 10
4752.5982606877460057
 20
525.7383063564303711
 30
0.0
 40
0.1268461082617633
 50
289.3478483417216012
 51
354.9931687480109872
  0
ARC
  5
1D90F
  8
0
 10
4752.5976407272637516
 20
525.740071957495843
 30
0.0
 40
0.1287173907419627
 50
207.7797000132119081
 51
289.3478483417216012
  0
ARC
  5
1D910
  8
0
 10
4752.5953141387481082
 20
525.7363399615239814
 30
0.0
 40
0.1249392476597612
 50
157.9928923481427034
 51
206.7627213225206049
  0
ARC
  5
1D911
  8
0
 10
4752.6020119085305851
 20
525.7250409632964647
 30
0.0
 40
0.0558191365723745
 50
61.2434673042647404
 51
179.5514835219264
  0
ARC
  5
1D912
  8
0
 10
4752.6001271779941817
 20
525.7255538738979794
 30
0.0
 40
0.0539327492636905
 50
180.080694334628987
 51
271.6798479216155897
  0
ARC
  5
1D913
  8
0
 10
4752.6005946791428869
 20
525.7274706771103183
 30
0.0
 40
0.0558374780349879
 50
271.1426774016475747
 51
359.586439441167272
  0
ARC
  5
1D914
  8
0
 10
4752.6027884803552297
 20
525.7270989701838744
 30
0.0
 40
0.0536422314252202
 50
359.9665424038640822
 51
60.9131149875479565
  0
ARC
  5
1D915
  8
0
 10
4753.157009462039241
 20
526.7139173346841972
 30
0.0
 40
0.0559199727901974
 50
207.5344518249094108
 51
336.3803315133462206
  0
ARC
  5
1D916
  8
0
 10
4752.6018976185778229
 20
527.6493335693965037
 30
0.0
 40
0.0558743184012458
 50
206.0570034086001954
 51
334.832446963668076
  0
ARC
  5
1D917
  8
0
 10
4752.6018989970771145
 20
525.7733749631331648
 30
0.0
 40
0.0558926913981803
 50
205.8494263500948875
 51
333.604840987345824
  0
ARC
  5
1D918
  8
0
 10
4752.5192277242622367
 20
526.9230555978651864
 30
0.0
 40
0.1418254424250814
 50
233.2892976753431071
 51
306.7107023246570066
  0
ARC
  5
1D919
  8
0
 10
4752.5246602592096679
 20
526.9156750104029925
 30
0.0
 40
0.1326612703090856
 50
306.7352608623334049
 51
339.1761141516299176
  0
ARC
  5
1D91A
  8
0
 10
4752.5268833761829228
 20
526.9146333091448469
 30
0.0
 40
0.1302131805417373
 50
339.2567883939757962
 51
358.0740621032343824
  0
ARC
  5
1D91B
  8
0
 10
4752.5145210990358464
 20
526.9162689181960104
 30
0.0
 40
0.1335716046733026
 50
204.1531876488288901
 51
233.1675718893737042
  0
ARC
  5
1D91C
  8
0
 10
4752.5117844572750982
 20
526.9146859257029973
 30
0.0
 40
0.1304272217889072
 50
181.9459033646373882
 51
204.0105770145920019
  0
ARC
  5
1D91D
  8
0
 10
4752.5192004140208155
 20
526.8995526915380196
 30
0.0
 40
0.1428979757550473
 50
42.3638094295984402
 51
137.8280349625842121
  0
ARC
  5
1D91E
  8
0
 10
4752.5265488096429181
 20
526.9099748977496347
 30
0.0
 40
0.1304744954946639
 50
0.1239479749875997
 51
41.1564709686131494
  0
ARC
  5
1D91F
  8
0
 10
4752.5123196928379912
 20
526.9098992165285154
 30
0.0
 40
0.1308877336244752
 50
139.1627276941320872
 51
179.8433139879255975
  0
ARC
  5
1D920
  8
0
 10
4752.5192275292820341
 20
526.9351038948844916
 30
0.0
 40
0.0866834097997671
 50
45.0663738305260111
 51
135.7667048244975092
  0
ARC
  5
1D921
  8
0
 10
4752.5181496276018152
 20
526.9347591120874768
 30
0.0
 40
0.0876903376226747
 50
315.274313177278998
 51
44.7268988484023424
  0
ARC
  5
1D922
  8
0
 10
4752.5192277241540069
 20
526.9336912895628302
 30
0.0
 40
0.0861729263010435
 50
224.7256856418493101
 51
315.274313177278998
  0
ARC
  5
1D923
  8
0
 10
4752.520307014093305
 20
526.9347645909656421
 30
0.0
 40
0.0876950411176332
 50
136.099861399134511
 51
224.7276802517143039
  0
ARC
  5
1D924
  8
0
 10
4752.5192277579617439
 20
526.9337128952367948
 30
0.0
 40
0.0571362020033051
 50
45.0696125521451023
 51
134.9304382038793051
  0
ARC
  5
1D925
  8
0
 10
4752.5192276904590472
 20
526.9339607314159366
 30
0.0
 40
0.057136202075738
 50
225.0696126788660081
 51
314.9304381312114174
  0
ARC
  5
1D926
  8
0
 10
4752.5193522741437846
 20
526.9338368469440184
 30
0.0
 40
0.0569605092917188
 50
314.9297262414818874
 51
45.0702287636332528
  0
ARC
  5
1D927
  8
0
 10
4752.519103174106931
 20
526.9338367796065086
 30
0.0
 40
0.0569605091715283
 50
134.9297261205323082
 51
225.0702289392415878
  0
ARC
  5
1D928
  8
0
 10
4752.5210988129565521
 20
526.9506108694876048
 30
0.0
 40
0.0414365471922111
 50
0.2950234546232193
 51
56.9638205083484692
  0
ARC
  5
1D929
  8
0
 10
4752.5199353606058139
 20
526.9515807544102017
 30
0.0
 40
0.0426061672528636
 50
269.048441478448126
 51
358.9825911551537843
  0
ARC
  5
1D92A
  8
0
 10
4752.5184475976229805
 20
526.9515057265160749
 30
0.0
 40
0.0425324201309187
 50
180.9180879568586136
 51
271.0510723171706218
  0
ARC
  5
1D92B
  8
0
 10
4752.5173587073259114
 20
526.9506103809181923
 30
0.0
 40
0.0414386214948745
 50
123.0439909971604067
 51
179.7043157761127929
  0
ARC
  5
1D92C
  8
0
 10
4752.5192276958759976
 20
526.9646929125484576
 30
0.0
 40
0.0435451974825305
 50
190.3678982371739892
 51
349.6325194807333219
  0
ARC
  5
1D92D
  8
0
 10
4752.5192275619865541
 20
526.9532919807419376
 30
0.0
 40
0.0571602567105988
 50
236.1808278110034109
 51
303.5872619895496882
  0
ARC
  5
1D92E
  8
0
 10
4752.519129367466121
 20
526.953145405639475
 30
0.0
 40
0.0569838298852732
 50
189.7467061599000999
 51
236.1808278110034109
  0
ARC
  5
1D92F
  8
0
 10
4752.5193597679772211
 20
526.9531237412602422
 30
0.0
 40
0.0569469711393633
 50
303.5700951921353976
 51
350.2690513540666188
  0
ARC
  5
1D930
  8
0
 10
4752.5192277242622367
 20
526.4664746822821826
 30
0.0
 40
0.1418254424250814
 50
233.2892976753431071
 51
306.7107023246570066
  0
ARC
  5
1D931
  8
0
 10
4752.5246602592096679
 20
526.4590940948197613
 30
0.0
 40
0.1326612703090856
 50
306.7352608623334049
 51
339.1761141516299176
  0
ARC
  5
1D932
  8
0
 10
4752.5268833761829228
 20
526.4580523935617293
 30
0.0
 40
0.1302131805417373
 50
339.2567883939757962
 51
358.0740621032343824
  0
ARC
  5
1D933
  8
0
 10
4752.5145210990358464
 20
526.4596880026128929
 30
0.0
 40
0.1335716046733026
 50
204.1531876488288901
 51
233.1675718893737042
  0
ARC
  5
1D934
  8
0
 10
4752.5117844572750982
 20
526.4581050101197661
 30
0.0
 40
0.1304272217889072
 50
181.9459033646373882
 51
204.0105770145920019
  0
ARC
  5
1D935
  8
0
 10
4752.5192004140208155
 20
526.4429717759549021
 30
0.0
 40
0.1428979757550473
 50
42.3638094295984402
 51
137.8280349625842121
  0
ARC
  5
1D936
  8
0
 10
4752.5265488096429181
 20
526.4533939821666308
 30
0.0
 40
0.1304744954946639
 50
0.1239479749875997
 51
41.1564709686131494
  0
ARC
  5
1D937
  8
0
 10
4752.5123196928379912
 20
526.4533183009453978
 30
0.0
 40
0.1308877336244752
 50
139.1627276941320872
 51
179.8433139879255975
  0
ARC
  5
1D938
  8
0
 10
4752.5192275292820341
 20
526.4785229793012604
 30
0.0
 40
0.0866834097997671
 50
45.0663738305260111
 51
135.7667048244975092
  0
ARC
  5
1D939
  8
0
 10
4752.5181496276018152
 20
526.4781781965043592
 30
0.0
 40
0.0876903376226747
 50
315.274313177278998
 51
44.7268988484023424
  0
ARC
  5
1D93A
  8
0
 10
4752.5192277241540069
 20
526.477110373979599
 30
0.0
 40
0.0861729263010435
 50
224.7256856418493101
 51
315.274313177278998
  0
ARC
  5
1D93B
  8
0
 10
4752.520307014093305
 20
526.4781836753825246
 30
0.0
 40
0.0876950411176332
 50
136.099861399134511
 51
224.7276802517143039
  0
ARC
  5
1D93C
  8
0
 10
4752.5192277579617439
 20
526.4771319796537909
 30
0.0
 40
0.0571362020033051
 50
45.0696125521451023
 51
134.9304382038793051
  0
ARC
  5
1D93D
  8
0
 10
4752.5192276904590472
 20
526.4773798158328191
 30
0.0
 40
0.057136202075738
 50
225.0696126788660081
 51
314.9304381312114174
  0
ARC
  5
1D93E
  8
0
 10
4752.5193522741437846
 20
526.4772559313609008
 30
0.0
 40
0.0569605092917188
 50
314.9297262414818874
 51
45.0702287636332528
  0
ARC
  5
1D93F
  8
0
 10
4752.519103174106931
 20
526.477255864023391
 30
0.0
 40
0.0569605091715283
 50
134.9297261205323082
 51
225.0702289392415878
  0
ARC
  5
1D940
  8
0
 10
4752.5210988129565521
 20
526.4940299539046009
 30
0.0
 40
0.0414365471922111
 50
0.2950234546232193
 51
56.9638205083484692
  0
ARC
  5
1D941
  8
0
 10
4752.5199353606058139
 20
526.4949998388271979
 30
0.0
 40
0.0426061672528636
 50
269.048441478448126
 51
358.9825911551537843
  0
ARC
  5
1D942
  8
0
 10
4752.5184475976229805
 20
526.4949248109329574
 30
0.0
 40
0.0425324201309187
 50
180.9180879568586136
 51
271.0510723171706218
  0
ARC
  5
1D943
  8
0
 10
4752.5173587073259114
 20
526.4940294653349611
 30
0.0
 40
0.0414386214948745
 50
123.0439909971604067
 51
179.7043157761127929
  0
ARC
  5
1D944
  8
0
 10
4752.5192276958759976
 20
526.5081119969654537
 30
0.0
 40
0.0435451974825305
 50
190.3678982371739892
 51
349.6325194807333219
  0
ARC
  5
1D945
  8
0
 10
4752.5192275619865541
 20
526.4967110651589337
 30
0.0
 40
0.0571602567105988
 50
236.1808278110034109
 51
303.5872619895496882
  0
ARC
  5
1D946
  8
0
 10
4752.519129367466121
 20
526.4965644900564712
 30
0.0
 40
0.0569838298852732
 50
189.7467061599000999
 51
236.1808278110034109
  0
ARC
  5
1D947
  8
0
 10
4752.5193597679772211
 20
526.4965428256771247
 30
0.0
 40
0.0569469711393633
 50
303.5700951921353976
 51
350.2690513540666188
  0
ARC
  5
1D948
  8
0
 10
4752.0467867793349797
 20
524.070187786073916
 30
0.0
 40
3.258202000166154
 50
83.9810478197499037
 51
96.0189521802500963
  0
ARC
  5
1D949
  8
0
 10
4752.0467867793349797
 20
528.8504220365185802
 30
0.0
 40
2.8315347333312642
 50
263.0682775567981935
 51
276.9317224432016928
  0
ARC
  5
1D94A
  8
0
 10
4752.0467867793349797
 20
523.9458555889603986
 30
0.0
 40
0.5346551864178397
 50
244.0129280754742069
 51
295.9870719245257078
  0
ARC
  5
1D94B
  8
0
 10
4752.0467867793349797
 20
523.9402214735059715
 30
0.0
 40
0.5440208193572886
 50
240.4725237402313951
 51
299.5274762597686049
  0
ARC
  5
1D94D
  8
0
 10
4751.8593864461618068
 20
526.8109022018428504
 30
0.0
 40
2.6676931577842629
 50
346.9625861802406916
 51
13.0374138197592409
  0
ARC
  5
1D94E
  8
0
 10
4752.234187112509062
 20
526.8109022018428504
 30
0.0
 40
2.6676931577842642
 50
166.9625861802406916
 51
193.0374138197591947
  0
ENDSEC
  0
EOF
