  0
SECTION
  2
HEADER
  9
$ACADVER
  1
AC1009
  9
$INSBASE
 10
63.7262427802035702
 20
18.9209202301941986
 30
0.0
  9
$EXTMIN
 10
62.5444987543117392
 20
18.9208751717734884
 30
-0.0000000000112498
  9
$EXTMAX
 10
64.9116576016202771
 20
20.5039239942225109
 30
0.0000000000002956
  9
$LIMMIN
 10
0.0
 20
0.0
  9
$LIMMAX
 10
11.6929133858000007
 20
8.2677165353999982
  9
$ORTHOMODE
 70
     0
  9
$REGENMODE
 70
     1
  9
$FILLMODE
 70
     1
  9
$QTEXTMODE
 70
     0
  9
$MIRRTEXT
 70
     0
  9
$DRAGMODE
 70
     2
  9
$LTSCALE
 40
0.6431102362
  9
$OSMODE
 70
  4095
  9
$ATTMODE
 70
     1
  9
$TEXTSIZE
 40
0.2
  9
$TRACEWID
 40
0.05
  9
$TEXTSTYLE
  7
STANDARD
  9
$CLAYER
  8
0
  9
$CELTYPE
  6
BYLAYER
  9
$CECOLOR
 62
   256
  9
$DIMSCALE
 40
1.0
  9
$DIMASZ
 40
0.1875
  9
$DIMEXO
 40
0.0625
  9
$DIMDLI
 40
0.4443307087
  9
$DIMRND
 40
0.0
  9
$DIMDLE
 40
0.0
  9
$DIMEXE
 40
0.125
  9
$DIMTP
 40
0.01
  9
$DIMTM
 40
0.01
  9
$DIMTXT
 40
1.0
  9
$DIMCEN
 40
0.1052362205
  9
$DIMTSZ
 40
0.0
  9
$DIMTOL
 70
     1
  9
$DIMLIM
 70
     0
  9
$DIMTIH
 70
     0
  9
$DIMTOH
 70
     1
  9
$DIMSE1
 70
     0
  9
$DIMSE2
 70
     0
  9
$DIMTAD
 70
     0
  9
$DIMZIN
 70
     0
  9
$DIMBLK
  1

  9
$DIMASO
 70
     1
  9
$DIMSHO
 70
     1
  9
$DIMPOST
  1
\X
  9
$DIMAPOST
  1

  9
$DIMALT
 70
     1
  9
$DIMALTD
 70
     2
  9
$DIMALTF
 40
25.3999999999999986
  9
$DIMLFAC
 40
1.0
  9
$DIMTOFL
 70
     0
  9
$DIMTVP
 40
0.0
  9
$DIMTIX
 70
     0
  9
$DIMSOXD
 70
     0
  9
$DIMSAH
 70
     0
  9
$DIMBLK1
  1

  9
$DIMBLK2
  1

  9
$DIMSTYLE
  2
STANDARD
  9
$DIMCLRD
 70
     0
  9
$DIMCLRE
 70
     0
  9
$DIMCLRT
 70
     0
  9
$DIMTFAC
 40
1.0
  9
$DIMGAP
 40
0.09
  9
$LUNITS
 70
     2
  9
$LUPREC
 70
     4
  9
$SKETCHINC
 40
0.1
  9
$FILLETRAD
 40
0.0
  9
$AUNITS
 70
     0
  9
$AUPREC
 70
     0
  9
$MENU
  1
.
  9
$ELEVATION
 40
0.0
  9
$PELEVATION
 40
0.0
  9
$THICKNESS
 40
0.0
  9
$LIMCHECK
 70
     0
  9
$BLIPMODE
 70
     0
  9
$CHAMFERA
 40
0.0
  9
$CHAMFERB
 40
0.0
  9
$SKPOLY
 70
     0
  9
$TDCREATE
 40
2458172.5207638889551163
  9
$TDUPDATE
 40
2459080.6085300929844379
  9
$TDINDWG
 40
0.0512633796
  9
$TDUSRTIMER
 40
0.0512633796
  9
$USRTIMER
 70
     1
  9
$ANGBASE
 50
0.0
  9
$ANGDIR
 70
     0
  9
$PDMODE
 70
     0
  9
$PDSIZE
 40
0.3125
  9
$PLINEWID
 40
0.0
  9
$COORDS
 70
     1
  9
$SPLFRAME
 70
     0
  9
$SPLINETYPE
 70
     6
  9
$SPLINESEGS
 70
     8
  9
$ATTDIA
 70
     1
  9
$ATTREQ
 70
     1
  9
$HANDLING
 70
     1
  9
$HANDSEED
  5
FF7
  9
$SURFTAB1
 70
     6
  9
$SURFTAB2
 70
     6
  9
$SURFTYPE
 70
     6
  9
$SURFU
 70
     6
  9
$SURFV
 70
     6
  9
$UCSNAME
  2

  9
$UCSORG
 10
0.0
 20
0.0
 30
0.0
  9
$UCSXDIR
 10
1.0
 20
0.0
 30
0.0
  9
$UCSYDIR
 10
0.0
 20
1.0
 30
0.0
  9
$PUCSNAME
  2

  9
$PUCSORG
 10
0.0
 20
0.0
 30
0.0
  9
$PUCSXDIR
 10
1.0
 20
0.0
 30
0.0
  9
$PUCSYDIR
 10
0.0
 20
1.0
 30
0.0
  9
$USERI1
 70
     0
  9
$USERI2
 70
     0
  9
$USERI3
 70
     0
  9
$USERI4
 70
     0
  9
$USERI5
 70
     0
  9
$USERR1
 40
0.0
  9
$USERR2
 40
0.0
  9
$USERR3
 40
0.0
  9
$USERR4
 40
0.0
  9
$USERR5
 40
0.0
  9
$WORLDVIEW
 70
     1
  9
$SHADEDGE
 70
     3
  9
$SHADEDIF
 70
    70
  9
$TILEMODE
 70
     1
  9
$MAXACTVP
 70
    64
  9
$PLIMCHECK
 70
     0
  9
$PEXTMIN
 10
1.0000000000000000E+20
 20
1.0000000000000000E+20
 30
1.0000000000000000E+20
  9
$PEXTMAX
 10
-1.0000000000000000E+20
 20
-1.0000000000000000E+20
 30
-1.0000000000000000E+20
  9
$PLIMMIN
 10
0.0
 20
0.0
  9
$PLIMMAX
 10
12.0
 20
9.0
  9
$UNITMODE
 70
     0
  9
$VISRETAIN
 70
     1
  9
$PLINEGEN
 70
     0
  9
$PSLTSCALE
 70
     1
  0
ENDSEC
  0
SECTION
  2
TABLES
  0
TABLE
  2
VPORT
 70
     1
  0
VPORT
  2
*ACTIVE
 70
     0
 10
0.0
 20
0.0
 11
1.0
 21
1.0
 12
2.5990099138512481
 22
-0.0394137128910295
 13
0.0
 23
0.0
 14
1.0
 24
1.0
 15
0.0
 25
0.0
 16
0.0
 26
0.0
 36
7.9947812391796811
 17
61.1290682641147569
 27
19.7518132958890291
 37
0.0
 40
1.592963533236796
 41
2.005224660397074
 42
50.0
 43
0.0
 44
0.0
 50
0.0
 51
0.0
 71
     0
 72
   100
 73
     1
 74
     1
 75
     0
 76
     0
 77
     0
 78
     0
  0
ENDTAB
  0
TABLE
  2
LTYPE
 70
     2
  0
LTYPE
  2
CONTINUOUS
 70
     0
  3
Solid line
 72
    65
 73
     0
 40
0.0
  0
LTYPE
  2
PHANTOM2
 70
     0
  3
___ _ _ ___ _ _ ___ _ _ ___ _ _
 72
    65
 73
     6
 40
1.25
 49
0.625
 49
-0.125
 49
0.125
 49
-0.125
 49
0.125
 49
-0.125
  0
ENDTAB
  0
TABLE
  2
LAYER
 70
     2
  0
LAYER
  2
0
 70
     0
 62
   255
  6
CONTINUOUS
  0
LAYER
  2
DEFPOINTS
 70
     0
 62
     7
  6
CONTINUOUS
  0
ENDTAB
  0
TABLE
  2
STYLE
 70
     1
  0
STYLE
  2
STANDARD
 70
     0
 40
0.0
 41
0.8
 50
0.0
 71
     0
 42
0.2
  3
txt
  4

  0
ENDTAB
  0
TABLE
  2
VIEW
 70
     0
  0
ENDTAB
  0
TABLE
  2
UCS
 70
     0
  0
ENDTAB
  0
TABLE
  2
APPID
 70
    10
  0
APPID
  2
ACAD
 70
     0
  0
APPID
  2
ACAD_MLEADERVER
 70
     0
  0
APPID
  2
ACAD_EXEMPT_FROM_CAD_STANDARDS
 70
     0
  0
APPID
  2
ACAD_DSTYLE_DIMJAG
 70
     0
  0
APPID
  2
ACAD_DSTYLE_DIMTALN
 70
     0
  0
APPID
  2
ACAD_NAV_VCDISPLAY
 70
     0
  0
APPID
  2
ACAECLAYERSTANDARD
 70
     0
  0
APPID
  2
ACCMTRANSPARENCY
 70
     0
  0
APPID
  2
DCO15
 70
     0
  0
APPID
  2
ACDBATTR
 70
     0
  0
ENDTAB
  0
TABLE
  2
DIMSTYLE
 70
     1
  0
DIMSTYLE
  2
STANDARD
 70
     0
  3

  4

  5

  6

  7

 40
1.0
 41
0.1875
 42
0.0625
 43
0.38
 44
0.125
 45
0.0
 46
0.0
 47
0.01
 48
0.01
140
0.15625
141
0.09
142
0.0
143
25.3999999999999986
144
1.0
145
0.0
146
1.0
147
0.09
 71
     1
 72
     0
 73
     1
 74
     1
 75
     0
 76
     0
 77
     0
 78
     4
170
     0
171
     2
172
     0
173
     0
174
     0
175
     0
176
     0
177
     0
178
     0
  0
ENDTAB
  0
ENDSEC
  0
SECTION
  2
BLOCKS
  0
BLOCK
  8
0
  2
$MODEL_SPACE
 70
     0
 10
0.0
 20
0.0
 30
0.0
  3
$MODEL_SPACE
  1

  0
ENDBLK
  5
21
  8
0
  0
BLOCK
 67
     1
  8
0
  2
$PAPER_SPACE
 70
     0
 10
0.0
 20
0.0
 30
0.0
  3
$PAPER_SPACE
  1

  0
ENDBLK
  5
1D
 67
     1
  8
0
  0
ENDSEC
  0
SECTION
  2
ENTITIES
  0
ATTDEF
  5
829
  8
DEFPOINTS
 10
63.724243980371611
 20
18.9268278827110592
 30
0.0
 40
0.001
  1
K-77990T-4DR
  3

  2
MODELNUMBER
 70
     0
1001
ACDBATTR
1070
     0
1070
     1
  0
ATTDEF
  5
82A
  8
DEFPOINTS
 10
63.724243980371611
 20
18.9251612160444012
 30
0.0
 40
0.001
  1
COMPONENTS
  3

  2
TRADENAME
 70
     0
1001
ACDBATTR
1070
     0
1070
     1
  0
ATTDEF
  5
82B
  8
DEFPOINTS
 10
63.724243980371611
 20
18.9234945493777289
 30
0.0
 40
0.001
  1
BATH FAUCET HANDLES
  3

  2
PRODUCT
 70
     0
1001
ACDBATTR
1070
     0
1070
     1
  0
LINE
  5
E8C
  8
0
 10
63.20523569707467
 20
20.4833488293928703
 30
0.0
 11
63.1949214381035915
 21
19.2950857132941991
 31
0.0
  0
LINE
  5
E8D
  8
0
 10
63.2146057279035674
 20
19.2752288916942014
 30
0.0
 11
64.2378826985035829
 21
19.2752288916942014
 31
0.0
  0
LINE
  5
E8E
  8
0
 10
63.5832407721035793
 20
20.4829779120941993
 30
0.0
 11
63.5728741940035889
 21
19.2950857132941991
 31
0.0
  0
LINE
  5
E8F
  8
0
 10
63.8796142324035827
 20
19.2950857132941991
 30
0.0
 11
63.8692476542035692
 21
20.4829779170941997
 31
0.0
  0
LINE
  5
E90
  8
0
 10
64.247253757352027
 20
20.4833488123538991
 30
0.0
 11
64.25756698830358
 21
19.2950857132941991
 31
0.0
  0
ARC
  5
E91
  8
0
 10
63.5925584838035718
 20
19.2949139310942002
 30
0.0
 40
0.0196850394
 50
179.4999999999998863
 51
270.0
  0
ARC
  5
E92
  8
0
 10
63.6036119069211665
 20
20.48251762069874
 30
0.0
 40
0.0203763343593767
 50
92.2790381407887566
 51
178.7056063521212934
  0
ARC
  5
E93
  8
0
 10
63.2146057279035674
 20
19.2949139310942002
 30
0.0
 40
0.0196850394
 50
179.4999999999998863
 51
270.0
  0
ARC
  5
E94
  8
0
 10
63.8599299426035714
 20
19.2949139310942002
 30
0.0
 40
0.0196850394
 50
270.0
 51
0.5000000023999048
  0
ARC
  5
E95
  8
0
 10
63.8488765193760273
 20
20.4825176205158215
 30
0.0
 40
0.0203763345312698
 50
1.2944070756301189
 51
87.7209626718283744
  0
ARC
  5
E96
  8
0
 10
64.2378826985035829
 20
19.2949139310942002
 30
0.0
 40
0.0196850394
 50
270.0
 51
0.4999999999998957
  0
LINE
  5
E97
  8
0
 10
64.9073451424035852
 20
18.9316202301941985
 30
0.0
 11
64.9073451424035852
 21
19.0627072684942007
 31
0.0
  0
LINE
  5
E98
  8
0
 10
62.5451404180035695
 20
18.9316202301941985
 30
0.0
 11
62.5451404180035695
 21
19.0627072684942007
 31
0.0
  0
LINE
  5
E99
  8
0
 10
62.5604391424035882
 20
19.0818973965942007
 30
0.0
 11
63.2254558484035911
 21
19.2339012150941997
 31
0.0
  0
LINE
  5
E9A
  8
0
 10
63.2430053304035695
 20
19.2358808601942002
 30
0.0
 11
64.2094806858035838
 21
19.2358808601942002
 31
0.0
  0
LINE
  5
E9B
  8
0
 10
64.8920464181035754
 20
19.0818973965942007
 30
0.0
 11
64.2270297120035707
 21
19.2339012150941997
 31
0.0
  0
ARC
  5
E9C
  8
0
 10
64.2094844509043412
 20
19.1571406956459001
 30
0.0
 40
0.0787401646383132
 50
77.1249987323087964
 51
90.0027396994103697
  0
ARC
  5
E9D
  8
0
 10
63.243001109910459
 20
19.1571406938377997
 30
0.0
 40
0.0787401664695004
 50
89.9969289315271936
 51
102.8750011927560024
  0
ARC
  5
E9E
  8
0
 10
63.30301442926352
 20
19.2752509496135112
 30
0.0
 40
0.0393700894193184
 50
270.0000066156986804
 51
359.9678988347108088
  0
ARC
  5
E9F
  8
0
 10
64.1494711268744027
 20
19.2752509390650211
 30
0.0
 40
0.0393700788708508
 50
180.0320858225346967
 51
269.9999997447520172
  0
ARC
  5
EA0
  8
0
 10
62.5648254574035718
 20
19.0627072684942007
 30
0.0
 40
0.0196850394
 50
102.8750015590997009
 51
180.0
  0
ARC
  5
EA1
  8
0
 10
64.8876601031035705
 20
19.0627072684942007
 30
0.0
 40
0.0196850394
 50
0.0
 51
77.1249984409002849
  0
LINE
  5
EA2
  8
0
 10
62.5451404180035695
 20
19.0627072684942007
 30
0.0
 11
64.9073451424035852
 21
19.0627072684942007
 31
0.0
  0
LINE
  5
EA3
  8
0
 10
63.2249349549745077
 20
20.5028778375941982
 30
0.0
 11
64.2275544993042757
 21
20.5028778375941982
 31
0.0
  0
LINE
  5
EA4
  8
0
 10
62.5558404180035694
 20
18.9209202301941986
 30
0.0
 11
64.8966451424035853
 21
18.9209202301941986
 31
0.0
  0
ARC
  5
EA5
  8
0
 10
63.2249349549745077
 20
20.4831778375942015
 30
0.0
 40
0.0197
 50
89.9999999999894129
 51
179.5026786083101058
  0
ARC
  5
EA6
  8
0
 10
64.2275544993042757
 20
20.4831778375941909
 30
0.0
 40
0.0197
 50
0.4972718334204955
 51
90.0
  0
ARC
  5
EA7
  8
0
 10
62.5558404180035623
 20
18.9316202301941914
 30
0.0
 40
0.0107
 50
179.9999999999903935
 51
270.0000000000187015
  0
ARC
  5
EA8
  8
0
 10
64.8966451424035711
 20
18.9316202301941914
 30
0.0
 40
0.0107
 50
270.0000000000187015
 51
0.0000000000047836
  0
ENDSEC
  0
EOF
