  0
SECTION
  2
HEADER
  9
$ACADVER
  1
AC1009
  9
$INSBASE
 10
4221.330611389455953
 20
231.4992033384646106
 30
0.0
  9
$EXTMIN
 10
4210.5701201002048037
 20
226.1035727904362886
 30
-0.0015258207003583
  9
$EXTMAX
 10
4231.8803023792461317
 20
232.3066397338490958
 30
0.0000000349246037
  9
$LIMMIN
 10
0.0
 20
0.0
  9
$LIMMAX
 10
11.6929133858000007
 20
8.2677165353999982
  9
$ORTHOMODE
 70
     0
  9
$REGENMODE
 70
     1
  9
$FILLMODE
 70
     1
  9
$QTEXTMODE
 70
     0
  9
$MIRRTEXT
 70
     0
  9
$DRAGMODE
 70
     2
  9
$LTSCALE
 40
0.6431102362
  9
$OSMODE
 70
  4095
  9
$ATTMODE
 70
     1
  9
$TEXTSIZE
 40
0.2
  9
$TRACEWID
 40
0.05
  9
$TEXTSTYLE
  7
STANDARD
  9
$CLAYER
  8
0
  9
$CELTYPE
  6
BYLAYER
  9
$CECOLOR
 62
   256
  9
$DIMSCALE
 40
1.0
  9
$DIMASZ
 40
0.1875
  9
$DIMEXO
 40
0.0625
  9
$DIMDLI
 40
0.4443307087
  9
$DIMRND
 40
0.0
  9
$DIMDLE
 40
0.0
  9
$DIMEXE
 40
0.125
  9
$DIMTP
 40
0.01
  9
$DIMTM
 40
0.01
  9
$DIMTXT
 40
2.0
  9
$DIMCEN
 40
0.1052362205
  9
$DIMTSZ
 40
0.0
  9
$DIMTOL
 70
     1
  9
$DIMLIM
 70
     0
  9
$DIMTIH
 70
     1
  9
$DIMTOH
 70
     1
  9
$DIMSE1
 70
     0
  9
$DIMSE2
 70
     0
  9
$DIMTAD
 70
     0
  9
$DIMZIN
 70
     0
  9
$DIMBLK
  1

  9
$DIMASO
 70
     1
  9
$DIMSHO
 70
     1
  9
$DIMPOST
  1
\X
  9
$DIMAPOST
  1

  9
$DIMALT
 70
     1
  9
$DIMALTD
 70
     2
  9
$DIMALTF
 40
25.3999999999999986
  9
$DIMLFAC
 40
1.0
  9
$DIMTOFL
 70
     0
  9
$DIMTVP
 40
0.0
  9
$DIMTIX
 70
     0
  9
$DIMSOXD
 70
     0
  9
$DIMSAH
 70
     0
  9
$DIMBLK1
  1

  9
$DIMBLK2
  1

  9
$DIMSTYLE
  2
STANDARD
  9
$DIMCLRD
 70
     0
  9
$DIMCLRE
 70
     0
  9
$DIMCLRT
 70
     0
  9
$DIMTFAC
 40
1.0
  9
$DIMGAP
 40
0.09
  9
$LUNITS
 70
     2
  9
$LUPREC
 70
     4
  9
$SKETCHINC
 40
0.1
  9
$FILLETRAD
 40
0.0
  9
$AUNITS
 70
     0
  9
$AUPREC
 70
     0
  9
$MENU
  1
.
  9
$ELEVATION
 40
0.0
  9
$PELEVATION
 40
0.0
  9
$THICKNESS
 40
0.0
  9
$LIMCHECK
 70
     0
  9
$BLIPMODE
 70
     0
  9
$CHAMFERA
 40
0.0
  9
$CHAMFERB
 40
0.0
  9
$SKPOLY
 70
     0
  9
$TDCREATE
 40
2458060.468368056230247
  9
$TDUPDATE
 40
2459195.7181828701868653
  9
$TDINDWG
 40
0.4647640046
  9
$TDUSRTIMER
 40
0.4647640046
  9
$USRTIMER
 70
     1
  9
$ANGBASE
 50
0.0
  9
$ANGDIR
 70
     0
  9
$PDMODE
 70
     0
  9
$PDSIZE
 40
0.3125
  9
$PLINEWID
 40
0.0
  9
$COORDS
 70
     1
  9
$SPLFRAME
 70
     0
  9
$SPLINETYPE
 70
     6
  9
$SPLINESEGS
 70
     8
  9
$ATTDIA
 70
     1
  9
$ATTREQ
 70
     1
  9
$HANDLING
 70
     1
  9
$HANDSEED
  5
18F78
  9
$SURFTAB1
 70
     6
  9
$SURFTAB2
 70
     6
  9
$SURFTYPE
 70
     6
  9
$SURFU
 70
     6
  9
$SURFV
 70
     6
  9
$UCSNAME
  2

  9
$UCSORG
 10
0.0
 20
0.0
 30
0.0
  9
$UCSXDIR
 10
1.0
 20
0.0
 30
0.0
  9
$UCSYDIR
 10
0.0
 20
1.0
 30
0.0
  9
$PUCSNAME
  2

  9
$PUCSORG
 10
0.0
 20
0.0
 30
0.0
  9
$PUCSXDIR
 10
1.0
 20
0.0
 30
0.0
  9
$PUCSYDIR
 10
0.0
 20
1.0
 30
0.0
  9
$USERI1
 70
     0
  9
$USERI2
 70
     0
  9
$USERI3
 70
     0
  9
$USERI4
 70
     0
  9
$USERI5
 70
     0
  9
$USERR1
 40
0.0
  9
$USERR2
 40
0.0
  9
$USERR3
 40
0.0
  9
$USERR4
 40
0.0
  9
$USERR5
 40
0.0
  9
$WORLDVIEW
 70
     1
  9
$SHADEDGE
 70
     3
  9
$SHADEDIF
 70
    70
  9
$TILEMODE
 70
     1
  9
$MAXACTVP
 70
    64
  9
$PLIMCHECK
 70
     0
  9
$PEXTMIN
 10
1.0000000000000000E+20
 20
1.0000000000000000E+20
 30
1.0000000000000000E+20
  9
$PEXTMAX
 10
-1.0000000000000000E+20
 20
-1.0000000000000000E+20
 30
-1.0000000000000000E+20
  9
$PLIMMIN
 10
0.0
 20
0.0
  9
$PLIMMAX
 10
12.0
 20
9.0
  9
$UNITMODE
 70
     0
  9
$VISRETAIN
 70
     1
  9
$PLINEGEN
 70
     0
  9
$PSLTSCALE
 70
     1
  0
ENDSEC
  0
SECTION
  2
TABLES
  0
TABLE
  2
VPORT
 70
     1
  0
VPORT
  2
*ACTIVE
 70
     0
 10
0.0
 20
0.0
 11
1.0
 21
1.0
 12
309.8598547944130246
 22
96.6255011596036439
 13
0.0
 23
0.0
 14
1.0
 24
1.0
 15
0.0
 25
0.0
 16
0.0
 26
0.0
 36
60.4960186965801583
 17
3911.3653564453120453
 27
132.5796051025390057
 37
0.0
 40
7.4133947126150384
 41
2.887234042553191
 42
50.0
 43
0.0
 44
0.0
 50
0.0
 51
0.0
 71
     0
 72
   100
 73
     1
 74
     1
 75
     0
 76
     0
 77
     0
 78
     0
  0
ENDTAB
  0
TABLE
  2
LTYPE
 70
     2
  0
LTYPE
  2
CONTINUOUS
 70
     0
  3
Solid line
 72
    65
 73
     0
 40
0.0
  0
LTYPE
  2
PHANTOM2
 70
     0
  3
___ _ _ ___ _ _ ___ _ _ ___ _ _
 72
    65
 73
     6
 40
1.25
 49
0.625
 49
-0.125
 49
0.125
 49
-0.125
 49
0.125
 49
-0.125
  0
ENDTAB
  0
TABLE
  2
LAYER
 70
     2
  0
LAYER
  2
0
 70
     0
 62
   255
  6
CONTINUOUS
  0
LAYER
  2
DEFPOINTS
 70
     0
 62
     7
  6
CONTINUOUS
  0
ENDTAB
  0
TABLE
  2
STYLE
 70
     1
  0
STYLE
  2
STANDARD
 70
     0
 40
0.0
 41
0.8
 50
0.0
 71
     0
 42
0.2
  3
txt
  4

  0
ENDTAB
  0
TABLE
  2
VIEW
 70
     0
  0
ENDTAB
  0
TABLE
  2
UCS
 70
     0
  0
ENDTAB
  0
TABLE
  2
APPID
 70
    11
  0
APPID
  2
ACAD
 70
     0
  0
APPID
  2
ACAD_MLEADERVER
 70
     0
  0
APPID
  2
ACAD_EXEMPT_FROM_CAD_STANDARDS
 70
     0
  0
APPID
  2
ACAD_NAV_VCDISPLAY
 70
     0
  0
APPID
  2
ACAECLAYERSTANDARD
 70
     0
  0
APPID
  2
ACCMTRANSPARENCY
 70
     0
  0
APPID
  2
ACAD_DSTYLE_DIMJAG
 70
     0
  0
APPID
  2
ACAD_DSTYLE_DIMTALN
 70
     0
  0
APPID
  2
ACDBATTR
 70
     0
  0
APPID
  2
ACADANNOTATIVE
 70
     0
  0
APPID
  2
DCO15
 70
     0
  0
ENDTAB
  0
TABLE
  2
DIMSTYLE
 70
     1
  0
DIMSTYLE
  2
STANDARD
 70
     0
  3

  4

  5

  6

  7

 40
1.0
 41
0.1875
 42
0.0625
 43
0.38
 44
0.125
 45
0.0
 46
0.0
 47
0.01
 48
0.01
140
0.15625
141
0.09
142
0.0
143
25.3999999999999986
144
1.0
145
0.0
146
1.0
147
0.09
 71
     1
 72
     0
 73
     1
 74
     1
 75
     0
 76
     0
 77
     0
 78
     4
170
     0
171
     2
172
     0
173
     0
174
     0
175
     0
176
     0
177
     0
178
     0
  0
ENDTAB
  0
ENDSEC
  0
SECTION
  2
BLOCKS
  0
BLOCK
  8
0
  2
$MODEL_SPACE
 70
     0
 10
0.0
 20
0.0
 30
0.0
  3
$MODEL_SPACE
  1

  0
ENDBLK
  5
21
  8
0
  0
BLOCK
 67
     1
  8
0
  2
$PAPER_SPACE
 70
     0
 10
0.0
 20
0.0
 30
0.0
  3
$PAPER_SPACE
  1

  0
ENDBLK
  5
1D
 67
     1
  8
0
  0
ENDSEC
  0
SECTION
  2
ENTITIES
  0
LINE
  5
18DF9
  8
0
 10
4219.9656455083559194
 20
226.3360554027646003
 30
0.0
 11
4219.8731988327663203
 21
227.3927257404141926
 31
0.0
  0
LINE
  5
18DFA
  8
0
 10
4211.3508524196558938
 20
231.4992033384646106
 30
0.0
 11
4231.3103703592551028
 21
231.4992033384646106
 31
0.0
  0
LINE
  5
18DFB
  8
0
 10
4211.2059790921548483
 20
231.5592033384646129
 30
0.0
 11
4231.4552411986560401
 21
231.5592033384646129
 31
0.0
  0
ARC
  5
18DFC
  8
0
 10
4211.2166883409563525
 20
231.4392033384646084
 30
0.0
 40
0.12
 50
41.8103148957970703
 51
90.0
  0
ARC
  5
18DFD
  8
0
 10
4211.2059790921548483
 20
231.6792033384647027
 30
0.0
 40
0.12
 50
196.8419717258043136
 51
269.9999999993746087
  0
ARC
  5
18DFE
  8
0
 10
4211.3508524196558938
 20
231.5592033384646129
 30
0.0
 40
0.06
 50
221.8103148982972925
 51
270.0
  0
ARC
  5
18DFF
  8
0
 10
4211.6649560412461142
 20
231.3741624278949018
 30
0.0
 40
0.1250409113000737
 50
55.3986380075037133
 51
89.9938077734774282
  0
ARC
  5
18E00
  8
0
 10
4220.2146941829550997
 20
226.3578443384647017
 30
0.0
 40
0.25
 50
184.9999999999982947
 51
270.0
  0
ARC
  5
18E01
  8
0
 10
4221.6488389479527541
 20
114.3678782094066975
 30
0.0
 40
113.3225721005440931
 50
89.9249738311236939
 51
90.3977435607017128
  0
ARC
  5
18E02
  8
0
 10
4209.3914334633118415
 20
231.1498980442428888
 30
0.0
 40
1.770175850802429
 50
16.2227194214091099
 51
30.5385440765873994
  0
ARC
  5
18E03
  8
0
 10
4212.0553054253196024
 20
232.7648727089417946
 30
0.0
 40
1.3453012447290471
 50
206.1690979009719911
 51
212.1314521121040002
  0
ARC
  5
18E04
  8
0
 10
4210.9690717506200599
 20
232.2265884606229065
 30
0.0
 40
0.1330771588924663
 50
174.7578793069552034
 51
204.4228098401904958
  0
ARC
  5
18E05
  8
0
 10
4210.893293220789019
 20
232.2301689130082991
 30
0.0
 40
0.0573867772964642
 50
140.168016688435614
 51
171.4032842397174079
  0
ARC
  5
18E06
  8
0
 10
4210.9097728015221946
 20
232.2138691843464926
 30
0.0
 40
0.0805063717209765
 50
107.2640392035995944
 51
138.7721205025214886
  0
ARC
  5
18E07
  8
0
 10
4210.9383978315881905
 20
232.112918399395312
 30
0.0
 40
0.1854228287025754
 50
90.675583174429093
 51
106.4530913374942003
  0
ARC
  5
18E08
  8
0
 10
4220.3299262343471128
 20
233.934891165356305
 30
0.0
 40
6.5580887739236937
 50
262.9020582174256901
 51
266.3110643594242788
  0
ARC
  5
18E09
  8
0
 10
4220.3425473319493904
 20
234.0342811439734874
 30
0.0
 40
6.6582766060828034
 50
249.5195197648496901
 51
262.8999656992399991
  0
ARC
  5
18E0A
  8
0
 10
4223.9262535633788502
 20
243.5176891948543982
 30
0.0
 40
16.7961942446293193
 50
245.4844270893212013
 51
249.3863031176913978
  0
ARC
  5
18E0B
  8
0
 10
4221.2269494657903124
 20
240.0584130846361859
 30
0.0
 40
12.5702240232640197
 50
238.861332884204586
 51
250.1413397888491943
  0
ARC
  5
18E0C
  8
0
 10
4224.8252936847584351
 20
245.6725189189446894
 30
0.0
 40
19.2369958066146189
 50
231.3905545630649101
 51
238.3348238974764968
  0
ARC
  5
18E0D
  8
0
 10
4193.0415093850151607
 20
206.1061398462632894
 30
0.0
 40
31.5145600911187493
 50
51.1239241285804908
 51
53.6155441396665395
  0
ARC
  5
18E0E
  8
0
 10
4219.9225255116371045
 20
227.6645181346823961
 30
0.0
 40
0.2745133398018427
 50
266.9629705261443746
 51
284.0506581463392877
  0
ARC
  5
18E0F
  8
0
 10
4219.5297262304411561
 20
228.9835868590415089
 30
0.0
 40
1.650601450685482
 50
286.1617750051411804
 51
295.4738537651181787
  0
ARC
  5
18E10
  8
0
 10
4221.9577454062873585
 20
223.7743070139289046
 30
0.0
 40
4.0968173415005733
 50
109.8215439731978051
 51
114.7950439071851036
  0
ARC
  5
18E11
  8
0
 10
4220.9040600442849609
 20
226.7240064513981963
 30
0.0
 40
0.9646234449880354
 50
92.4890838402005784
 51
110.3537801237680043
  0
LINE
  5
18E12
  8
0
 10
4222.6955772232549862
 20
226.3360554027646003
 30
0.0
 11
4222.7880238988445853
 21
227.3927257404141926
 31
0.0
  0
ARC
  5
18E13
  8
0
 10
4231.4445343906545531
 20
231.4392033384646084
 30
0.0
 40
0.12
 50
90.0
 51
138.1896851042029084
  0
ARC
  5
18E14
  8
0
 10
4231.4552436394051256
 20
231.6792033384986951
 30
0.0
 40
0.1200000000589094
 50
269.9988346283108172
 51
343.1580282657085945
  0
ARC
  5
18E15
  8
0
 10
4231.3103703119550119
 20
231.5592033384646982
 30
0.0
 40
0.0600000000000795
 50
270.000045168242309
 51
318.189685101694181
  0
ARC
  5
18E16
  8
0
 10
4230.9962666903657009
 20
231.3741624278949018
 30
0.0
 40
0.1250409113000737
 50
90.006192226522586
 51
124.6013619924961944
  0
ARC
  5
18E17
  8
0
 10
4222.4465285486558059
 20
226.3578443384647017
 30
0.0
 40
0.25
 50
270.0
 51
355.0000000000017053
  0
ARC
  5
18E18
  8
0
 10
4233.2697892682999736
 20
231.1498980442428888
 30
0.0
 40
1.770175850802429
 50
149.4614559234125863
 51
163.7772805785909043
  0
ARC
  5
18E19
  8
0
 10
4230.6059173062913032
 20
232.7648727089417946
 30
0.0
 40
1.3453012447290471
 50
327.8685478878958861
 51
333.8309020990279805
  0
ARC
  5
18E1A
  8
0
 10
4231.6921509809908457
 20
232.2265884606229065
 30
0.0
 40
0.1330771588924663
 50
335.5771901598095042
 51
5.2421206930448037
  0
ARC
  5
18E1B
  8
0
 10
4231.7679295108218867
 20
232.2301689130082991
 30
0.0
 40
0.0573867772964642
 50
8.596715760282569
 51
39.8319833115644215
  0
ARC
  5
18E1C
  8
0
 10
4231.751449930088711
 20
232.2138691843464926
 30
0.0
 40
0.0805063717209765
 50
41.2278794974784617
 51
72.735960796400434
  0
ARC
  5
18E1D
  8
0
 10
4231.7228249051686362
 20
232.1129184228927045
 30
0.0
 40
0.1854228047097431
 50
73.5469081311088502
 51
89.3244297644969691
  0
ARC
  5
18E1E
  8
0
 10
4222.3312964972647023
 20
233.934891165356305
 30
0.0
 40
6.5580887739236937
 50
273.6889356405757212
 51
277.0979417825743099
  0
ARC
  5
18E1F
  8
0
 10
4222.3186753996606058
 20
234.0342811439734874
 30
0.0
 40
6.6582766060828034
 50
277.1000343007600009
 51
290.4804802351501962
  0
ARC
  5
18E20
  8
0
 10
4218.7349691682320554
 20
243.5176891948543982
 30
0.0
 40
16.7961942446293193
 50
290.6136968823084885
 51
294.5155729106788272
  0
ARC
  5
18E21
  8
0
 10
4221.4342732658205932
 20
240.0584130846361859
 30
0.0
 40
12.5702240232640197
 50
289.8586602111507773
 51
301.1386671157953856
  0
ARC
  5
18E22
  8
0
 10
4217.83592904685338
 20
245.6725189189446894
 30
0.0
 40
19.2369958066146189
 50
301.6651761025233895
 51
308.6094454369351183
  0
ARC
  5
18E23
  8
0
 10
4249.619713346595745
 20
206.1061398462632894
 30
0.0
 40
31.5145600911187493
 50
126.3844558603334036
 51
128.8760758714194878
  0
ARC
  5
18E24
  8
0
 10
4222.7386972199738011
 20
227.6645181346823961
 30
0.0
 40
0.2745133398018427
 50
255.9493418536607123
 51
273.0370294738555117
  0
ARC
  5
18E25
  8
0
 10
4223.1314965011697495
 20
228.9835868590415089
 30
0.0
 40
1.650601450685482
 50
244.5261462348817929
 51
253.8382249948587912
  0
ARC
  5
18E26
  8
0
 10
4220.7034773253253661
 20
223.7743070139289046
 30
0.0
 40
4.0968173415005733
 50
65.2049560928149106
 51
70.1784560268021949
  0
ARC
  5
18E27
  8
0
 10
4221.7254546791918983
 20
226.6126049688537876
 30
0.0
 40
1.080135540554652
 50
70.1246354932792713
 51
86.1898944383246999
  0
LINE
  5
18E29
  8
0
 10
4222.4465285486558059
 20
226.1078443384647017
 30
0.0
 11
4220.2146941829550997
 21
226.1078443384647017
 31
0.0
  0
LINE
  5
18E2A
  8
0
 10
4231.725011160881877
 20
232.2983283384646995
 30
0.0
 11
4210.9362115337216892
 21
232.2983283384646995
 31
0.0
  0
ATTDEF
  5
18E2B
  8
DEFPOINTS
 10
4221.3307254614510384
 20
231.4980421528252066
 30
0.0
 40
0.001
  1
K-7799
  3

  2
MODELNUMBER
 70
     0
1001
ACDBATTR
1070
     0
1070
     1
  0
ATTDEF
  5
18E2C
  8
DEFPOINTS
 10
4221.3305996517938183
 20
231.4963753124459913
 30
0.0
 40
0.001
  1
CARILLON
  3

  2
TRADENAME
 70
     0
1001
ACDBATTR
1070
     0
1070
     1
  0
ATTDEF
  5
18E2D
  8
DEFPOINTS
 10
4221.3307254614510384
 20
231.494708819491791
 30
0.0
 40
0.001
  1
BATHROOM SINK
  3

  2
PRODUCT
 70
     0
1001
ACDBATTR
1070
     0
1070
     1
  0
ENDSEC
  0
EOF
