  0
SECTION
  2
HEADER
  9
$ACADVER
  1
AC1009
  9
$INSBASE
 10
403.8915824301496968
 20
66.4621619159872665
 30
0.0
  9
$EXTMIN
 10
400.3224106136451041
 20
62.9153576711541689
 30
-0.0000000349181948
  9
$EXTMAX
 10
407.4412701608309249
 20
70.008263526261473
 30
0.0000000814935746
  9
$LIMMIN
 10
0.0
 20
0.0
  9
$LIMMAX
 10
11.6929133858000007
 20
8.2677165353999982
  9
$ORTHOMODE
 70
     0
  9
$REGENMODE
 70
     1
  9
$FILLMODE
 70
     1
  9
$QTEXTMODE
 70
     0
  9
$MIRRTEXT
 70
     0
  9
$DRAGMODE
 70
     2
  9
$LTSCALE
 40
0.6431102362
  9
$OSMODE
 70
  4095
  9
$ATTMODE
 70
     1
  9
$TEXTSIZE
 40
0.2
  9
$TRACEWID
 40
0.05
  9
$TEXTSTYLE
  7
STANDARD
  9
$CLAYER
  8
0
  9
$CELTYPE
  6
BYLAYER
  9
$CECOLOR
 62
   256
  9
$DIMSCALE
 40
1.0
  9
$DIMASZ
 40
0.1875
  9
$DIMEXO
 40
0.0625
  9
$DIMDLI
 40
0.4443307087
  9
$DIMRND
 40
0.0
  9
$DIMDLE
 40
0.0
  9
$DIMEXE
 40
0.125
  9
$DIMTP
 40
0.01
  9
$DIMTM
 40
0.01
  9
$DIMTXT
 40
1.0
  9
$DIMCEN
 40
0.1052362205
  9
$DIMTSZ
 40
0.0
  9
$DIMTOL
 70
     1
  9
$DIMLIM
 70
     0
  9
$DIMTIH
 70
     0
  9
$DIMTOH
 70
     1
  9
$DIMSE1
 70
     0
  9
$DIMSE2
 70
     0
  9
$DIMTAD
 70
     0
  9
$DIMZIN
 70
     0
  9
$DIMBLK
  1

  9
$DIMASO
 70
     1
  9
$DIMSHO
 70
     1
  9
$DIMPOST
  1
\X
  9
$DIMAPOST
  1

  9
$DIMALT
 70
     1
  9
$DIMALTD
 70
     2
  9
$DIMALTF
 40
25.3999999999999986
  9
$DIMLFAC
 40
1.0
  9
$DIMTOFL
 70
     0
  9
$DIMTVP
 40
0.0
  9
$DIMTIX
 70
     0
  9
$DIMSOXD
 70
     0
  9
$DIMSAH
 70
     0
  9
$DIMBLK1
  1

  9
$DIMBLK2
  1

  9
$DIMSTYLE
  2
STANDARD
  9
$DIMCLRD
 70
     0
  9
$DIMCLRE
 70
     0
  9
$DIMCLRT
 70
     0
  9
$DIMTFAC
 40
1.0
  9
$DIMGAP
 40
0.09
  9
$LUNITS
 70
     2
  9
$LUPREC
 70
     4
  9
$SKETCHINC
 40
0.1
  9
$FILLETRAD
 40
0.0
  9
$AUNITS
 70
     0
  9
$AUPREC
 70
     0
  9
$MENU
  1
.
  9
$ELEVATION
 40
0.0
  9
$PELEVATION
 40
0.0
  9
$THICKNESS
 40
0.0
  9
$LIMCHECK
 70
     0
  9
$BLIPMODE
 70
     0
  9
$CHAMFERA
 40
0.0
  9
$CHAMFERB
 40
0.0
  9
$SKPOLY
 70
     0
  9
$TDCREATE
 40
2458172.5207638889551163
  9
$TDUPDATE
 40
2459859.6815046300180256
  9
$TDINDWG
 40
0.2705064583
  9
$TDUSRTIMER
 40
0.2705064583
  9
$USRTIMER
 70
     1
  9
$ANGBASE
 50
0.0
  9
$ANGDIR
 70
     0
  9
$PDMODE
 70
     0
  9
$PDSIZE
 40
0.3125
  9
$PLINEWID
 40
0.0
  9
$COORDS
 70
     1
  9
$SPLFRAME
 70
     0
  9
$SPLINETYPE
 70
     6
  9
$SPLINESEGS
 70
     8
  9
$ATTDIA
 70
     1
  9
$ATTREQ
 70
     1
  9
$HANDLING
 70
     1
  9
$HANDSEED
  5
E918
  9
$SURFTAB1
 70
     6
  9
$SURFTAB2
 70
     6
  9
$SURFTYPE
 70
     6
  9
$SURFU
 70
     6
  9
$SURFV
 70
     6
  9
$UCSNAME
  2

  9
$UCSORG
 10
0.0
 20
0.0
 30
0.0
  9
$UCSXDIR
 10
1.0
 20
0.0
 30
0.0
  9
$UCSYDIR
 10
0.0
 20
1.0
 30
0.0
  9
$PUCSNAME
  2

  9
$PUCSORG
 10
0.0
 20
0.0
 30
0.0
  9
$PUCSXDIR
 10
1.0
 20
0.0
 30
0.0
  9
$PUCSYDIR
 10
0.0
 20
1.0
 30
0.0
  9
$USERI1
 70
     0
  9
$USERI2
 70
     0
  9
$USERI3
 70
     0
  9
$USERI4
 70
     0
  9
$USERI5
 70
     0
  9
$USERR1
 40
0.0
  9
$USERR2
 40
0.0
  9
$USERR3
 40
0.0
  9
$USERR4
 40
0.0
  9
$USERR5
 40
0.0
  9
$WORLDVIEW
 70
     1
  9
$SHADEDGE
 70
     3
  9
$SHADEDIF
 70
    70
  9
$TILEMODE
 70
     1
  9
$MAXACTVP
 70
    64
  9
$PLIMCHECK
 70
     0
  9
$PEXTMIN
 10
1.0000000000000000E+20
 20
1.0000000000000000E+20
 30
1.0000000000000000E+20
  9
$PEXTMAX
 10
-1.0000000000000000E+20
 20
-1.0000000000000000E+20
 30
-1.0000000000000000E+20
  9
$PLIMMIN
 10
0.0
 20
0.0
  9
$PLIMMAX
 10
12.0
 20
9.0
  9
$UNITMODE
 70
     0
  9
$VISRETAIN
 70
     1
  9
$PLINEGEN
 70
     0
  9
$PSLTSCALE
 70
     1
  0
ENDSEC
  0
SECTION
  2
TABLES
  0
TABLE
  2
VPORT
 70
     1
  0
VPORT
  2
*ACTIVE
 70
     0
 10
0.0
 20
0.0
 11
1.0
 21
1.0
 12
-25.7474487208156688
 22
-3.2407309135108591
 13
0.0
 23
0.0
 14
1.0
 24
1.0
 15
0.0
 25
0.0
 16
0.0
 26
0.0
 36
14.6338572656650907
 17
429.6292891080536833
 27
69.7025415122186871
 37
0.0
 40
7.1613261688221801
 41
2.4589371980676318
 42
50.0
 43
0.0
 44
0.0
 50
0.0
 51
0.0
 71
     0
 72
   100
 73
     1
 74
     1
 75
     0
 76
     0
 77
     0
 78
     1
  0
ENDTAB
  0
TABLE
  2
LTYPE
 70
     2
  0
LTYPE
  2
CONTINUOUS
 70
     0
  3
Solid line
 72
    65
 73
     0
 40
0.0
  0
LTYPE
  2
PHANTOM2
 70
     0
  3
___ _ _ ___ _ _ ___ _ _ ___ _ _
 72
    65
 73
     6
 40
1.25
 49
0.625
 49
-0.125
 49
0.125
 49
-0.125
 49
0.125
 49
-0.125
  0
ENDTAB
  0
TABLE
  2
LAYER
 70
     2
  0
LAYER
  2
0
 70
     0
 62
   255
  6
CONTINUOUS
  0
LAYER
  2
DEFPOINTS
 70
     0
 62
     7
  6
CONTINUOUS
  0
ENDTAB
  0
TABLE
  2
STYLE
 70
     1
  0
STYLE
  2
STANDARD
 70
     0
 40
0.0
 41
0.8
 50
0.0
 71
     0
 42
0.2
  3
txt
  4

  0
ENDTAB
  0
TABLE
  2
VIEW
 70
     0
  0
ENDTAB
  0
TABLE
  2
UCS
 70
     0
  0
ENDTAB
  0
TABLE
  2
APPID
 70
    10
  0
APPID
  2
ACAD
 70
     0
  0
APPID
  2
ACAD_MLEADERVER
 70
     0
  0
APPID
  2
ACAD_EXEMPT_FROM_CAD_STANDARDS
 70
     0
  0
APPID
  2
ACAD_DSTYLE_DIMJAG
 70
     0
  0
APPID
  2
ACAD_DSTYLE_DIMTALN
 70
     0
  0
APPID
  2
ACAD_NAV_VCDISPLAY
 70
     0
  0
APPID
  2
ACAECLAYERSTANDARD
 70
     0
  0
APPID
  2
ACCMTRANSPARENCY
 70
     0
  0
APPID
  2
DCO15
 70
     0
  0
APPID
  2
ACDBATTR
 70
     0
  0
ENDTAB
  0
TABLE
  2
DIMSTYLE
 70
     1
  0
DIMSTYLE
  2
STANDARD
 70
     0
  3

  4

  5

  6

  7

 40
1.0
 41
0.1875
 42
0.0625
 43
0.38
 44
0.125
 45
0.0
 46
0.0
 47
0.01
 48
0.01
140
0.15625
141
0.09
142
0.0
143
25.3999999999999986
144
1.0
145
0.0
146
1.0
147
0.09
 71
     1
 72
     0
 73
     1
 74
     1
 75
     0
 76
     0
 77
     0
 78
     4
170
     0
171
     2
172
     0
173
     0
174
     0
175
     0
176
     0
177
     0
178
     0
  0
ENDTAB
  0
ENDSEC
  0
SECTION
  2
BLOCKS
  0
BLOCK
  8
0
  2
$MODEL_SPACE
 70
     0
 10
0.0
 20
0.0
 30
0.0
  3
$MODEL_SPACE
  1

  0
ENDBLK
  5
21
  8
0
  0
BLOCK
 67
     1
  8
0
  2
$PAPER_SPACE
 70
     0
 10
0.0
 20
0.0
 30
0.0
  3
$PAPER_SPACE
  1

  0
ENDBLK
  5
1D
 67
     1
  8
0
  0
ENDSEC
  0
SECTION
  2
ENTITIES
  0
ATTDEF
  5
E50B
  8
DEFPOINTS
 10
403.8804363996815141
 20
66.459897424400495
 30
0.0
 40
0.001
  1
K-78020T-9
  3

  2
MODELNUMBER
 70
     0
1001
ACDBATTR
1070
     0
1070
     1
  0
ATTDEF
  5
E50C
  8
DEFPOINTS
 10
403.8804363996815141
 20
66.458230757733844
 30
0.0
 40
0.001
  1
MODULO
  3

  2
TRADENAME
 70
     0
1001
ACDBATTR
1070
     0
1070
     1
  0
ATTDEF
  5
E50D
  8
DEFPOINTS
 10
403.8804363996815141
 20
66.4565640910671789
 30
0.0
 40
0.001
  1
VALVE TRIM
  3

  2
PRODUCT
 70
     0
1001
ACDBATTR
1070
     0
1070
     1
  0
LINE
  5
E6F7
  8
0
 10
404.4530968392497812
 20
62.963629841187263
 30
0.0
 11
404.4427635325150732
 21
62.9724480134078135
 31
0.0
  0
ARC
  5
E6F8
  8
0
 10
403.8915824301499242
 20
66.4621619159870676
 30
0.0
 40
3.5329737798998102
 50
273.8337506955001004
 51
278.9754082162990017
  0
LINE
  5
E6F9
  8
0
 10
404.1278029025921228
 20
62.9370940275828303
 30
0.0
 11
404.1174695958748089
 21
62.9260623559761783
 31
0.0
  0
ARC
  5
E6FA
  8
0
 10
403.8915824301498105
 20
66.4621619159866697
 30
0.0
 40
3.5433070865994112
 50
266.3448937553991982
 51
273.6551062446009155
  0
LINE
  5
E6FB
  8
0
 10
403.6656952644249259
 20
62.9260623559761783
 30
0.0
 11
403.6553619576504275
 21
62.9370940275866673
 31
0.0
  0
ARC
  5
E6FC
  8
0
 10
403.8915824301498105
 20
66.4621619159871813
 30
0.0
 40
3.532973779899919
 50
261.0245917837008847
 51
266.1662493035697139
  0
LINE
  5
E6FD
  8
0
 10
403.3404013277846047
 20
62.9724480134078135
 30
0.0
 11
403.33006802107559
 21
62.9636298411947735
 31
0.0
  0
ARC
  5
E6FE
  8
0
 10
403.8915824301496968
 20
66.4621619159872665
 30
0.0
 40
3.543307086611486
 50
279.118207726893786
 51
260.8817922731095109
  0
LINE
  5
E6FF
  8
0
 10
403.1789840239499085
 20
67.5054690025872617
 30
0.0
 11
403.1789840239499085
 21
65.9306658529872607
 31
0.0
  0
LINE
  5
E700
  8
0
 10
402.9027539671910745
 20
67.6168038021592253
 30
0.0
 11
402.9027539671910745
 21
65.8192818028873035
 31
0.0
  0
LINE
  5
E701
  8
0
 10
404.0029845681555116
 20
68.4941901550554064
 30
0.0
 11
403.7801803301564973
 21
68.4941901550280932
 31
0.0
  0
LINE
  5
E702
  8
0
 10
403.5629622599252002
 20
68.4446115479787238
 30
0.0
 11
403.3622225775840775
 21
68.3479404121280396
 31
0.0
  0
LINE
  5
E703
  8
0
 10
403.3622226035935228
 20
68.3479404246534585
 30
0.0
 11
403.188027210193809
 21
68.2090242421686241
 31
0.0
  0
LINE
  5
E704
  8
0
 10
403.1880272098534874
 20
68.2090242418390318
 30
0.0
 11
403.0493918665727051
 21
68.0352602990161728
 31
0.0
  0
LINE
  5
E705
  8
0
 10
403.0491110396453109
 20
68.0348288740149201
 30
0.0
 11
402.9524399040909088
 21
67.8340891926064415
 31
0.0
  0
LINE
  5
E706
  8
0
 10
402.9027539671910745
 20
67.6168038021592253
 30
0.0
 11
402.952439903903894
 21
67.8340891920979061
 31
0.0
  0
ARC
  5
E707
  8
0
 10
403.618378133006388
 20
67.8639773420469936
 30
0.0
 40
0.0964129310718311
 50
307.5685494654484842
 51
353.8439893846907012
  0
ARC
  5
E708
  8
0
 10
342.5532840343072962
 20
74.7661749186363949
 30
0.0
 40
61.5503460371809723
 50
353.5516771416621964
 51
353.7140428811563879
  0
ARC
  5
E709
  8
0
 10
403.6038912326723107
 20
68.0132186053108114
 30
0.0
 40
0.1304157279181038
 50
6.0592376161646637
 51
110.2239089333940996
  0
ARC
  5
E70A
  8
0
 10
403.8915824590795864
 20
67.5054689917013491
 30
0.0
 40
0.7125984398935418
 50
117.8389300498827055
 51
136.6392492522107034
  0
ARC
  5
E70B
  8
0
 10
403.8915824491498938
 20
67.5054690025872475
 30
0.0
 40
0.7125984252000369
 50
136.6392493404065931
 51
162.789543067053188
  0
ARC
  5
E70C
  8
0
 10
403.8915824491498938
 20
67.5054690025872617
 30
0.0
 40
0.712598425199973
 50
162.789543067053188
 51
180.0
  0
LINE
  5
E70D
  8
0
 10
402.9027539671910745
 20
65.8192818028873035
 30
0.0
 11
402.9524399038812135
 21
65.6020456635045122
 31
0.0
  0
LINE
  5
E70E
  8
0
 10
402.9524399038812135
 20
65.6020456635045122
 30
0.0
 11
403.0491110397409216
 21
65.4013059813816824
 31
0.0
  0
LINE
  5
E70F
  8
0
 10
403.0491110397409216
 20
65.4013059813816824
 30
0.0
 11
403.1880272099022022
 21
65.2271106137396259
 31
0.0
  0
LINE
  5
E710
  8
0
 10
403.1880272099022022
 20
65.2271106137396259
 30
0.0
 11
403.3622225775499146
 21
65.0881944435872555
 31
0.0
  0
LINE
  5
E711
  8
0
 10
403.3622225775499146
 20
65.0881944435872555
 30
0.0
 11
403.5629622596525223
 21
64.9915233076586532
 31
0.0
  0
LINE
  5
E712
  8
0
 10
403.5629622596525223
 20
64.9915233076586532
 30
0.0
 11
403.7801803301474024
 21
64.9419447005653296
 31
0.0
  0
LINE
  5
E713
  8
0
 10
403.7801803301474024
 20
64.9419447005653296
 30
0.0
 11
404.0029845681656866
 21
64.9419447005314225
 31
0.0
  0
LINE
  5
E714
  8
0
 10
404.0021605612848248
 20
64.9492579640104566
 30
0.0
 11
403.7805923335998841
 21
64.9492579640104566
 31
0.0
  0
LINE
  5
E715
  8
0
 10
403.7805923335998841
 20
64.9492579640104566
 30
0.0
 11
403.5653929611764283
 21
64.9984698536630532
 31
0.0
  0
LINE
  5
E716
  8
0
 10
403.5653929611764283
 20
64.9984698536630532
 30
0.0
 11
403.3661380882676895
 21
65.0944259431793029
 31
0.0
  0
LINE
  5
E717
  8
0
 10
403.3661380882676895
 20
65.0944259431793029
 30
0.0
 11
403.1932311896620718
 21
65.2323145935713029
 31
0.0
  0
LINE
  5
E718
  8
0
 10
403.1932311896620718
 20
65.2323145935713029
 30
0.0
 11
403.0553425392860163
 21
65.4052214921564996
 31
0.0
  0
LINE
  5
E719
  8
0
 10
403.0553425392860163
 20
65.4052214921564996
 30
0.0
 11
402.9593864498094717
 21
65.6044763650081535
 31
0.0
  0
LINE
  5
E71A
  8
0
 10
402.9593864498094717
 20
65.6044763650081535
 30
0.0
 11
402.9101745715498168
 21
65.8200877421872548
 31
0.0
  0
LINE
  5
E71B
  8
0
 10
402.9101745715498168
 20
65.8200877421872548
 30
0.0
 11
402.910174560222174
 21
67.6160471146888824
 31
0.0
  0
LINE
  5
E71C
  8
0
 10
402.910174560222174
 20
67.6160471146888824
 30
0.0
 11
402.9593864498228868
 21
67.8316584905918489
 31
0.0
  0
LINE
  5
E71D
  8
0
 10
402.9593864498228868
 20
67.8316584905918489
 30
0.0
 11
403.0553425392856184
 21
68.0309133634648049
 31
0.0
  0
LINE
  5
E71E
  8
0
 10
403.0553425392856184
 20
68.0309133634648049
 30
0.0
 11
403.1932311896729857
 21
68.2038202620640845
 31
0.0
  0
LINE
  5
E71F
  8
0
 10
403.1932311896729857
 20
68.2038202620640845
 30
0.0
 11
403.3661380882148819
 21
68.341708912542984
 31
0.0
  0
LINE
  5
E720
  8
0
 10
403.3661380882148819
 20
68.341708912542984
 30
0.0
 11
403.5653929611497119
 21
68.4376650019873836
 31
0.0
  0
LINE
  5
E721
  8
0
 10
403.5653929611497119
 20
68.4376650019873836
 30
0.0
 11
403.7810043370565722
 21
68.4868768915275155
 31
0.0
  0
LINE
  5
E722
  8
0
 10
403.7810043370565722
 20
68.4868768915275155
 30
0.0
 11
404.0021605613047768
 21
68.4868768915640942
 31
0.0
  0
ARC
  5
E723
  8
0
 10
403.8915824301498105
 20
67.5054690025872617
 30
0.0
 40
0.9645669290999993
 50
222.3727896400968973
 51
317.6272137091339118
  0
ARC
  5
E724
  8
0
 10
403.8915824301498105
 20
67.5054690025872617
 30
0.0
 40
0.9940944881999991
 50
224.2064875189078919
 51
315.793515622268103
  0
ARC
  5
E725
  8
0
 10
403.8915824491498938
 20
65.9306658529872607
 30
0.0
 40
0.7125984251999995
 50
180.0
 51
0.0
  0
CIRCLE
  5
E726
  8
0
 10
403.8915824491498938
 20
67.5054690025872617
 30
0.0
 40
0.3543306894
  0
LINE
  5
E727
  8
0
 10
403.562962259662072
 20
68.4446115478520767
 30
0.0
 11
403.7801803301564973
 21
68.4941901550280932
 31
0.0
  0
LINE
  5
E728
  8
0
 10
404.6041808363495988
 20
67.5054690025872617
 30
0.0
 11
404.6041808363495988
 21
65.9306658529872607
 31
0.0
  0
LINE
  5
E729
  8
0
 10
404.8804108931083192
 20
67.6168038021592253
 30
0.0
 11
404.8804108931083192
 21
65.8192818028873035
 31
0.0
  0
LINE
  5
E72A
  8
0
 10
404.2202026003743072
 20
68.4446115479787238
 30
0.0
 11
404.420942282715373
 21
68.3479404121280396
 31
0.0
  0
LINE
  5
E72B
  8
0
 10
404.4209422567059846
 20
68.3479404246534585
 30
0.0
 11
404.5951376501056984
 21
68.2090242421686241
 31
0.0
  0
LINE
  5
E72C
  8
0
 10
404.59513765044602
 20
68.2090242418390318
 30
0.0
 11
404.7337729937268023
 21
68.0352602990161728
 31
0.0
  0
LINE
  5
E72D
  8
0
 10
404.7340538206540828
 20
68.0348288740149201
 30
0.0
 11
404.8307249562084849
 21
67.8340891926064415
 31
0.0
  0
LINE
  5
E72E
  8
0
 10
404.8804108931083192
 20
67.6168038021592253
 30
0.0
 11
404.8307249563956134
 21
67.8340891920979061
 31
0.0
  0
ARC
  5
E72F
  8
0
 10
404.1647867272931194
 20
67.8639773420469936
 30
0.0
 40
0.0964129310718311
 50
186.1560106153092988
 51
232.4314505345514874
  0
ARC
  5
E730
  8
0
 10
465.2298808259923248
 20
74.7661749186363949
 30
0.0
 40
61.5503460371809723
 50
186.2859571188436121
 51
186.4483228583378036
  0
ARC
  5
E731
  8
0
 10
404.179273627627083
 20
68.0132186053108114
 30
0.0
 40
0.1304157279181038
 50
69.7760910666058152
 51
173.9407623838353061
  0
ARC
  5
E732
  8
0
 10
403.8915824012199209
 20
67.5054689917013491
 30
0.0
 40
0.7125984398935418
 50
43.3607507477893108
 51
62.1610699501172874
  0
ARC
  5
E733
  8
0
 10
403.8915824111496136
 20
67.5054690025872475
 30
0.0
 40
0.7125984252000369
 50
17.2104569329467303
 51
43.3607506595933501
  0
ARC
  5
E734
  8
0
 10
403.8915824111496136
 20
67.5054690025872617
 30
0.0
 40
0.712598425199973
 50
0.0
 51
17.2104569329467303
  0
LINE
  5
E735
  8
0
 10
404.8804108931083192
 20
65.8192818028873035
 30
0.0
 11
404.8307249564181802
 21
65.6020456635045122
 31
0.0
  0
LINE
  5
E736
  8
0
 10
404.8307249564181802
 20
65.6020456635045122
 30
0.0
 11
404.7340538205584721
 21
65.4013059813816824
 31
0.0
  0
LINE
  5
E737
  8
0
 10
404.7340538205584721
 20
65.4013059813816824
 30
0.0
 11
404.5951376503973052
 21
65.2271106137396259
 31
0.0
  0
LINE
  5
E738
  8
0
 10
404.5951376503973052
 20
65.2271106137396259
 30
0.0
 11
404.4209422827495928
 21
65.0881944435872555
 31
0.0
  0
LINE
  5
E739
  8
0
 10
404.4209422827495928
 20
65.0881944435872555
 30
0.0
 11
404.220202600646985
 21
64.9915233076586532
 31
0.0
  0
LINE
  5
E73A
  8
0
 10
404.220202600646985
 20
64.9915233076586532
 30
0.0
 11
404.0029845301519913
 21
64.9419447005653296
 31
0.0
  0
LINE
  5
E73B
  8
0
 10
404.0025725266996233
 20
64.9492579640104566
 30
0.0
 11
404.217771899123079
 21
64.9984698536630532
 31
0.0
  0
LINE
  5
E73C
  8
0
 10
404.217771899123079
 20
64.9984698536630532
 30
0.0
 11
404.4170267720317042
 21
65.0944259431793029
 31
0.0
  0
LINE
  5
E73D
  8
0
 10
404.4170267720317042
 20
65.0944259431793029
 30
0.0
 11
404.5899336706373788
 21
65.2323145935713029
 31
0.0
  0
LINE
  5
E73E
  8
0
 10
404.5899336706373788
 20
65.2323145935713029
 30
0.0
 11
404.7278223210134911
 21
65.4052214921564996
 31
0.0
  0
LINE
  5
E73F
  8
0
 10
404.7278223210134911
 20
65.4052214921564996
 30
0.0
 11
404.823778410489922
 21
65.6044763650081535
 31
0.0
  0
LINE
  5
E740
  8
0
 10
404.823778410489922
 20
65.6044763650081535
 30
0.0
 11
404.8729902887495768
 21
65.8200877421872548
 31
0.0
  0
LINE
  5
E741
  8
0
 10
404.8729902887495768
 20
65.8200877421872548
 30
0.0
 11
404.8729903000772765
 21
67.6160471146888824
 31
0.0
  0
LINE
  5
E742
  8
0
 10
404.8729903000772765
 20
67.6160471146888824
 30
0.0
 11
404.8237784104765069
 21
67.8316584905918489
 31
0.0
  0
LINE
  5
E743
  8
0
 10
404.8237784104765069
 20
67.8316584905918489
 30
0.0
 11
404.7278223210137753
 21
68.0309133634648049
 31
0.0
  0
LINE
  5
E744
  8
0
 10
404.7278223210137753
 20
68.0309133634648049
 30
0.0
 11
404.5899336706265217
 21
68.2038202620640845
 31
0.0
  0
LINE
  5
E745
  8
0
 10
404.5899336706265217
 20
68.2038202620640845
 30
0.0
 11
404.4170267720846255
 21
68.341708912542984
 31
0.0
  0
LINE
  5
E746
  8
0
 10
404.4170267720846255
 20
68.341708912542984
 30
0.0
 11
404.2177718991496818
 21
68.4376650019873836
 31
0.0
  0
LINE
  5
E747
  8
0
 10
404.2177718991496818
 20
68.4376650019873836
 30
0.0
 11
404.0021605232428783
 21
68.4868768915275155
 31
0.0
  0
LINE
  5
E748
  8
0
 10
404.2202026006373217
 20
68.4446115478520767
 30
0.0
 11
404.00298453014301
 21
68.4941901550280932
 31
0.0
  0
ENDSEC
  0
EOF
