  0
SECTION
  2
HEADER
  9
$ACADVER
  1
AC1009
  9
$INSBASE
 10
378.2729180428934228
 20
18.1229782478853494
 30
0.0
  9
$EXTMIN
 10
374.7296109562935271
 20
14.6387262759241104
 30
0.0
  9
$EXTMAX
 10
381.8162251294932048
 20
18.1280395462693811
 30
0.0
  9
$LIMMIN
 10
0.0
 20
0.0
  9
$LIMMAX
 10
22.0
 20
17.0
  9
$ORTHOMODE
 70
     0
  9
$REGENMODE
 70
     1
  9
$FILLMODE
 70
     1
  9
$QTEXTMODE
 70
     0
  9
$MIRRTEXT
 70
     0
  9
$DRAGMODE
 70
     2
  9
$LTSCALE
 40
1.2099999999999991
  9
$OSMODE
 70
  4095
  9
$ATTMODE
 70
     1
  9
$TEXTSIZE
 40
0.2
  9
$TRACEWID
 40
0.05
  9
$TEXTSTYLE
  7
STANDARD
  9
$CLAYER
  8
0
  9
$CELTYPE
  6
BYLAYER
  9
$CECOLOR
 62
   256
  9
$DIMSCALE
 40
1.0
  9
$DIMASZ
 40
0.1875
  9
$DIMEXO
 40
0.0625
  9
$DIMDLI
 40
0.38
  9
$DIMRND
 40
0.0
  9
$DIMDLE
 40
0.0
  9
$DIMEXE
 40
0.125
  9
$DIMTP
 40
1.5
  9
$DIMTM
 40
1.5
  9
$DIMTXT
 40
1.5
  9
$DIMCEN
 40
0.09
  9
$DIMTSZ
 40
0.0
  9
$DIMTOL
 70
     0
  9
$DIMLIM
 70
     0
  9
$DIMTIH
 70
     1
  9
$DIMTOH
 70
     1
  9
$DIMSE1
 70
     0
  9
$DIMSE2
 70
     0
  9
$DIMTAD
 70
     0
  9
$DIMZIN
 70
     4
  9
$DIMBLK
  1

  9
$DIMASO
 70
     1
  9
$DIMSHO
 70
     1
  9
$DIMPOST
  1

  9
$DIMAPOST
  1

  9
$DIMALT
 70
     0
  9
$DIMALTD
 70
     2
  9
$DIMALTF
 40
25.3999999999999986
  9
$DIMLFAC
 40
1.0
  9
$DIMTOFL
 70
     0
  9
$DIMTVP
 40
0.0
  9
$DIMTIX
 70
     0
  9
$DIMSOXD
 70
     0
  9
$DIMSAH
 70
     0
  9
$DIMBLK1
  1

  9
$DIMBLK2
  1

  9
$DIMSTYLE
  2
STANDARD
  9
$DIMCLRD
 70
     0
  9
$DIMCLRE
 70
     0
  9
$DIMCLRT
 70
     0
  9
$DIMTFAC
 40
1.0
  9
$DIMGAP
 40
0.09
  9
$LUNITS
 70
     2
  9
$LUPREC
 70
     4
  9
$SKETCHINC
 40
0.1
  9
$FILLETRAD
 40
0.0
  9
$AUNITS
 70
     0
  9
$AUPREC
 70
     0
  9
$MENU
  1
.
  9
$ELEVATION
 40
0.0
  9
$PELEVATION
 40
0.0
  9
$THICKNESS
 40
0.0
  9
$LIMCHECK
 70
     0
  9
$BLIPMODE
 70
     0
  9
$CHAMFERA
 40
0.0
  9
$CHAMFERB
 40
0.0
  9
$SKPOLY
 70
     0
  9
$TDCREATE
 40
2457827.4934837957844138
  9
$TDUPDATE
 40
2459899.7743402780033648
  9
$TDINDWG
 40
0.5099788194
  9
$TDUSRTIMER
 40
0.5099788194
  9
$USRTIMER
 70
     1
  9
$ANGBASE
 50
0.0
  9
$ANGDIR
 70
     0
  9
$PDMODE
 70
     0
  9
$PDSIZE
 40
0.3125
  9
$PLINEWID
 40
0.0
  9
$COORDS
 70
     1
  9
$SPLFRAME
 70
     0
  9
$SPLINETYPE
 70
     6
  9
$SPLINESEGS
 70
     8
  9
$ATTDIA
 70
     1
  9
$ATTREQ
 70
     1
  9
$HANDLING
 70
     1
  9
$HANDSEED
  5
69CB
  9
$SURFTAB1
 70
     6
  9
$SURFTAB2
 70
     6
  9
$SURFTYPE
 70
     6
  9
$SURFU
 70
     6
  9
$SURFV
 70
     6
  9
$UCSNAME
  2

  9
$UCSORG
 10
0.0
 20
0.0
 30
0.0
  9
$UCSXDIR
 10
1.0
 20
0.0
 30
0.0
  9
$UCSYDIR
 10
0.0
 20
1.0
 30
0.0
  9
$PUCSNAME
  2

  9
$PUCSORG
 10
0.0
 20
0.0
 30
0.0
  9
$PUCSXDIR
 10
1.0
 20
0.0
 30
0.0
  9
$PUCSYDIR
 10
0.0
 20
1.0
 30
0.0
  9
$USERI1
 70
     0
  9
$USERI2
 70
     0
  9
$USERI3
 70
     0
  9
$USERI4
 70
     0
  9
$USERI5
 70
     0
  9
$USERR1
 40
0.0
  9
$USERR2
 40
0.0
  9
$USERR3
 40
0.0
  9
$USERR4
 40
0.0
  9
$USERR5
 40
0.0
  9
$WORLDVIEW
 70
     1
  9
$SHADEDGE
 70
     3
  9
$SHADEDIF
 70
    70
  9
$TILEMODE
 70
     1
  9
$MAXACTVP
 70
    48
  9
$PLIMCHECK
 70
     0
  9
$PEXTMIN
 10
1.0000000000000000E+20
 20
1.0000000000000000E+20
 30
1.0000000000000000E+20
  9
$PEXTMAX
 10
-1.0000000000000000E+20
 20
-1.0000000000000000E+20
 30
-1.0000000000000000E+20
  9
$PLIMMIN
 10
0.0
 20
0.0
  9
$PLIMMAX
 10
12.0
 20
9.0
  9
$UNITMODE
 70
     0
  9
$VISRETAIN
 70
     1
  9
$PLINEGEN
 70
     0
  9
$PSLTSCALE
 70
     1
  0
ENDSEC
  0
SECTION
  2
TABLES
  0
TABLE
  2
VPORT
 70
     1
  0
VPORT
  2
*ACTIVE
 70
     0
 10
0.0
 20
0.0
 11
1.0
 21
1.0
 12
167.3043235015859125
 22
10.9018218567714893
 13
0.0
 23
0.0
 14
1.0
 24
1.0
 15
0.0
 25
0.0
 16
-0.0000000000000284
 26
0.0
 36
157.2215818301446859
 17
210.9789276123046875
 27
7.2024491855605604
 37
0.0
 40
0.0676279496832052
 41
2.5251322751322749
 42
50.0
 43
0.0
 44
0.0
 50
0.0
 51
0.0
 71
     0
 72
   100
 73
     1
 74
     1
 75
     0
 76
     0
 77
     0
 78
     0
  0
ENDTAB
  0
TABLE
  2
LTYPE
 70
     2
  0
LTYPE
  2
CONTINUOUS
 70
     0
  3
Solid line
 72
    65
 73
     0
 40
0.0
  0
LTYPE
  2
PHANTOM2
 70
     0
  3
___ _ _ ___ _ _ ___ _ _ ___ _ _
 72
    65
 73
     6
 40
1.25
 49
0.625
 49
-0.125
 49
0.125
 49
-0.125
 49
0.125
 49
-0.125
  0
ENDTAB
  0
TABLE
  2
LAYER
 70
     2
  0
LAYER
  2
0
 70
     0
 62
     7
  6
CONTINUOUS
  0
LAYER
  2
DEFPOINTS
 70
     0
 62
     7
  6
CONTINUOUS
  0
ENDTAB
  0
TABLE
  2
STYLE
 70
     1
  0
STYLE
  2
STANDARD
 70
     0
 40
0.0
 41
0.8
 50
0.0
 71
     0
 42
0.2
  3
txt
  4

  0
ENDTAB
  0
TABLE
  2
VIEW
 70
     0
  0
ENDTAB
  0
TABLE
  2
UCS
 70
     0
  0
ENDTAB
  0
TABLE
  2
APPID
 70
     9
  0
APPID
  2
ACAD
 70
     0
  0
APPID
  2
ACAD_MLEADERVER
 70
     0
  0
APPID
  2
ACAD_EXEMPT_FROM_CAD_STANDARDS
 70
     0
  0
APPID
  2
ACAD_NAV_VCDISPLAY
 70
     0
  0
APPID
  2
ACADANNOMONITORALERTICONDI
 70
     0
  0
APPID
  2
ACAD_DSTYLE_DIMJAG
 70
     0
  0
APPID
  2
ACAD_DSTYLE_DIMTALN
 70
     0
  0
APPID
  2
ACDBATTR
 70
     0
  0
APPID
  2
DCO15
 70
     0
  0
ENDTAB
  0
TABLE
  2
DIMSTYLE
 70
     1
  0
DIMSTYLE
  2
STANDARD
 70
     0
  3

  4

  5

  6

  7

 40
1.0
 41
0.1875
 42
0.0625
 43
0.38
 44
0.125
 45
0.0
 46
0.0
 47
1.5
 48
1.5
140
1.5
141
0.09
142
0.0
143
25.3999999999999986
144
1.0
145
0.0
146
1.0
147
0.09
 71
     0
 72
     0
 73
     1
 74
     1
 75
     0
 76
     0
 77
     0
 78
     4
170
     0
171
     2
172
     0
173
     0
174
     0
175
     0
176
     0
177
     0
178
     0
  0
ENDTAB
  0
ENDSEC
  0
SECTION
  2
BLOCKS
  0
BLOCK
  8
0
  2
$MODEL_SPACE
 70
     0
 10
0.0
 20
0.0
 30
0.0
  3
$MODEL_SPACE
  1

  0
ENDBLK
  5
21
  8
0
  0
BLOCK
 67
     1
  8
0
  2
$PAPER_SPACE
 70
     0
 10
0.0
 20
0.0
 30
0.0
  3
$PAPER_SPACE
  1

  0
ENDBLK
  5
1D
 67
     1
  8
0
  0
BLOCK
  8
0
  2
_FILLED
 70
     0
 10
0.0
 20
0.0
 30
0.0
  3
_FILLED
  1

  0
SOLID
  5
6485
  8
0
  6
BYBLOCK
 62
     0
 10
0.0
 20
0.0
 30
0.0
 11
-1.0
 21
0.1666666667
 31
0.0
 12
-1.0
 22
-0.1666666667
 32
0.0
 13
-1.0
 23
-0.1666666667
 33
0.0
  0
ENDBLK
  5
6486
  8
0
  6
BYBLOCK
 62
     0
  0
ENDSEC
  0
SECTION
  2
ENTITIES
  0
ATTDEF
  5
4EF9
  8
DEFPOINTS
 10
378.2646740082932979
 20
18.1270395462693799
 30
0.0
 40
0.001
  1
K-78020T-B4A
  3

  2
MODELNUMBER
 70
     0
1001
ACDBATTR
1070
     0
1070
     1
  0
ATTDEF
  5
4EFA
  8
DEFPOINTS
 10
378.2646740082932979
 20
18.1253728796027005
 30
0.0
 40
0.001
  1
MODULO
  3

  2
TRADENAME
 70
     0
1001
ACDBATTR
1070
     0
1070
     1
  0
ATTDEF
  5
4EFB
  8
DEFPOINTS
 10
378.2646740082932979
 20
18.1237062129360211
 30
0.0
 40
0.001
  1
VALVE TRIM
  3

  2
PRODUCT
 70
     0
1001
ACDBATTR
1070
     0
1070
     1
  0
LINE
  5
681E
  8
0
 10
381.8162251294932048
 20
18.1229782478853494
 30
0.0
 11
374.7296109562935271
 21
18.1229782478853494
 31
0.0
  0
LINE
  5
681F
  8
0
 10
377.3083870582792088
 20
17.5717971455853501
 30
0.0
 11
377.3083870582792088
 21
16.4773499014853684
 31
0.0
  0
LINE
  5
6820
  8
0
 10
377.3201980818790844
 20
16.4497499014853688
 30
0.0
 11
379.2256739483934211
 21
16.4497499014853688
 31
0.0
  0
ARC
  5
6821
  8
0
 10
377.3359870582792155
 20
16.4773499014853684
 30
0.0
 40
0.0276
 50
180.0
 51
270.0
  0
LINE
  5
6822
  8
0
 10
381.8162251294932048
 20
18.1229782478853494
 30
0.0
 11
381.7711618121023207
 21
17.60773589588538
 31
0.0
  0
ARC
  5
6823
  8
0
 10
381.7319415483796092
 20
17.6111672243439692
 30
0.0
 40
0.0393700787586257
 50
270.0000000328814735
 51
354.9999999965157826
  0
LINE
  5
6824
  8
0
 10
381.7319415484022898
 20
17.5717971455853501
 30
0.0
 11
374.8138945373842716
 21
17.5717971416162015
 31
0.0
  0
ARC
  5
6825
  8
0
 10
374.8138945373621027
 20
17.6111672199126197
 30
0.0
 40
0.039370078296388
 50
184.9999936636671976
 51
270.0000000328814735
  0
LINE
  5
6826
  8
0
 10
374.7746742737202794
 20
17.60773589583399
 30
0.0
 11
374.7296109562935271
 21
18.1229782478853494
 31
0.0
  0
ARC
  5
6827
  8
0
 10
377.3201980818790844
 20
16.4379388778853794
 30
0.0
 40
0.0118110235999982
 50
90.0
 51
180.0000000000098055
  0
LINE
  5
6828
  8
0
 10
377.3083870582792088
 20
16.4379388778853794
 30
0.0
 11
377.3083870582792088
 21
15.4379388778853208
 31
0.0
  0
ARC
  5
6829
  8
0
 10
377.320198081979072
 20
15.4379388778853794
 30
0.0
 40
0.0118110237000009
 50
180.0000000000032117
 51
269.9999995141504883
  0
LINE
  5
682A
  8
0
 10
377.3201980818790844
 20
15.4261278541853493
 30
0.0
 11
379.2257098928795926
 21
15.4261278380276607
 31
0.0
  0
ARC
  5
682B
  8
0
 10
379.2257041188677249
 20
15.4379528014537293
 30
0.0
 40
0.0118249648357417
 50
270.0279769575780051
 51
359.9325357920608894
  0
ARC
  5
682C
  8
0
 10
379.225701733495896
 20
16.4379225510204385
 30
0.0
 40
0.0118273532794022
 50
0.0790929866661434
 51
89.9604731291228461
  0
ARC
  5
682D
  8
0
 10
379.2099151451163266
 20
16.4773638348111398
 30
0.0
 40
0.0276139339050203
 50
270.0119748361192933
 51
359.9710899783011087
  0
LINE
  5
682E
  8
0
 10
377.3280720975790814
 20
15.4261278541186098
 30
0.0
 11
377.3280720975790814
 21
15.4162853344853605
 31
0.0
  0
LINE
  5
682F
  8
0
 10
377.3280720975790814
 20
15.4162853344853605
 30
0.0
 11
379.2178323630175214
 21
15.4162809371567509
 31
0.0
  0
LINE
  5
6830
  8
0
 10
379.2178323630175214
 20
15.4162809371567509
 30
0.0
 11
379.2178323630175214
 21
15.42612783809445
 31
0.0
  0
ARC
  5
6831
  8
0
 10
378.0971292732808138
 20
16.0308964214360401
 30
0.0
 40
0.9844773881105403
 50
218.6309658314465878
 51
223.9703363381557892
  0
ARC
  5
6832
  8
0
 10
378.4487786760793142
 20
16.0308964463852384
 30
0.0
 40
0.984477423599869
 50
316.0296636368120176
 51
321.3687063528980161
  0
LINE
  5
6833
  8
0
 10
377.3084016056884025
 20
15.3473876966853808
 30
0.0
 11
379.2375290755061883
 21
15.3473876966853808
 31
0.0
  0
ARC
  5
6834
  8
0
 10
378.2725641599702726
 20
38.2602479126981123
 30
0.0
 40
23.6215216367739984
 50
267.7065763848746087
 51
272.2934236151352252
  0
ARC
  5
6835
  8
0
 10
377.3280980156819737
 20
14.6773274462001595
 30
0.0
 40
0.0196964130234078
 50
180.0317788128458005
 51
267.6757811001244249
  0
LINE
  5
6836
  8
0
 10
377.3084016056884025
 20
14.6773165216853503
 30
0.0
 11
377.3084016056884025
 21
15.3473876966853808
 31
0.0
  0
LINE
  5
6837
  8
0
 10
377.327299244434073
 20
14.6576472365853405
 30
0.0
 11
379.217829075506188
 21
14.6576472365853405
 31
0.0
  0
LINE
  5
6839
  8
0
 10
379.2375290755061883
 20
14.6773472365853408
 30
0.0
 11
379.2375290755061883
 21
17.5717971441542105
 31
0.0
  0
ARC
  5
683A
  8
0
 10
379.217829075506188
 20
14.6773472365853408
 30
0.0
 40
0.0197
 50
269.9999999999935199
 51
0.0000000000050889
  0
ENDSEC
  0
EOF
