  0
SECTION
  2
HEADER
  9
$ACADVER
  1
AC1009
  9
$INSBASE
 10
365.8803348567122953
 20
22.55722363458516
 30
0.0
  9
$EXTMIN
 10
362.3960828882125043
 20
19.0139165479850298
 30
0.0
  9
$EXTMAX
 10
365.8921214417105148
 20
26.1005307211850592
 30
0.0
  9
$LIMMIN
 10
0.0
 20
0.0
  9
$LIMMAX
 10
22.0
 20
17.0
  9
$ORTHOMODE
 70
     0
  9
$REGENMODE
 70
     1
  9
$FILLMODE
 70
     1
  9
$QTEXTMODE
 70
     0
  9
$MIRRTEXT
 70
     0
  9
$DRAGMODE
 70
     2
  9
$LTSCALE
 40
1.2099999999999991
  9
$OSMODE
 70
  4095
  9
$ATTMODE
 70
     1
  9
$TEXTSIZE
 40
0.2
  9
$TRACEWID
 40
0.05
  9
$TEXTSTYLE
  7
STANDARD
  9
$CLAYER
  8
0
  9
$CELTYPE
  6
BYLAYER
  9
$CECOLOR
 62
   256
  9
$DIMSCALE
 40
1.0
  9
$DIMASZ
 40
0.1875
  9
$DIMEXO
 40
0.0625
  9
$DIMDLI
 40
0.38
  9
$DIMRND
 40
0.0
  9
$DIMDLE
 40
0.0
  9
$DIMEXE
 40
0.125
  9
$DIMTP
 40
1.5
  9
$DIMTM
 40
1.5
  9
$DIMTXT
 40
1.5
  9
$DIMCEN
 40
0.09
  9
$DIMTSZ
 40
0.0
  9
$DIMTOL
 70
     0
  9
$DIMLIM
 70
     0
  9
$DIMTIH
 70
     1
  9
$DIMTOH
 70
     1
  9
$DIMSE1
 70
     0
  9
$DIMSE2
 70
     0
  9
$DIMTAD
 70
     0
  9
$DIMZIN
 70
     4
  9
$DIMBLK
  1

  9
$DIMASO
 70
     1
  9
$DIMSHO
 70
     1
  9
$DIMPOST
  1

  9
$DIMAPOST
  1

  9
$DIMALT
 70
     0
  9
$DIMALTD
 70
     2
  9
$DIMALTF
 40
25.3999999999999986
  9
$DIMLFAC
 40
1.0
  9
$DIMTOFL
 70
     0
  9
$DIMTVP
 40
0.0
  9
$DIMTIX
 70
     0
  9
$DIMSOXD
 70
     0
  9
$DIMSAH
 70
     0
  9
$DIMBLK1
  1

  9
$DIMBLK2
  1

  9
$DIMSTYLE
  2
STANDARD
  9
$DIMCLRD
 70
     0
  9
$DIMCLRE
 70
     0
  9
$DIMCLRT
 70
     0
  9
$DIMTFAC
 40
1.0
  9
$DIMGAP
 40
0.09
  9
$LUNITS
 70
     2
  9
$LUPREC
 70
     4
  9
$SKETCHINC
 40
0.1
  9
$FILLETRAD
 40
0.0
  9
$AUNITS
 70
     0
  9
$AUPREC
 70
     0
  9
$MENU
  1
.
  9
$ELEVATION
 40
0.0
  9
$PELEVATION
 40
0.0
  9
$THICKNESS
 40
0.0
  9
$LIMCHECK
 70
     0
  9
$BLIPMODE
 70
     0
  9
$CHAMFERA
 40
0.0
  9
$CHAMFERB
 40
0.0
  9
$SKPOLY
 70
     0
  9
$TDCREATE
 40
2457827.4934837957844138
  9
$TDUPDATE
 40
2459899.774120369926095
  9
$TDINDWG
 40
0.5101755787
  9
$TDUSRTIMER
 40
0.5101755787
  9
$USRTIMER
 70
     1
  9
$ANGBASE
 50
0.0
  9
$ANGDIR
 70
     0
  9
$PDMODE
 70
     0
  9
$PDSIZE
 40
0.3125
  9
$PLINEWID
 40
0.0
  9
$COORDS
 70
     1
  9
$SPLFRAME
 70
     0
  9
$SPLINETYPE
 70
     6
  9
$SPLINESEGS
 70
     8
  9
$ATTDIA
 70
     1
  9
$ATTREQ
 70
     1
  9
$HANDLING
 70
     1
  9
$HANDSEED
  5
690B
  9
$SURFTAB1
 70
     6
  9
$SURFTAB2
 70
     6
  9
$SURFTYPE
 70
     6
  9
$SURFU
 70
     6
  9
$SURFV
 70
     6
  9
$UCSNAME
  2

  9
$UCSORG
 10
0.0
 20
0.0
 30
0.0
  9
$UCSXDIR
 10
1.0
 20
0.0
 30
0.0
  9
$UCSYDIR
 10
0.0
 20
1.0
 30
0.0
  9
$PUCSNAME
  2

  9
$PUCSORG
 10
0.0
 20
0.0
 30
0.0
  9
$PUCSXDIR
 10
1.0
 20
0.0
 30
0.0
  9
$PUCSYDIR
 10
0.0
 20
1.0
 30
0.0
  9
$USERI1
 70
     0
  9
$USERI2
 70
     0
  9
$USERI3
 70
     0
  9
$USERI4
 70
     0
  9
$USERI5
 70
     0
  9
$USERR1
 40
0.0
  9
$USERR2
 40
0.0
  9
$USERR3
 40
0.0
  9
$USERR4
 40
0.0
  9
$USERR5
 40
0.0
  9
$WORLDVIEW
 70
     1
  9
$SHADEDGE
 70
     3
  9
$SHADEDIF
 70
    70
  9
$TILEMODE
 70
     1
  9
$MAXACTVP
 70
    48
  9
$PLIMCHECK
 70
     0
  9
$PEXTMIN
 10
1.0000000000000000E+20
 20
1.0000000000000000E+20
 30
1.0000000000000000E+20
  9
$PEXTMAX
 10
-1.0000000000000000E+20
 20
-1.0000000000000000E+20
 30
-1.0000000000000000E+20
  9
$PLIMMIN
 10
0.0
 20
0.0
  9
$PLIMMAX
 10
12.0
 20
9.0
  9
$UNITMODE
 70
     0
  9
$VISRETAIN
 70
     1
  9
$PLINEGEN
 70
     0
  9
$PSLTSCALE
 70
     1
  0
ENDSEC
  0
SECTION
  2
TABLES
  0
TABLE
  2
VPORT
 70
     1
  0
VPORT
  2
*ACTIVE
 70
     0
 10
0.0
 20
0.0
 11
1.0
 21
1.0
 12
155.3127791435765062
 22
13.2584236884192102
 13
0.0
 23
0.0
 14
1.0
 24
1.0
 15
0.0
 25
0.0
 16
-0.0000000000000284
 26
0.0
 36
157.2215818301446859
 17
210.9789276123046875
 27
7.2024491855605604
 37
0.0
 40
17.9571388846604698
 41
2.5251322751322749
 42
50.0
 43
0.0
 44
0.0
 50
0.0
 51
0.0
 71
     0
 72
   100
 73
     1
 74
     1
 75
     0
 76
     0
 77
     0
 78
     0
  0
ENDTAB
  0
TABLE
  2
LTYPE
 70
     3
  0
LTYPE
  2
CONTINUOUS
 70
     0
  3
Solid line
 72
    65
 73
     0
 40
0.0
  0
LTYPE
  2
PHANTOM2
 70
     0
  3
___ _ _ ___ _ _ ___ _ _ ___ _ _
 72
    65
 73
     6
 40
1.25
 49
0.625
 49
-0.125
 49
0.125
 49
-0.125
 49
0.125
 49
-0.125
  0
ENDTAB
  0
TABLE
  2
LAYER
 70
     2
  0
LAYER
  2
0
 70
     0
 62
     7
  6
CONTINUOUS
  0
LAYER
  2
DEFPOINTS
 70
     0
 62
     7
  6
CONTINUOUS
  0
ENDTAB
  0
TABLE
  2
STYLE
 70
     1
  0
STYLE
  2
STANDARD
 70
     0
 40
0.0
 41
0.8
 50
0.0
 71
     0
 42
0.2
  3
txt
  4

  0
ENDTAB
  0
TABLE
  2
VIEW
 70
     0
  0
ENDTAB
  0
TABLE
  2
UCS
 70
     0
  0
ENDTAB
  0
TABLE
  2
APPID
 70
     9
  0
APPID
  2
ACAD
 70
     0
  0
APPID
  2
ACAD_MLEADERVER
 70
     0
  0
APPID
  2
ACAD_EXEMPT_FROM_CAD_STANDARDS
 70
     0
  0
APPID
  2
ACAD_NAV_VCDISPLAY
 70
     0
  0
APPID
  2
ACADANNOMONITORALERTICONDI
 70
     0
  0
APPID
  2
ACAD_DSTYLE_DIMJAG
 70
     0
  0
APPID
  2
ACAD_DSTYLE_DIMTALN
 70
     0
  0
APPID
  2
ACDBATTR
 70
     0
  0
APPID
  2
DCO15
 70
     0
  0
ENDTAB
  0
TABLE
  2
DIMSTYLE
 70
     2
  0
DIMSTYLE
  2
STANDARD
 70
     0
  3

  4

  5

  6

  7

 40
1.0
 41
0.1875
 42
0.0625
 43
0.38
 44
0.125
 45
0.0
 46
0.0
 47
1.5
 48
1.5
140
1.5
141
0.09
142
0.0
143
25.3999999999999986
144
1.0
145
0.0
146
1.0
147
0.09
 71
     0
 72
     0
 73
     1
 74
     1
 75
     0
 76
     0
 77
     0
 78
     4
170
     0
171
     2
172
     0
173
     0
174
     0
175
     0
176
     0
177
     0
178
     0
  0
ENDTAB
  0
ENDSEC
  0
SECTION
  2
BLOCKS
  0
BLOCK
  8
0
  2
$MODEL_SPACE
 70
     0
 10
0.0
 20
0.0
 30
0.0
  3
$MODEL_SPACE
  1

  0
ENDBLK
  5
21
  8
0
  0
BLOCK
 67
     1
  8
0
  2
$PAPER_SPACE
 70
     0
 10
0.0
 20
0.0
 30
0.0
  3
$PAPER_SPACE
  1

  0
ENDBLK
  5
1D
 67
     1
  8
0
  0
BLOCK
  8
0
  2
_FILLED
 70
     0
 10
0.0
 20
0.0
 30
0.0
  3
_FILLED
  1

  0
SOLID
  5
6485
  8
0
  6
BYBLOCK
 62
     0
 10
0.0
 20
0.0
 30
0.0
 11
-1.0
 21
0.1666666667
 31
0.0
 12
-1.0
 22
-0.1666666667
 32
0.0
 13
-1.0
 23
-0.1666666667
 33
0.0
  0
ENDBLK
  5
6486
  8
0
  6
BYBLOCK
 62
     0
  0
ENDSEC
  0
SECTION
  2
ENTITIES
  0
ATTDEF
  5
4EF9
  8
DEFPOINTS
 10
365.8814547750437214
 20
22.5605092938675611
 30
0.0
 40
0.001
  1
K-78020T-B4A
  3

  2
MODELNUMBER
 70
     0
1001
ACDBATTR
1070
     0
1070
     1
  0
ATTDEF
  5
4EFA
  8
DEFPOINTS
 10
365.8814547750437214
 20
22.5588426272008711
 30
0.0
 40
0.001
  1
MODULO
  3

  2
TRADENAME
 70
     0
1001
ACDBATTR
1070
     0
1070
     1
  0
ATTDEF
  5
4EFB
  8
DEFPOINTS
 10
365.8814547750437214
 20
22.5571759605341988
 30
0.0
 40
0.001
  1
VALVE TRIM
  3

  2
PRODUCT
 70
     0
1001
ACDBATTR
1070
     0
1070
     1
  0
LINE
  5
678C
  8
0
 10
365.8803348567150806
 20
19.0139165479850298
 30
0.0
 11
365.8803348567096236
 21
26.1005307211850592
 31
0.0
  0
LINE
  5
678D
  8
0
 10
365.8803348560601876
 20
19.0586770615444507
 30
0.0
 11
365.7622246205120859
 21
19.0675097319852789
 31
0.0
  0
LINE
  5
678E
  8
0
 10
365.7622246205120859
 20
19.0675097319852789
 30
0.0
 11
365.7622246205120859
 21
19.032155746185289
 31
0.0
  0
LINE
  5
678F
  8
0
 10
365.7622246205120859
 20
19.032155746185289
 30
0.0
 11
365.8803348560093127
 21
19.0211095763246902
 31
0.0
  0
LINE
  5
6790
  8
0
 10
365.8803348567096236
 20
26.1005307211850592
 30
0.0
 11
365.3650925046123916
 21
26.0554528563454113
 31
0.0
  0
ARC
  5
6791
  8
0
 10
365.3685238330638185
 20
26.016232592729569
 30
0.0
 40
0.0393700786516548
 50
95.000000006930776
 51
180.0000000644701004
  0
LINE
  5
6792
  8
0
 10
365.3291537544125731
 20
26.0162325926852809
 30
0.0
 11
365.3291537621964835
 21
19.0982436462853009
 31
0.0
  0
ARC
  5
6793
  8
0
 10
365.3685554684041108
 20
19.0982436463296317
 30
0.0
 40
0.0394017062071761
 50
180.000000064473312
 51
264.9578443097241234
  0
LINE
  5
6794
  8
0
 10
365.3650925046561042
 20
19.0589944127814697
 30
0.0
 11
365.8803348567150806
 21
19.0139165479850298
 31
0.0
  0
LINE
  5
6795
  8
0
 10
365.3291537543124718
 20
24.5650831528854283
 30
0.0
 11
364.2347065102125043
 21
24.5650831528854283
 31
0.0
  0
ARC
  5
6796
  8
0
 10
364.2347065102125043
 20
24.5374831528854287
 30
0.0
 40
0.0276
 50
90.0
 51
180.0
  0
LINE
  5
6797
  8
0
 10
364.2071065102124976
 20
24.5532620264719199
 30
0.0
 11
364.2071065102124976
 21
22.647761014832831
 31
0.0
  0
LINE
  5
6798
  8
0
 10
364.2347065101786256
 20
22.6359492946659913
 30
0.0
 11
365.3291537605638837
 21
22.6359492933201913
 31
0.0
  0
ARC
  5
6799
  8
0
 10
364.2347065102125043
 20
22.6635492946659802
 30
0.0
 40
0.0276
 50
180.0
 51
269.9999999295470161
  0
ARC
  5
679A
  8
0
 10
364.1952954865981269
 20
22.6477603183202909
 30
0.0
 40
0.0118110236348597
 50
270.0000000695150106
 51
0.0033788120437486
  0
LINE
  5
679B
  8
0
 10
364.1952954866122241
 20
22.6359492946853997
 30
0.0
 11
363.1952954866122241
 21
22.6359492946853997
 31
0.0
  0
ARC
  5
679C
  8
0
 10
363.1952954866122241
 20
22.647760318285389
 30
0.0
 40
0.0118110235999998
 50
180.0
 51
270.0
  0
LINE
  5
679D
  8
0
 10
363.1834844630122916
 20
22.647760318285389
 30
0.0
 11
363.1834844630122916
 21
24.5532721292853893
 31
0.0
  0
ARC
  5
679E
  8
0
 10
363.1952954866122241
 20
24.5532721292853893
 30
0.0
 40
0.0118110235999964
 50
89.9999999999739515
 51
179.9999999999836859
  0
LINE
  5
679F
  8
0
 10
363.1952954866122241
 20
24.5650831528854283
 30
0.0
 11
364.1952954866122241
 21
24.5650831528850908
 31
0.0
  0
ARC
  5
67A0
  8
0
 10
364.1952954866122241
 20
24.55327212496762
 30
0.0
 40
0.0118110279174668
 50
359.9510099032647759
 51
89.9999999999739515
  0
LINE
  5
67A1
  8
0
 10
363.1834844630122916
 20
24.5453981135853887
 30
0.0
 11
363.1736391642123181
 21
24.5453958925892088
 31
0.0
  0
LINE
  5
67A2
  8
0
 10
363.1736391642123181
 20
24.5453958925892088
 30
0.0
 11
363.1736429963377759
 21
22.6589094387020786
 31
0.0
  0
LINE
  5
67A3
  8
0
 10
363.1736429963377759
 20
22.6589094387020786
 30
0.0
 11
363.1834844630122916
 21
22.6589094387020786
 31
0.0
  0
ARC
  5
67A4
  8
0
 10
363.7880903177122036
 20
23.776499464285429
 30
0.0
 40
0.9842519684999416
 50
128.6295348271335115
 51
133.9698342980464929
  0
LINE
  5
67A5
  8
0
 10
363.1047443055123836
 20
22.7161614951182713
 30
0.0
 11
363.1519884000124989
 21
22.6734486761854299
 31
0.0
  0
LINE
  5
67A6
  8
0
 10
363.1519884000124989
 20
22.6734486761854299
 30
0.0
 11
363.1519884000124989
 21
22.6767522379853794
 31
0.0
  0
LINE
  5
67A7
  8
0
 10
363.1519884000124989
 20
22.6767522379853794
 30
0.0
 11
363.1736429963377759
 21
22.6589094697625804
 31
0.0
  0
LINE
  5
67A8
  8
0
 10
363.1047443055123836
 20
24.5650976510996593
 30
0.0
 11
363.1047443055123836
 21
22.6359719077851587
 31
0.0
  0
LINE
  5
67A9
  8
0
 10
363.1047443055123836
 20
22.6359719077851587
 30
0.0
 11
362.6726576914123257
 21
22.6359637920851817
 31
0.0
  0
ARC
  5
67AA
  8
0
 10
362.5732183062593776
 20
21.6753839032639206
 30
0.0
 40
0.9657131634846366
 50
84.0897837869972307
 51
89.9982251037548906
  0
ARC
  5
67AB
  8
0
 10
362.5732780960423156
 20
21.6753855074301001
 30
0.0
 40
0.9657115593171399
 50
90.0017724356271458
 51
95.9102211254108852
  0
LINE
  5
67AC
  8
0
 10
362.4738387937125026
 20
22.6359637920851817
 30
0.0
 11
362.4346731305124081
 21
22.6359637920851817
 31
0.0
  0
ARC
  5
67AD
  8
0
 10
362.4346731305116123
 20
22.655648831483159
 30
0.0
 40
0.0196850393979656
 50
182.2924427699788907
 51
270.000000002397087
  0
ARC
  5
67AE
  8
0
 10
386.037815171714783
 20
23.6005307211850983
 30
0.0
 40
23.6417322835022503
 50
177.707557224000908
 51
182.2924427758003105
  0
ARC
  5
67AF
  8
0
 10
362.4346731305333833
 20
24.545412610968679
 30
0.0
 40
0.0196850394164986
 50
90.0000000610992288
 51
177.7075572298249142
  0
LINE
  5
67B0
  8
0
 10
362.4346731305124081
 20
24.5650976503852014
 30
0.0
 11
363.1047443055123836
 21
24.5650976510996593
 31
0.0
  0
LINE
  5
67B1
  8
0
 10
362.4748230457122986
 20
22.6360651724919286
 30
0.0
 11
362.4748230457122986
 21
20.2737590676851909
 31
0.0
  0
LINE
  5
67B2
  8
0
 10
362.671673439412416
 20
22.63606517240747
 30
0.0
 11
362.671673439412416
 21
20.2737590676851909
 31
0.0
  0
ARC
  5
67B3
  8
0
 10
362.4945080851122725
 20
20.2737590676851909
 30
0.0
 40
0.0196850393999917
 50
179.9999999999934914
 51
270.0000000000259774
  0
LINE
  5
67B4
  8
0
 10
362.4945080851122725
 20
20.2540740282851601
 30
0.0
 11
362.6519884000124989
 21
20.2540740282852205
 31
0.0
  0
ARC
  5
67B5
  8
0
 10
362.6519884000124989
 20
20.2737590676852406
 30
0.0
 40
0.0196850394000092
 50
270.0000000000259774
 51
359.9999999998079261
  0
LINE
  5
67B6
  8
0
 10
362.4150038455125014
 20
24.5462000141655885
 30
0.0
 11
362.4150038455125014
 21
22.6548614283047804
 31
0.0
  0
LINE
  5
67B8
  8
0
 10
365.0328225946724956
 20
24.5650976503852512
 30
0.0
 11
365.3291537560452866
 21
24.5650976503852512
 31
0.0
  0
ENDSEC
  0
EOF
