  0
SECTION
  2
HEADER
  9
$ACADVER
  1
AC1009
  9
$INSBASE
 10
618.8216659311460717
 20
180.1582799472899978
 30
0.0
  9
$EXTMIN
 10
615.2616120188613422
 20
176.1946460250339044
 30
-0.0015258207003583
  9
$EXTMAX
 10
622.3840137134128554
 20
180.167018194497814
 30
0.0000000349246037
  9
$LIMMIN
 10
0.0
 20
0.0
  9
$LIMMAX
 10
11.6929133858000007
 20
8.2677165353999982
  9
$ORTHOMODE
 70
     0
  9
$REGENMODE
 70
     1
  9
$FILLMODE
 70
     1
  9
$QTEXTMODE
 70
     0
  9
$MIRRTEXT
 70
     0
  9
$DRAGMODE
 70
     2
  9
$LTSCALE
 40
0.6431102362
  9
$OSMODE
 70
  4095
  9
$ATTMODE
 70
     1
  9
$TEXTSIZE
 40
0.2
  9
$TRACEWID
 40
0.05
  9
$TEXTSTYLE
  7
STANDARD
  9
$CLAYER
  8
0
  9
$CELTYPE
  6
BYLAYER
  9
$CECOLOR
 62
   256
  9
$DIMSCALE
 40
1.0
  9
$DIMASZ
 40
0.1875
  9
$DIMEXO
 40
0.0625
  9
$DIMDLI
 40
0.4443307087
  9
$DIMRND
 40
0.0
  9
$DIMDLE
 40
0.0
  9
$DIMEXE
 40
0.125
  9
$DIMTP
 40
0.01
  9
$DIMTM
 40
0.01
  9
$DIMTXT
 40
2.0
  9
$DIMCEN
 40
0.1052362205
  9
$DIMTSZ
 40
0.0
  9
$DIMTOL
 70
     1
  9
$DIMLIM
 70
     0
  9
$DIMTIH
 70
     1
  9
$DIMTOH
 70
     1
  9
$DIMSE1
 70
     0
  9
$DIMSE2
 70
     0
  9
$DIMTAD
 70
     0
  9
$DIMZIN
 70
     0
  9
$DIMBLK
  1

  9
$DIMASO
 70
     1
  9
$DIMSHO
 70
     1
  9
$DIMPOST
  1
\X
  9
$DIMAPOST
  1

  9
$DIMALT
 70
     1
  9
$DIMALTD
 70
     2
  9
$DIMALTF
 40
25.3999999999999986
  9
$DIMLFAC
 40
1.0
  9
$DIMTOFL
 70
     0
  9
$DIMTVP
 40
0.0
  9
$DIMTIX
 70
     0
  9
$DIMSOXD
 70
     0
  9
$DIMSAH
 70
     0
  9
$DIMBLK1
  1

  9
$DIMBLK2
  1

  9
$DIMSTYLE
  2
STANDARD
  9
$DIMCLRD
 70
     0
  9
$DIMCLRE
 70
     0
  9
$DIMCLRT
 70
     0
  9
$DIMTFAC
 40
1.0
  9
$DIMGAP
 40
0.09
  9
$LUNITS
 70
     2
  9
$LUPREC
 70
     4
  9
$SKETCHINC
 40
0.1
  9
$FILLETRAD
 40
0.0
  9
$AUNITS
 70
     0
  9
$AUPREC
 70
     0
  9
$MENU
  1
.
  9
$ELEVATION
 40
0.0
  9
$PELEVATION
 40
0.0
  9
$THICKNESS
 40
0.0
  9
$LIMCHECK
 70
     0
  9
$BLIPMODE
 70
     0
  9
$CHAMFERA
 40
0.0
  9
$CHAMFERB
 40
0.0
  9
$SKPOLY
 70
     0
  9
$TDCREATE
 40
2458060.468368056230247
  9
$TDUPDATE
 40
2460314.507118056062609
  9
$TDINDWG
 40
0.2530965625
  9
$TDUSRTIMER
 40
0.2530965625
  9
$USRTIMER
 70
     1
  9
$ANGBASE
 50
0.0
  9
$ANGDIR
 70
     0
  9
$PDMODE
 70
     0
  9
$PDSIZE
 40
0.3125
  9
$PLINEWID
 40
0.0
  9
$COORDS
 70
     1
  9
$SPLFRAME
 70
     0
  9
$SPLINETYPE
 70
     6
  9
$SPLINESEGS
 70
     8
  9
$ATTDIA
 70
     1
  9
$ATTREQ
 70
     1
  9
$HANDLING
 70
     1
  9
$HANDSEED
  5
49E7
  9
$SURFTAB1
 70
     6
  9
$SURFTAB2
 70
     6
  9
$SURFTYPE
 70
     6
  9
$SURFU
 70
     6
  9
$SURFV
 70
     6
  9
$UCSNAME
  2

  9
$UCSORG
 10
0.0
 20
0.0
 30
0.0
  9
$UCSXDIR
 10
1.0
 20
0.0
 30
0.0
  9
$UCSYDIR
 10
0.0
 20
1.0
 30
0.0
  9
$PUCSNAME
  2

  9
$PUCSORG
 10
0.0
 20
0.0
 30
0.0
  9
$PUCSXDIR
 10
1.0
 20
0.0
 30
0.0
  9
$PUCSYDIR
 10
0.0
 20
1.0
 30
0.0
  9
$USERI1
 70
     0
  9
$USERI2
 70
     0
  9
$USERI3
 70
     0
  9
$USERI4
 70
     0
  9
$USERI5
 70
     0
  9
$USERR1
 40
0.0
  9
$USERR2
 40
0.0
  9
$USERR3
 40
0.0
  9
$USERR4
 40
0.0
  9
$USERR5
 40
0.0
  9
$WORLDVIEW
 70
     1
  9
$SHADEDGE
 70
     3
  9
$SHADEDIF
 70
    70
  9
$TILEMODE
 70
     1
  9
$MAXACTVP
 70
    64
  9
$PLIMCHECK
 70
     0
  9
$PEXTMIN
 10
1.0000000000000000E+20
 20
1.0000000000000000E+20
 30
1.0000000000000000E+20
  9
$PEXTMAX
 10
-1.0000000000000000E+20
 20
-1.0000000000000000E+20
 30
-1.0000000000000000E+20
  9
$PLIMMIN
 10
0.0
 20
0.0
  9
$PLIMMAX
 10
12.0
 20
9.0
  9
$UNITMODE
 70
     0
  9
$VISRETAIN
 70
     1
  9
$PLINEGEN
 70
     0
  9
$PSLTSCALE
 70
     1
  0
ENDSEC
  0
SECTION
  2
TABLES
  0
TABLE
  2
VPORT
 70
     1
  0
VPORT
  2
*ACTIVE
 70
     0
 10
0.0
 20
0.0
 11
1.0
 21
1.0
 12
27.0768278767824313
 22
-2.4464330085212391
 13
0.0
 23
0.0
 14
1.0
 24
1.0
 15
0.0
 25
0.0
 16
0.0
 26
0.0
 36
28.3584859092778885
 17
591.7459849893547243
 27
180.627265118287113
 37
0.0
 40
4.0028897533522647
 41
2.4474358974358972
 42
50.0
 43
0.0
 44
0.0
 50
0.0
 51
0.0
 71
     0
 72
   100
 73
     1
 74
     1
 75
     0
 76
     0
 77
     0
 78
     0
  0
ENDTAB
  0
TABLE
  2
LTYPE
 70
     2
  0
LTYPE
  2
CONTINUOUS
 70
     0
  3
Solid line
 72
    65
 73
     0
 40
0.0
  0
LTYPE
  2
PHANTOM2
 70
     0
  3
___ _ _ ___ _ _ ___ _ _ ___ _ _
 72
    65
 73
     6
 40
1.25
 49
0.625
 49
-0.125
 49
0.125
 49
-0.125
 49
0.125
 49
-0.125
  0
ENDTAB
  0
TABLE
  2
LAYER
 70
     2
  0
LAYER
  2
0
 70
     0
 62
   255
  6
CONTINUOUS
  0
LAYER
  2
DEFPOINTS
 70
     0
 62
     7
  6
CONTINUOUS
  0
ENDTAB
  0
TABLE
  2
STYLE
 70
     1
  0
STYLE
  2
STANDARD
 70
     0
 40
0.0
 41
0.8
 50
0.0
 71
     0
 42
0.2
  3
txt
  4

  0
ENDTAB
  0
TABLE
  2
VIEW
 70
     0
  0
ENDTAB
  0
TABLE
  2
UCS
 70
     0
  0
ENDTAB
  0
TABLE
  2
APPID
 70
    11
  0
APPID
  2
ACAD
 70
     0
  0
APPID
  2
ACAD_MLEADERVER
 70
     0
  0
APPID
  2
ACAD_EXEMPT_FROM_CAD_STANDARDS
 70
     0
  0
APPID
  2
ACAD_NAV_VCDISPLAY
 70
     0
  0
APPID
  2
ACAECLAYERSTANDARD
 70
     0
  0
APPID
  2
ACCMTRANSPARENCY
 70
     0
  0
APPID
  2
ACAD_DSTYLE_DIMJAG
 70
     0
  0
APPID
  2
ACAD_DSTYLE_DIMTALN
 70
     0
  0
APPID
  2
ACDBATTR
 70
     0
  0
APPID
  2
GRADIENTCOLOR1ACI
 70
     0
  0
APPID
  2
GRADIENTCOLOR2ACI
 70
     0
  0
ENDTAB
  0
TABLE
  2
DIMSTYLE
 70
     1
  0
DIMSTYLE
  2
STANDARD
 70
     0
  3

  4

  5

  6

  7

 40
1.0
 41
0.1875
 42
0.0625
 43
0.38
 44
0.125
 45
0.0
 46
0.0
 47
0.01
 48
0.01
140
0.15625
141
0.09
142
0.0
143
25.3999999999999986
144
1.0
145
0.0
146
1.0
147
0.09
 71
     1
 72
     0
 73
     1
 74
     1
 75
     0
 76
     0
 77
     0
 78
     4
170
     0
171
     2
172
     0
173
     0
174
     0
175
     0
176
     0
177
     0
178
     0
  0
ENDTAB
  0
ENDSEC
  0
SECTION
  2
BLOCKS
  0
BLOCK
  8
0
  2
$MODEL_SPACE
 70
     0
 10
0.0
 20
0.0
 30
0.0
  3
$MODEL_SPACE
  1

  0
ENDBLK
  5
21
  8
0
  0
BLOCK
 67
     1
  8
0
  2
$PAPER_SPACE
 70
     0
 10
0.0
 20
0.0
 30
0.0
  3
$PAPER_SPACE
  1

  0
ENDBLK
  5
1D
 67
     1
  8
0
  0
ENDSEC
  0
SECTION
  2
ENTITIES
  0
ATTDEF
  5
3930
  8
DEFPOINTS
 10
618.8189793887547694
 20
180.1537433619903084
 30
0.0
 40
0.001
  1
K-78020T-B8
  3

  2
MODELNUMBER
 70
     0
1001
ACDBATTR
1070
     0
1070
     1
  0
ATTDEF
  5
3931
  8
DEFPOINTS
 10
618.8189793887547694
 20
180.1520766953235864
 30
0.0
 40
0.001
  1
MODULO
  3

  2
TRADENAME
 70
     0
1001
ACDBATTR
1070
     0
1070
     1
  0
ATTDEF
  5
3932
  8
DEFPOINTS
 10
618.8189793887547694
 20
180.1504100286568928
 30
0.0
 40
0.001
  1
VALVE TRIM
  3

  2
PRODUCT
 70
     0
1001
ACDBATTR
1070
     0
1070
     1
  0
LINE
  5
4854
  8
0
 10
615.3234367092959474
 20
179.6430375952899965
 30
0.0
 11
615.2783588445960277
 21
180.1582799472899978
 31
0.0
  0
LINE
  5
4855
  8
0
 10
617.8570990020958789
 20
178.4732405772899995
 30
0.0
 11
617.8570990020958789
 21
177.4732405772899995
 31
0.0
  0
LINE
  5
4856
  8
0
 10
617.8570990020958789
 20
178.4968626244900065
 30
0.0
 11
617.8570990020958789
 21
179.6070988449899914
 31
0.0
  0
LINE
  5
4857
  8
0
 10
617.8767840413960357
 20
177.4614295536900102
 30
0.0
 11
617.8767840413960357
 21
177.4515870338900072
 31
0.0
  0
LINE
  5
4858
  8
0
 10
617.8689100255960511
 20
178.4850516008899888
 30
0.0
 11
618.8216659311460717
 21
178.4850516008899888
 31
0.0
  0
LINE
  5
4859
  8
0
 10
617.8689100255960511
 20
178.4850516008899888
 30
0.0
 11
619.7744218366960922
 21
178.4850516008899888
 31
0.0
  0
LINE
  5
485A
  8
0
 10
615.3626569729959783
 20
179.6070988449899914
 30
0.0
 11
622.2806748892960513
 21
179.6070988449899914
 31
0.0
  0
LINE
  5
485B
  8
0
 10
622.3649730176958883
 20
180.1582799472899978
 30
0.0
 11
615.2783588445960277
 21
180.1582799472899978
 31
0.0
  0
ARC
  5
485C
  8
0
 10
618.6463880152284673
 20
178.0666789406112116
 30
0.0
 40
0.9852047148957456
 50
218.6329571709540005
 51
223.9683846541880996
  0
ARC
  5
485D
  8
0
 10
615.3662613584408518
 20
179.6504024201672109
 30
0.0
 40
0.0434533222845126
 50
189.7580626641388903
 51
265.2419373361631187
  0
ARC
  5
485E
  8
0
 10
617.8693637967254517
 20
178.472786806264395
 30
0.0
 40
0.0122731860348944
 50
92.1188546727933044
 51
177.8811458123147986
  0
ARC
  5
485F
  8
0
 10
617.8708530934519558
 20
177.4751836450294036
 30
0.0
 40
0.0138906638166184
 50
188.04107607378171
 51
261.9589234411112102
  0
ARC
  5
4860
  8
0
 10
617.8692980961982357
 20
178.4972506949889066
 30
0.0
 40
0.0122052650780811
 50
181.8220456219586083
 51
268.1779538929399109
  0
LINE
  5
4861
  8
0
 10
617.8689100255960511
 20
177.4614295536900102
 30
0.0
 11
618.8216659311460717
 21
177.4614295536900102
 31
0.0
  0
LINE
  5
4862
  8
0
 10
617.8767840413960357
 20
177.4515870338900072
 30
0.0
 11
619.7665478208959939
 21
177.4515870338900072
 31
0.0
  0
LINE
  5
4863
  8
0
 10
622.3198951529958549
 20
179.6430375952899965
 30
0.0
 11
622.3649730176958883
 21
180.1582799472899978
 31
0.0
  0
LINE
  5
4864
  8
0
 10
619.7862328601960371
 20
178.4732405772899995
 30
0.0
 11
619.7862328601960371
 21
177.4732405772899995
 31
0.0
  0
LINE
  5
4865
  8
0
 10
619.7862328601960371
 20
178.4968626244900065
 30
0.0
 11
619.7862328601960371
 21
179.6070988449899914
 31
0.0
  0
LINE
  5
4866
  8
0
 10
619.7665478208959939
 20
177.4614295536900102
 30
0.0
 11
619.7665478208959939
 21
177.4515870338900072
 31
0.0
  0
ARC
  5
4867
  8
0
 10
618.9969438470634486
 20
178.0666789406112116
 30
0.0
 40
0.9852047148957456
 50
316.031615345811872
 51
321.3670428290459995
  0
ARC
  5
4868
  8
0
 10
622.2770705038509504
 20
179.6504024201672109
 30
0.0
 40
0.0434533222845126
 50
274.7580626638368813
 51
350.241937335859518
  0
ARC
  5
4869
  8
0
 10
619.7739680655664642
 20
178.472786806264395
 30
0.0
 40
0.0122731860348944
 50
2.1188541876868809
 51
87.8811453272066956
  0
ARC
  5
486A
  8
0
 10
619.7724787688399601
 20
177.4751836450294036
 30
0.0
 40
0.0138906638166184
 50
278.0410765588887898
 51
351.95892392621829
  0
ARC
  5
486B
  8
0
 10
619.7740337660936802
 20
178.4972506949889066
 30
0.0
 40
0.0122052650780811
 50
271.8220461070600891
 51
358.1779543780414201
  0
LINE
  5
486C
  8
0
 10
619.7744218366959785
 20
177.4614295536900102
 30
0.0
 11
618.8216659311460717
 21
177.4614295536900102
 31
0.0
  0
LINE
  5
486E
  8
0
  6
CONTINUOUS
 10
617.8753364079832409
 20
176.2409571125899959
 30
0.0
 11
617.8570990020958789
 21
176.2591945184771873
 31
0.0
1001
GRADIENTCOLOR1ACI
1070
     5
1001
GRADIENTCOLOR2ACI
1070
     2
1001
ACAD
1010
0.0
1020
0.0
1030
0.0
  0
LINE
  5
486F
  8
0
  6
CONTINUOUS
 10
618.0521131032799076
 20
176.2409571125899959
 30
0.0
 11
617.8570990020958789
 21
176.4359712137737972
 31
0.0
1001
GRADIENTCOLOR1ACI
1070
     5
1001
GRADIENTCOLOR2ACI
1070
     2
1001
ACAD
1010
0.0
1020
0.0
1030
0.0
  0
LINE
  5
4870
  8
0
  6
CONTINUOUS
 10
618.2288897985764606
 20
176.2409571125899959
 30
0.0
 11
617.8570990020958789
 21
176.6127479090704924
 31
0.0
1001
GRADIENTCOLOR1ACI
1070
     5
1001
GRADIENTCOLOR2ACI
1070
     2
1001
ACAD
1010
0.0
1020
0.0
1030
0.0
  0
LINE
  5
4871
  8
0
  6
CONTINUOUS
 10
618.4056664938731274
 20
176.2409571125899959
 30
0.0
 11
617.8570990020958789
 21
176.7895246043671023
 31
0.0
1001
GRADIENTCOLOR1ACI
1070
     5
1001
GRADIENTCOLOR2ACI
1070
     2
1001
ACAD
1010
0.0
1020
0.0
1030
0.0
  0
LINE
  5
4872
  8
0
  6
CONTINUOUS
 10
618.5824431891696804
 20
176.2409571125899959
 30
0.0
 11
617.8570990020958789
 21
176.9663012996637974
 31
0.0
1001
GRADIENTCOLOR1ACI
1070
     5
1001
GRADIENTCOLOR2ACI
1070
     2
1001
ACAD
1010
0.0
1020
0.0
1030
0.0
  0
LINE
  5
4873
  8
0
  6
CONTINUOUS
 10
618.7592198844663471
 20
176.2409571125899959
 30
0.0
 11
617.8570990020958789
 21
177.1430779949604073
 31
0.0
1001
GRADIENTCOLOR1ACI
1070
     5
1001
GRADIENTCOLOR2ACI
1070
     2
1001
ACAD
1010
0.0
1020
0.0
1030
0.0
  0
LINE
  5
4874
  8
0
  6
CONTINUOUS
 10
618.9359965797629002
 20
176.2409571125899959
 30
0.0
 11
617.8570990020958789
 21
177.3198546902571024
 31
0.0
1001
GRADIENTCOLOR1ACI
1070
     5
1001
GRADIENTCOLOR2ACI
1070
     2
1001
ACAD
1010
0.0
1020
0.0
1030
0.0
  0
LINE
  5
4875
  8
0
  6
CONTINUOUS
 10
619.1127732750595669
 20
176.2409571125899959
 30
0.0
 11
617.9710409914597449
 21
177.3826893961899884
 31
0.0
1001
GRADIENTCOLOR1ACI
1070
     5
1001
GRADIENTCOLOR2ACI
1070
     2
1001
ACAD
1010
0.0
1020
0.0
1030
0.0
  0
LINE
  5
4876
  8
0
  6
CONTINUOUS
 10
619.2895499703563473
 20
176.2409571125899959
 30
0.0
 11
618.1478176867562979
 21
177.3826893961899884
 31
0.0
1001
GRADIENTCOLOR1ACI
1070
     5
1001
GRADIENTCOLOR2ACI
1070
     2
1001
ACAD
1010
0.0
1020
0.0
1030
0.0
  0
LINE
  5
4877
  8
0
  6
CONTINUOUS
 10
619.4663266656529004
 20
176.2409571125899959
 30
0.0
 11
618.324594382052851
 21
177.3826893961899884
 31
0.0
1001
GRADIENTCOLOR1ACI
1070
     5
1001
GRADIENTCOLOR2ACI
1070
     2
1001
ACAD
1010
0.0
1020
0.0
1030
0.0
  0
LINE
  5
4878
  8
0
  6
CONTINUOUS
 10
619.6431033609495671
 20
176.2409571125899959
 30
0.0
 11
618.5013710773496314
 21
177.3826893961899884
 31
0.0
1001
GRADIENTCOLOR1ACI
1070
     5
1001
GRADIENTCOLOR2ACI
1070
     2
1001
ACAD
1010
0.0
1020
0.0
1030
0.0
  0
LINE
  5
4879
  8
0
  6
CONTINUOUS
 10
619.7862328601960371
 20
176.2746043086401926
 30
0.0
 11
618.6781477726461844
 21
177.3826893961899884
 31
0.0
1001
GRADIENTCOLOR1ACI
1070
     5
1001
GRADIENTCOLOR2ACI
1070
     2
1001
ACAD
1010
0.0
1020
0.0
1030
0.0
  0
LINE
  5
487A
  8
0
  6
CONTINUOUS
 10
619.7862328601960371
 20
176.4513810039368877
 30
0.0
 11
618.8549244679428512
 21
177.3826893961899884
 31
0.0
1001
GRADIENTCOLOR1ACI
1070
     5
1001
GRADIENTCOLOR2ACI
1070
     2
1001
ACAD
1010
0.0
1020
0.0
1030
0.0
  0
LINE
  5
487B
  8
0
  6
CONTINUOUS
 10
619.7862328601960371
 20
176.6281576992334976
 30
0.0
 11
619.0317011632394042
 21
177.3826893961899884
 31
0.0
1001
GRADIENTCOLOR1ACI
1070
     5
1001
GRADIENTCOLOR2ACI
1070
     2
1001
ACAD
1010
0.0
1020
0.0
1030
0.0
  0
LINE
  5
487C
  8
0
  6
CONTINUOUS
 10
619.7862328601960371
 20
176.8049343945301075
 30
0.0
 11
619.2084778585360709
 21
177.3826893961899884
 31
0.0
1001
GRADIENTCOLOR1ACI
1070
     5
1001
GRADIENTCOLOR2ACI
1070
     2
1001
ACAD
1010
0.0
1020
0.0
1030
0.0
  0
LINE
  5
487D
  8
0
  6
CONTINUOUS
 10
619.7862328601960371
 20
176.9817110898268027
 30
0.0
 11
619.3852545538328513
 21
177.3826893961899884
 31
0.0
1001
GRADIENTCOLOR1ACI
1070
     5
1001
GRADIENTCOLOR2ACI
1070
     2
1001
ACAD
1010
0.0
1020
0.0
1030
0.0
  0
LINE
  5
487E
  8
0
  6
CONTINUOUS
 10
619.7862328601960371
 20
177.1584877851234126
 30
0.0
 11
619.5620312491294044
 21
177.3826893961899884
 31
0.0
1001
GRADIENTCOLOR1ACI
1070
     5
1001
GRADIENTCOLOR2ACI
1070
     2
1001
ACAD
1010
0.0
1020
0.0
1030
0.0
  0
LINE
  5
487F
  8
0
  6
CONTINUOUS
 10
619.7862328601960371
 20
177.3352644804201077
 30
0.0
 11
619.7388079444260711
 21
177.3826893961899884
 31
0.0
1001
GRADIENTCOLOR1ACI
1070
     5
1001
GRADIENTCOLOR2ACI
1070
     2
1001
ACAD
1010
0.0
1020
0.0
1030
0.0
  0
LINE
  5
4880
  8
0
  6
CONTINUOUS
 10
617.8570990020958789
 20
177.2981518282520881
 30
0.0
 11
617.9416365700338929
 21
177.3826893961899884
 31
0.0
1001
GRADIENTCOLOR1ACI
1070
     5
1001
GRADIENTCOLOR2ACI
1070
     2
1001
ACAD
1010
0.0
1020
0.0
1030
0.0
  0
LINE
  5
4881
  8
0
  6
CONTINUOUS
 10
617.8570990020958789
 20
177.1213751329555066
 30
0.0
 11
618.1184132653305596
 21
177.3826893961899884
 31
0.0
1001
GRADIENTCOLOR1ACI
1070
     5
1001
GRADIENTCOLOR2ACI
1070
     2
1001
ACAD
1010
0.0
1020
0.0
1030
0.0
  0
LINE
  5
4882
  8
0
  6
CONTINUOUS
 10
617.8570990020958789
 20
176.9445984376588115
 30
0.0
 11
618.2951899606272264
 21
177.3826893961899884
 31
0.0
1001
GRADIENTCOLOR1ACI
1070
     5
1001
GRADIENTCOLOR2ACI
1070
     2
1001
ACAD
1010
0.0
1020
0.0
1030
0.0
  0
LINE
  5
4883
  8
0
  6
CONTINUOUS
 10
617.8570990020958789
 20
176.7678217423622016
 30
0.0
 11
618.4719666559237794
 21
177.3826893961899884
 31
0.0
1001
GRADIENTCOLOR1ACI
1070
     5
1001
GRADIENTCOLOR2ACI
1070
     2
1001
ACAD
1010
0.0
1020
0.0
1030
0.0
  0
LINE
  5
4884
  8
0
  6
CONTINUOUS
 10
617.8570990020958789
 20
176.5910450470655917
 30
0.0
 11
618.6487433512204461
 21
177.3826893961899884
 31
0.0
1001
GRADIENTCOLOR1ACI
1070
     5
1001
GRADIENTCOLOR2ACI
1070
     2
1001
ACAD
1010
0.0
1020
0.0
1030
0.0
  0
LINE
  5
4885
  8
0
  6
CONTINUOUS
 10
617.8570990020958789
 20
176.4142683517688965
 30
0.0
 11
618.8255200465171129
 21
177.3826893961899884
 31
0.0
1001
GRADIENTCOLOR1ACI
1070
     5
1001
GRADIENTCOLOR2ACI
1070
     2
1001
ACAD
1010
0.0
1020
0.0
1030
0.0
  0
LINE
  5
4886
  8
0
  6
CONTINUOUS
 10
617.8605644582137302
 20
176.2409571125899959
 30
0.0
 11
619.0022967418136659
 21
177.3826893961899884
 31
0.0
1001
GRADIENTCOLOR1ACI
1070
     5
1001
GRADIENTCOLOR2ACI
1070
     2
1001
ACAD
1010
0.0
1020
0.0
1030
0.0
  0
LINE
  5
4887
  8
0
  6
CONTINUOUS
 10
618.0373411535103969
 20
176.2409571125899959
 30
0.0
 11
619.1790734371103326
 21
177.3826893961899884
 31
0.0
1001
GRADIENTCOLOR1ACI
1070
     5
1001
GRADIENTCOLOR2ACI
1070
     2
1001
ACAD
1010
0.0
1020
0.0
1030
0.0
  0
LINE
  5
4888
  8
0
  6
CONTINUOUS
 10
618.21411784880695
 20
176.2409571125899959
 30
0.0
 11
619.3558501324068857
 21
177.3826893961899884
 31
0.0
1001
GRADIENTCOLOR1ACI
1070
     5
1001
GRADIENTCOLOR2ACI
1070
     2
1001
ACAD
1010
0.0
1020
0.0
1030
0.0
  0
LINE
  5
4889
  8
0
  6
CONTINUOUS
 10
618.3908945441036167
 20
176.2409571125899959
 30
0.0
 11
619.5326268277035524
 21
177.3826893961899884
 31
0.0
1001
GRADIENTCOLOR1ACI
1070
     5
1001
GRADIENTCOLOR2ACI
1070
     2
1001
ACAD
1010
0.0
1020
0.0
1030
0.0
  0
LINE
  5
488A
  8
0
  6
CONTINUOUS
 10
618.5676712394002834
 20
176.2409571125899959
 30
0.0
 11
619.7094035230003328
 21
177.3826893961899884
 31
0.0
1001
GRADIENTCOLOR1ACI
1070
     5
1001
GRADIENTCOLOR2ACI
1070
     2
1001
ACAD
1010
0.0
1020
0.0
1030
0.0
  0
LINE
  5
488B
  8
0
  6
CONTINUOUS
 10
618.7444479346969501
 20
176.2409571125899959
 30
0.0
 11
619.7862328601960371
 21
177.2827420380891112
 31
0.0
1001
GRADIENTCOLOR1ACI
1070
     5
1001
GRADIENTCOLOR2ACI
1070
     2
1001
ACAD
1010
0.0
1020
0.0
1030
0.0
  0
LINE
  5
488C
  8
0
  6
CONTINUOUS
 10
618.9212246299935032
 20
176.2409571125899959
 30
0.0
 11
619.7862328601960371
 21
177.1059653427925014
 31
0.0
1001
GRADIENTCOLOR1ACI
1070
     5
1001
GRADIENTCOLOR2ACI
1070
     2
1001
ACAD
1010
0.0
1020
0.0
1030
0.0
  0
LINE
  5
488D
  8
0
  6
CONTINUOUS
 10
619.0980013252900562
 20
176.2409571125899959
 30
0.0
 11
619.7862328601960371
 21
176.9291886474958062
 31
0.0
1001
GRADIENTCOLOR1ACI
1070
     5
1001
GRADIENTCOLOR2ACI
1070
     2
1001
ACAD
1010
0.0
1020
0.0
1030
0.0
  0
LINE
  5
488E
  8
0
  6
CONTINUOUS
 10
619.2747780205868366
 20
176.2409571125899959
 30
0.0
 11
619.7862328601960371
 21
176.7524119521991963
 31
0.0
1001
GRADIENTCOLOR1ACI
1070
     5
1001
GRADIENTCOLOR2ACI
1070
     2
1001
ACAD
1010
0.0
1020
0.0
1030
0.0
  0
LINE
  5
488F
  8
0
  6
CONTINUOUS
 10
619.4515547158835034
 20
176.2409571125899959
 30
0.0
 11
619.7862328601960371
 21
176.5756352569025864
 31
0.0
1001
GRADIENTCOLOR1ACI
1070
     5
1001
GRADIENTCOLOR2ACI
1070
     2
1001
ACAD
1010
0.0
1020
0.0
1030
0.0
  0
LINE
  5
4890
  8
0
  6
CONTINUOUS
 10
619.6283314111800564
 20
176.2409571125899959
 30
0.0
 11
619.7862328601960371
 21
176.3988585616058913
 31
0.0
1001
GRADIENTCOLOR1ACI
1070
     5
1001
GRADIENTCOLOR2ACI
1070
     2
1001
ACAD
1010
0.0
1020
0.0
1030
0.0
  0
LINE
  5
4891
  8
0
 10
619.7862328601960371
 20
176.2409571125899959
 30
0.0
 11
619.7862328601960371
 21
177.3747893961900104
 31
0.0
  0
LINE
  5
4892
  8
0
 10
617.8570990020958789
 20
176.2409571125899959
 30
0.0
 11
617.8570990020958789
 21
177.3747893961900104
 31
0.0
  0
LINE
  5
4893
  8
0
 10
617.8649990020960558
 20
177.3826893961899884
 30
0.0
 11
619.7783328601959738
 21
177.3826893961899884
 31
0.0
  0
ARC
  5
4894
  8
0
 10
617.8649990020960558
 20
177.3747893961900104
 30
0.0
 40
0.0079
 50
90.0000000000260485
 51
180.0
  0
ARC
  5
4895
  8
0
 10
619.7783328601959738
 20
177.3747893961900104
 30
0.0
 40
0.0079
 50
359.9999999999740226
 51
90.0
  0
LINE
  5
4896
  8
0
 10
619.74686278149602
 20
176.2015870339899948
 30
0.0
 11
617.8964690807958959
 21
176.2015870339899948
 31
0.0
  0
LINE
  5
4897
  8
0
 10
619.74686278149602
 20
176.2015870339899948
 30
0.0
 11
619.7862328601960371
 21
176.2409571125899959
 31
0.0
  0
LINE
  5
4898
  8
0
 10
617.8964690807958959
 20
176.2015870339899948
 30
0.0
 11
617.8570990020958789
 21
176.2409571125899959
 31
0.0
  0
LINE
  5
4899
  8
0
 10
617.8570990020958789
 20
176.2409571125899959
 30
0.0
 11
619.7862328601960371
 21
176.2409571125899959
 31
0.0
  0
ENDSEC
  0
EOF
