  0
SECTION
  2
HEADER
  9
$ACADVER
  1
AC1009
  9
$INSBASE
 10
611.2374639327741761
 20
177.7183362197910128
 30
0.0
  9
$EXTMIN
 10
607.2551447616299356
 20
174.173468530229286
 30
-0.0000000000000058
  9
$EXTMAX
 10
611.2660146955131495
 20
181.2678571159588046
 30
0.0000000000000104
  9
$LIMMIN
 10
0.0
 20
0.0
  9
$LIMMAX
 10
11.6929133858000007
 20
8.2677165353999982
  9
$ORTHOMODE
 70
     0
  9
$REGENMODE
 70
     1
  9
$FILLMODE
 70
     1
  9
$QTEXTMODE
 70
     0
  9
$MIRRTEXT
 70
     0
  9
$DRAGMODE
 70
     2
  9
$LTSCALE
 40
0.6431102362
  9
$OSMODE
 70
  4095
  9
$ATTMODE
 70
     1
  9
$TEXTSIZE
 40
0.2
  9
$TRACEWID
 40
0.05
  9
$TEXTSTYLE
  7
STANDARD
  9
$CLAYER
  8
0
  9
$CELTYPE
  6
BYLAYER
  9
$CECOLOR
 62
   256
  9
$DIMSCALE
 40
1.0
  9
$DIMASZ
 40
0.1875
  9
$DIMEXO
 40
0.0625
  9
$DIMDLI
 40
0.4443307087
  9
$DIMRND
 40
0.0
  9
$DIMDLE
 40
0.0
  9
$DIMEXE
 40
0.125
  9
$DIMTP
 40
0.01
  9
$DIMTM
 40
0.01
  9
$DIMTXT
 40
2.0
  9
$DIMCEN
 40
0.1052362205
  9
$DIMTSZ
 40
0.0
  9
$DIMTOL
 70
     1
  9
$DIMLIM
 70
     0
  9
$DIMTIH
 70
     1
  9
$DIMTOH
 70
     1
  9
$DIMSE1
 70
     0
  9
$DIMSE2
 70
     0
  9
$DIMTAD
 70
     0
  9
$DIMZIN
 70
     0
  9
$DIMBLK
  1

  9
$DIMASO
 70
     1
  9
$DIMSHO
 70
     1
  9
$DIMPOST
  1
\X
  9
$DIMAPOST
  1

  9
$DIMALT
 70
     1
  9
$DIMALTD
 70
     2
  9
$DIMALTF
 40
25.3999999999999986
  9
$DIMLFAC
 40
1.0
  9
$DIMTOFL
 70
     0
  9
$DIMTVP
 40
0.0
  9
$DIMTIX
 70
     0
  9
$DIMSOXD
 70
     0
  9
$DIMSAH
 70
     0
  9
$DIMBLK1
  1

  9
$DIMBLK2
  1

  9
$DIMSTYLE
  2
STANDARD
  9
$DIMCLRD
 70
     0
  9
$DIMCLRE
 70
     0
  9
$DIMCLRT
 70
     0
  9
$DIMTFAC
 40
1.0
  9
$DIMGAP
 40
0.09
  9
$LUNITS
 70
     2
  9
$LUPREC
 70
     4
  9
$SKETCHINC
 40
0.1
  9
$FILLETRAD
 40
0.0
  9
$AUNITS
 70
     0
  9
$AUPREC
 70
     0
  9
$MENU
  1
.
  9
$ELEVATION
 40
0.0
  9
$PELEVATION
 40
0.0
  9
$THICKNESS
 40
0.0
  9
$LIMCHECK
 70
     0
  9
$BLIPMODE
 70
     0
  9
$CHAMFERA
 40
0.0
  9
$CHAMFERB
 40
0.0
  9
$SKPOLY
 70
     0
  9
$TDCREATE
 40
2458060.468368056230247
  9
$TDUPDATE
 40
2460314.507372684776783
  9
$TDINDWG
 40
0.2540340625
  9
$TDUSRTIMER
 40
0.2540340625
  9
$USRTIMER
 70
     1
  9
$ANGBASE
 50
0.0
  9
$ANGDIR
 70
     0
  9
$PDMODE
 70
     0
  9
$PDSIZE
 40
0.3125
  9
$PLINEWID
 40
0.0
  9
$COORDS
 70
     1
  9
$SPLFRAME
 70
     0
  9
$SPLINETYPE
 70
     6
  9
$SPLINESEGS
 70
     8
  9
$ATTDIA
 70
     1
  9
$ATTREQ
 70
     1
  9
$HANDLING
 70
     1
  9
$HANDSEED
  5
497B
  9
$SURFTAB1
 70
     6
  9
$SURFTAB2
 70
     6
  9
$SURFTYPE
 70
     6
  9
$SURFU
 70
     6
  9
$SURFV
 70
     6
  9
$UCSNAME
  2

  9
$UCSORG
 10
0.0
 20
0.0
 30
0.0
  9
$UCSXDIR
 10
1.0
 20
0.0
 30
0.0
  9
$UCSYDIR
 10
0.0
 20
1.0
 30
0.0
  9
$PUCSNAME
  2

  9
$PUCSORG
 10
0.0
 20
0.0
 30
0.0
  9
$PUCSXDIR
 10
1.0
 20
0.0
 30
0.0
  9
$PUCSYDIR
 10
0.0
 20
1.0
 30
0.0
  9
$USERI1
 70
     0
  9
$USERI2
 70
     0
  9
$USERI3
 70
     0
  9
$USERI4
 70
     0
  9
$USERI5
 70
     0
  9
$USERR1
 40
0.0
  9
$USERR2
 40
0.0
  9
$USERR3
 40
0.0
  9
$USERR4
 40
0.0
  9
$USERR5
 40
0.0
  9
$WORLDVIEW
 70
     1
  9
$SHADEDGE
 70
     3
  9
$SHADEDIF
 70
    70
  9
$TILEMODE
 70
     1
  9
$MAXACTVP
 70
    64
  9
$PLIMCHECK
 70
     0
  9
$PEXTMIN
 10
1.0000000000000000E+20
 20
1.0000000000000000E+20
 30
1.0000000000000000E+20
  9
$PEXTMAX
 10
-1.0000000000000000E+20
 20
-1.0000000000000000E+20
 30
-1.0000000000000000E+20
  9
$PLIMMIN
 10
0.0
 20
0.0
  9
$PLIMMAX
 10
12.0
 20
9.0
  9
$UNITMODE
 70
     0
  9
$VISRETAIN
 70
     1
  9
$PLINEGEN
 70
     0
  9
$PSLTSCALE
 70
     1
  0
ENDSEC
  0
SECTION
  2
TABLES
  0
TABLE
  2
VPORT
 70
     1
  0
VPORT
  2
*ACTIVE
 70
     0
 10
0.0
 20
0.0
 11
1.0
 21
1.0
 12
17.5145947392168218
 22
-2.9066022951930099
 13
0.0
 23
0.0
 14
1.0
 24
1.0
 15
0.0
 25
0.0
 16
0.0
 26
0.0
 36
28.3584859092778885
 17
591.7459849893547243
 27
180.627265118287113
 37
0.0
 40
7.1490507012417561
 41
2.4474358974358981
 42
50.0
 43
0.0
 44
0.0
 50
0.0
 51
0.0
 71
     0
 72
   100
 73
     1
 74
     1
 75
     0
 76
     0
 77
     0
 78
     0
  0
ENDTAB
  0
TABLE
  2
LTYPE
 70
     3
  0
LTYPE
  2
CONTINUOUS
 70
     0
  3
Solid line
 72
    65
 73
     0
 40
0.0
  0
LTYPE
  2
PHANTOM2
 70
     0
  3
___ _ _ ___ _ _ ___ _ _ ___ _ _
 72
    65
 73
     6
 40
1.25
 49
0.625
 49
-0.125
 49
0.125
 49
-0.125
 49
0.125
 49
-0.125
  0
ENDTAB
  0
TABLE
  2
LAYER
 70
     2
  0
LAYER
  2
0
 70
     0
 62
   255
  6
CONTINUOUS
  0
LAYER
  2
DEFPOINTS
 70
     0
 62
     7
  6
CONTINUOUS
  0
ENDTAB
  0
TABLE
  2
STYLE
 70
     1
  0
STYLE
  2
STANDARD
 70
     0
 40
0.0
 41
0.8
 50
0.0
 71
     0
 42
0.2
  3
txt
  4

  0
ENDTAB
  0
TABLE
  2
VIEW
 70
     0
  0
ENDTAB
  0
TABLE
  2
UCS
 70
     0
  0
ENDTAB
  0
TABLE
  2
APPID
 70
    11
  0
APPID
  2
ACAD
 70
     0
  0
APPID
  2
ACAD_MLEADERVER
 70
     0
  0
APPID
  2
ACAD_EXEMPT_FROM_CAD_STANDARDS
 70
     0
  0
APPID
  2
ACAD_NAV_VCDISPLAY
 70
     0
  0
APPID
  2
ACAECLAYERSTANDARD
 70
     0
  0
APPID
  2
ACCMTRANSPARENCY
 70
     0
  0
APPID
  2
ACAD_DSTYLE_DIMJAG
 70
     0
  0
APPID
  2
ACAD_DSTYLE_DIMTALN
 70
     0
  0
APPID
  2
ACDBATTR
 70
     0
  0
APPID
  2
GRADIENTCOLOR1ACI
 70
     0
  0
APPID
  2
GRADIENTCOLOR2ACI
 70
     0
  0
ENDTAB
  0
TABLE
  2
DIMSTYLE
 70
     2
  0
DIMSTYLE
  2
STANDARD
 70
     0
  3

  4

  5

  6

  7

 40
1.0
 41
0.1875
 42
0.0625
 43
0.38
 44
0.125
 45
0.0
 46
0.0
 47
0.01
 48
0.01
140
0.15625
141
0.09
142
0.0
143
25.3999999999999986
144
1.0
145
0.0
146
1.0
147
0.09
 71
     1
 72
     0
 73
     1
 74
     1
 75
     0
 76
     0
 77
     0
 78
     4
170
     0
171
     2
172
     0
173
     0
174
     0
175
     0
176
     0
177
     0
178
     0
  0
ENDTAB
  0
ENDSEC
  0
SECTION
  2
BLOCKS
  0
BLOCK
  8
0
  2
$MODEL_SPACE
 70
     0
 10
0.0
 20
0.0
 30
0.0
  3
$MODEL_SPACE
  1

  0
ENDBLK
  5
21
  8
0
  0
BLOCK
 67
     1
  8
0
  2
$PAPER_SPACE
 70
     0
 10
0.0
 20
0.0
 30
0.0
  3
$PAPER_SPACE
  1

  0
ENDBLK
  5
1D
 67
     1
  8
0
  0
ENDSEC
  0
SECTION
  2
ENTITIES
  0
ATTDEF
  5
3930
  8
DEFPOINTS
 10
611.2399146736214561
 20
177.717959564233098
 30
0.0
 40
0.001
  1
K-78020T-B8
  3

  2
MODELNUMBER
 70
     0
1001
ACDBATTR
1070
     0
1070
     1
  0
ATTDEF
  5
3931
  8
DEFPOINTS
 10
611.2399146736214561
 20
177.7162928975664897
 30
0.0
 40
0.001
  1
MODULO
  3

  2
TRADENAME
 70
     0
1001
ACDBATTR
1070
     0
1070
     1
  0
ATTDEF
  5
3932
  8
DEFPOINTS
 10
611.2399146736214561
 20
177.7146262308997962
 30
0.0
 40
0.001
  1
VALVE TRIM
  3

  2
PRODUCT
 70
     0
1001
ACDBATTR
1070
     0
1070
     1
  0
LINE
  5
475A
  8
0
 10
610.7222215807743169
 20
181.2165654416909888
 30
0.0
 11
611.2374639327741761
 21
181.2616433063909938
 31
0.0
  0
LINE
  5
475B
  8
0
 10
609.552424562774263
 20
179.7262102355909974
 30
0.0
 11
608.5524245627741493
 21
179.7262102355909974
 31
0.0
  0
LINE
  5
475C
  8
0
 10
609.5760466099743553
 20
179.7262102355909974
 30
0.0
 11
610.6862828304741697
 21
179.7262102355909974
 31
0.0
  0
LINE
  5
475D
  8
0
 10
608.5406135391742737
 20
179.7065251962910111
 30
0.0
 11
608.530771019374356
 21
179.7065251962910111
 31
0.0
  0
LINE
  5
475E
  8
0
 10
609.5642355863742523
 20
179.7143992120909957
 30
0.0
 11
609.5642355863742523
 21
177.8088874009906988
 31
0.0
  0
LINE
  5
475F
  8
0
 10
610.6862828304741697
 20
181.1773451779909863
 30
0.0
 11
610.6862828304741697
 21
174.2593272616909985
 31
0.0
  0
LINE
  5
4760
  8
0
 10
611.2374639327741761
 20
174.1750291331910034
 30
0.0
 11
611.2374639327741761
 21
181.2616433063909938
 31
0.0
  0
ARC
  5
4761
  8
0
 10
609.1458629260954467
 20
178.9369212224584089
 30
0.0
 40
0.9852047148957456
 50
128.6329571709532047
 51
133.9683846622693864
  0
ARC
  5
4762
  8
0
 10
610.7295864056513892
 20
181.1737407925461127
 30
0.0
 40
0.0434533222845126
 50
99.7580626641407946
 51
175.2419373361645967
  0
ARC
  5
4763
  8
0
 10
609.5519707917485448
 20
179.7139454409615098
 30
0.0
 40
0.0122731860348944
 50
2.1188546727966848
 51
87.8811458123131217
  0
ARC
  5
4764
  8
0
 10
608.5543676305137524
 20
179.712456144235091
 30
0.0
 40
0.0138906638166184
 50
98.0410760737803173
 51
171.9589234411128018
  0
ARC
  5
4765
  8
0
 10
609.5764346804731986
 20
179.7140111414888111
 30
0.0
 40
0.0122052650780811
 50
91.8220456219618768
 51
178.1779538929382909
  0
LINE
  5
4766
  8
0
 10
608.5406135391742737
 20
179.7143992120909957
 30
0.0
 11
608.5406135391742737
 21
177.8088874009910114
 31
0.0
  0
LINE
  5
4767
  8
0
 10
610.7222215807743169
 20
174.220106997990996
 30
0.0
 11
611.2374639327741761
 21
174.1750291331910034
 31
0.0
  0
LINE
  5
4768
  8
0
 10
609.552424562774263
 20
177.7970763773909937
 30
0.0
 11
608.5524245627741493
 21
177.7970763773909937
 31
0.0
  0
LINE
  5
4769
  8
0
 10
609.5760466099743553
 20
177.7970763773909937
 30
0.0
 11
610.6862828304741697
 21
177.7970763773909937
 31
0.0
  0
LINE
  5
476A
  8
0
 10
608.5406135391742737
 20
177.816761416790996
 30
0.0
 11
608.530771019374356
 21
177.816761416790996
 31
0.0
  0
ARC
  5
476B
  8
0
 10
609.1458629260954467
 20
178.5863653906235129
 30
0.0
 40
0.9852047148957456
 50
226.0316153377306136
 51
231.36704282904671
  0
ARC
  5
476C
  8
0
 10
610.7295864056513892
 20
174.2629316471359004
 30
0.0
 40
0.0434533222845126
 50
184.7580626638352896
 51
260.241937335859177
  0
ARC
  5
476D
  8
0
 10
609.5519707915643721
 20
177.8093411722007033
 30
0.0
 40
0.0122731862218632
 50
272.1188550155416124
 51
357.8811449844341155
  0
ARC
  5
476E
  8
0
 10
608.554367630746242
 20
177.8108304689629051
 30
0.0
 40
0.013890664063
 50
188.041076898518412
 51
261.9589231014983852
  0
ARC
  5
476F
  8
0
 10
609.5764346806553249
 20
177.8092754716720094
 30
0.0
 40
0.0122052652626427
 50
181.8220464499003128
 51
268.1779535501158875
  0
LINE
  5
4771
  8
0
 10
611.1193536964741497
 20
174.1932683359910072
 30
0.0
 11
611.1193536964741497
 21
174.2286220281910119
 31
0.0
  0
LINE
  5
4772
  8
0
 10
611.2374639327741761
 20
174.220106997990996
 30
0.0
 11
611.1193536964741497
 21
174.2286220281910119
 31
0.0
  0
LINE
  5
4773
  8
0
 10
611.1193536964741497
 20
174.1932683359910072
 30
0.0
 11
611.2374639327741761
 21
174.182236580877003
 31
0.0
  0
LINE
  5
4776
  8
0
 10
608.4618733815742644
 20
177.8049763774907888
 30
0.0
 11
608.4618733815742644
 21
179.7183102355909909
 31
0.0
  0
LINE
  5
4777
  8
0
 10
607.280771019374356
 20
177.8364464559909948
 30
0.0
 11
607.280771019374356
 21
179.6868401567909928
 31
0.0
  0
LINE
  5
4778
  8
0
 10
607.280771019374356
 20
179.6868401567909928
 30
0.0
 11
607.3201410982741208
 21
179.7262102355907984
 31
0.0
  0
LINE
  5
4779
  8
0
 10
607.3201689187197871
 20
177.7970763774908107
 30
0.0
 11
607.280771019374356
 21
177.8364464559909948
 31
0.0
  0
LINE
  5
477A
  8
0
 10
608.4539733815743148
 20
179.7262102355907984
 30
0.0
 11
607.3201410982741208
 21
179.7262102355907984
 31
0.0
  0
LINE
  5
477B
  8
0
 10
608.4539733815743148
 20
177.7970763774908107
 30
0.0
 11
607.3201689187197871
 21
177.7970763774908107
 31
0.0
  0
ARC
  5
477C
  8
0
 10
608.4539733815743148
 20
179.718310235590792
 30
0.0
 40
0.0079
 50
0.0000000000390827
 51
89.9999999999739515
  0
ARC
  5
477D
  8
0
 10
608.4539733815743148
 20
177.8049763774907888
 30
0.0
 40
0.0079
 50
270.0000000000130171
 51
359.9999999999805027
  0
LINE
  5
477E
  8
0
 10
607.3201410982741208
 20
179.7262102355907984
 30
0.0
 11
607.3201689187197871
 21
177.7970763774908107
 31
0.0
  0
LINE
  5
4801
  8
0
  6
CONTINUOUS
 10
607.4467699054110881
 20
177.7970763774908107
 30
0.0
 11
607.3201670929540796
 21
177.9236791899479897
 31
0.0
1001
GRADIENTCOLOR1ACI
1070
     5
1001
GRADIENTCOLOR2ACI
1070
     2
1001
ACAD
1010
0.0
1020
0.0
1030
0.0
  0
LINE
  5
4802
  8
0
  6
CONTINUOUS
 10
607.6235466007077548
 20
177.7970763774908107
 30
0.0
 11
607.3201645435832461
 21
178.100458434615291
 31
0.0
1001
GRADIENTCOLOR1ACI
1070
     5
1001
GRADIENTCOLOR2ACI
1070
     2
1001
ACAD
1010
0.0
1020
0.0
1030
0.0
  0
LINE
  5
4803
  8
0
  6
CONTINUOUS
 10
607.8003232960045352
 20
177.797076377490896
 30
0.0
 11
607.3201619942126399
 21
178.277237679282706
 31
0.0
1001
GRADIENTCOLOR1ACI
1070
     5
1001
GRADIENTCOLOR2ACI
1070
     2
1001
ACAD
1010
0.0
1020
0.0
1030
0.0
  0
LINE
  5
4804
  8
0
  6
CONTINUOUS
 10
607.9770999913009746
 20
177.797076377490896
 30
0.0
 11
607.3201594448418064
 21
178.4540169239500926
 31
0.0
1001
GRADIENTCOLOR1ACI
1070
     5
1001
GRADIENTCOLOR2ACI
1070
     2
1001
ACAD
1010
0.0
1020
0.0
1030
0.0
  0
LINE
  5
4805
  8
0
  6
CONTINUOUS
 10
608.153876686597755
 20
177.7970763774908107
 30
0.0
 11
607.3201568954709728
 21
178.630796168617394
 31
0.0
1001
GRADIENTCOLOR1ACI
1070
     5
1001
GRADIENTCOLOR2ACI
1070
     2
1001
ACAD
1010
0.0
1020
0.0
1030
0.0
  0
LINE
  5
4806
  8
0
  6
CONTINUOUS
 10
608.330653381894308
 20
177.797076377490896
 30
0.0
 11
607.320154346100253
 21
178.8075754132848942
 31
0.0
1001
GRADIENTCOLOR1ACI
1070
     5
1001
GRADIENTCOLOR2ACI
1070
     2
1001
ACAD
1010
0.0
1020
0.0
1030
0.0
  0
LINE
  5
4807
  8
0
  6
CONTINUOUS
 10
608.4618733815742644
 20
177.8426330731076064
 30
0.0
 11
607.3201517967296468
 21
178.9843546579521956
 31
0.0
1001
GRADIENTCOLOR1ACI
1070
     5
1001
GRADIENTCOLOR2ACI
1070
     2
1001
ACAD
1010
0.0
1020
0.0
1030
0.0
  0
LINE
  5
4808
  8
0
  6
CONTINUOUS
 10
608.4618733815742644
 20
178.0194097684041878
 30
0.0
 11
607.3201492473589269
 21
179.1611339026196106
 31
0.0
1001
GRADIENTCOLOR1ACI
1070
     5
1001
GRADIENTCOLOR2ACI
1070
     2
1001
ACAD
1010
0.0
1020
0.0
1030
0.0
  0
LINE
  5
4809
  8
0
  6
CONTINUOUS
 10
608.4618733815742644
 20
178.1961864637009114
 30
0.0
 11
607.3201466979882071
 21
179.3379131472869119
 31
0.0
1001
GRADIENTCOLOR1ACI
1070
     5
1001
GRADIENTCOLOR2ACI
1070
     2
1001
ACAD
1010
0.0
1020
0.0
1030
0.0
  0
LINE
  5
480A
  8
0
  6
CONTINUOUS
 10
608.4618733815743781
 20
178.3729631589974929
 30
0.0
 11
607.3201441486173735
 21
179.5146923919542985
 31
0.0
1001
GRADIENTCOLOR1ACI
1070
     5
1001
GRADIENTCOLOR2ACI
1070
     2
1001
ACAD
1010
0.0
1020
0.0
1030
0.0
  0
LINE
  5
480B
  8
0
  6
CONTINUOUS
 10
608.4618733815743781
 20
178.5497398542941028
 30
0.0
 11
607.3201415992467673
 21
179.6914716366217135
 31
0.0
1001
GRADIENTCOLOR1ACI
1070
     5
1001
GRADIENTCOLOR2ACI
1070
     2
1001
ACAD
1010
0.0
1020
0.0
1030
0.0
  0
LINE
  5
480C
  8
0
  6
CONTINUOUS
 10
608.4618733815742644
 20
178.7265165495907979
 30
0.0
 11
607.4621796955741502
 21
179.7262102355907984
 31
0.0
1001
GRADIENTCOLOR1ACI
1070
     5
1001
GRADIENTCOLOR2ACI
1070
     2
1001
ACAD
1010
0.0
1020
0.0
1030
0.0
  0
LINE
  5
480D
  8
0
  6
CONTINUOUS
 10
608.4618733815742644
 20
178.9032932448874078
 30
0.0
 11
607.6389563908709306
 21
179.7262102355907984
 31
0.0
1001
GRADIENTCOLOR1ACI
1070
     5
1001
GRADIENTCOLOR2ACI
1070
     2
1001
ACAD
1010
0.0
1020
0.0
1030
0.0
  0
LINE
  5
480E
  8
0
  6
CONTINUOUS
 10
608.4618733815742644
 20
179.080069940184103
 30
0.0
 11
607.8157330861674836
 21
179.7262102355907984
 31
0.0
1001
GRADIENTCOLOR1ACI
1070
     5
1001
GRADIENTCOLOR2ACI
1070
     2
1001
ACAD
1010
0.0
1020
0.0
1030
0.0
  0
LINE
  5
480F
  8
0
  6
CONTINUOUS
 10
608.4618733815742644
 20
179.2568466354807128
 30
0.0
 11
607.9925097814641504
 21
179.7262102355907984
 31
0.0
1001
GRADIENTCOLOR1ACI
1070
     5
1001
GRADIENTCOLOR2ACI
1070
     2
1001
ACAD
1010
0.0
1020
0.0
1030
0.0
  0
LINE
  5
4810
  8
0
  6
CONTINUOUS
 10
608.4618733815742644
 20
179.4336233307772943
 30
0.0
 11
608.1692864767608171
 21
179.7262102355907984
 31
0.0
1001
GRADIENTCOLOR1ACI
1070
     5
1001
GRADIENTCOLOR2ACI
1070
     2
1001
ACAD
1010
0.0
1020
0.0
1030
0.0
  0
LINE
  5
4811
  8
0
  6
CONTINUOUS
 10
608.4618733815743781
 20
179.6104000260739895
 30
0.0
 11
608.3460631720574838
 21
179.7262102355907984
 31
0.0
1001
GRADIENTCOLOR1ACI
1070
     5
1001
GRADIENTCOLOR2ACI
1070
     2
1001
ACAD
1010
0.0
1020
0.0
1030
0.0
  0
LINE
  5
4812
  8
0
  6
CONTINUOUS
 10
607.3201415592791363
 20
179.694243087669804
 30
0.0
 11
607.3521087072000455
 21
179.7262102355907984
 31
0.0
1001
GRADIENTCOLOR1ACI
1070
     5
1001
GRADIENTCOLOR2ACI
1070
     2
1001
ACAD
1010
0.0
1020
0.0
1030
0.0
  0
LINE
  5
4813
  8
0
  6
CONTINUOUS
 10
607.3201441085763008
 20
179.5174689416703018
 30
0.0
 11
607.5288854024968259
 21
179.7262102355907984
 31
0.0
1001
GRADIENTCOLOR1ACI
1070
     5
1001
GRADIENTCOLOR2ACI
1070
     2
1001
ACAD
1010
0.0
1020
0.0
1030
0.0
  0
LINE
  5
4814
  8
0
  6
CONTINUOUS
 10
607.3201466578733516
 20
179.3406947956709132
 30
0.0
 11
607.7056620977932653
 21
179.7262102355907984
 31
0.0
1001
GRADIENTCOLOR1ACI
1070
     5
1001
GRADIENTCOLOR2ACI
1070
     2
1001
ACAD
1010
0.0
1020
0.0
1030
0.0
  0
LINE
  5
4815
  8
0
  6
CONTINUOUS
 10
607.3201492071707435
 20
179.163920649671411
 30
0.0
 11
607.8824387930900457
 21
179.7262102355907984
 31
0.0
1001
GRADIENTCOLOR1ACI
1070
     5
1001
GRADIENTCOLOR2ACI
1070
     2
1001
ACAD
1010
0.0
1020
0.0
1030
0.0
  0
LINE
  5
4816
  8
0
  6
CONTINUOUS
 10
607.3201517564679079
 20
178.987146503671994
 30
0.0
 11
608.0592154883865987
 21
179.7262102355907984
 31
0.0
1001
GRADIENTCOLOR1ACI
1070
     5
1001
GRADIENTCOLOR2ACI
1070
     2
1001
ACAD
1010
0.0
1020
0.0
1030
0.0
  0
LINE
  5
4817
  8
0
  6
CONTINUOUS
 10
607.3201543057649587
 20
178.8103723576726054
 30
0.0
 11
608.2359921836831518
 21
179.7262102355907984
 31
0.0
1001
GRADIENTCOLOR1ACI
1070
     5
1001
GRADIENTCOLOR2ACI
1070
     2
1001
ACAD
1010
0.0
1020
0.0
1030
0.0
  0
LINE
  5
4818
  8
0
  6
CONTINUOUS
 10
607.3201568550623506
 20
178.6335982116731884
 30
0.0
 11
608.4127688789799322
 21
179.7262102355907984
 31
0.0
1001
GRADIENTCOLOR1ACI
1070
     5
1001
GRADIENTCOLOR2ACI
1070
     2
1001
ACAD
1010
0.0
1020
0.0
1030
0.0
  0
LINE
  5
4819
  8
0
  6
CONTINUOUS
 10
607.3201594043595151
 20
178.4568240656736862
 30
0.0
 11
608.4618733815742644
 21
179.5985380428884923
 31
0.0
1001
GRADIENTCOLOR1ACI
1070
     5
1001
GRADIENTCOLOR2ACI
1070
     2
1001
ACAD
1010
0.0
1020
0.0
1030
0.0
  0
LINE
  5
481A
  8
0
  6
CONTINUOUS
 10
607.3201619536566795
 20
178.2800499196742976
 30
0.0
 11
608.4618733815742644
 21
179.4217613475919109
 31
0.0
1001
GRADIENTCOLOR1ACI
1070
     5
1001
GRADIENTCOLOR2ACI
1070
     2
1001
ACAD
1010
0.0
1020
0.0
1030
0.0
  0
LINE
  5
481B
  8
0
  6
CONTINUOUS
 10
607.3201645029539577
 20
178.1032757736747953
 30
0.0
 11
608.4618733815742644
 21
179.2449846522951873
 31
0.0
1001
GRADIENTCOLOR1ACI
1070
     5
1001
GRADIENTCOLOR2ACI
1070
     2
1001
ACAD
1010
0.0
1020
0.0
1030
0.0
  0
LINE
  5
481C
  8
0
  6
CONTINUOUS
 10
607.3201670522511222
 20
177.9265016276754068
 30
0.0
 11
608.4618733815742644
 21
179.0682079569986058
 31
0.0
1001
GRADIENTCOLOR1ACI
1070
     5
1001
GRADIENTCOLOR2ACI
1070
     2
1001
ACAD
1010
0.0
1020
0.0
1030
0.0
  0
LINE
  5
481D
  8
0
  6
CONTINUOUS
 10
607.3675184973632213
 20
177.7970763774908107
 30
0.0
 11
608.4618733815743781
 21
178.8914312617019107
 31
0.0
1001
GRADIENTCOLOR1ACI
1070
     5
1001
GRADIENTCOLOR2ACI
1070
     2
1001
ACAD
1010
0.0
1020
0.0
1030
0.0
  0
LINE
  5
481E
  8
0
  6
CONTINUOUS
 10
607.5442951926597743
 20
177.7970763774908107
 30
0.0
 11
608.4618733815743781
 21
178.7146545664053008
 31
0.0
1001
GRADIENTCOLOR1ACI
1070
     5
1001
GRADIENTCOLOR2ACI
1070
     2
1001
ACAD
1010
0.0
1020
0.0
1030
0.0
  0
LINE
  5
481F
  8
0
  6
CONTINUOUS
 10
607.7210718879564411
 20
177.7970763774908107
 30
0.0
 11
608.4618733815742644
 21
178.5378778711086056
 31
0.0
1001
GRADIENTCOLOR1ACI
1070
     5
1001
GRADIENTCOLOR2ACI
1070
     2
1001
ACAD
1010
0.0
1020
0.0
1030
0.0
  0
LINE
  5
4820
  8
0
  6
CONTINUOUS
 10
607.8978485832528804
 20
177.7970763774908107
 30
0.0
 11
608.4618733815742644
 21
178.3611011758119957
 31
0.0
1001
GRADIENTCOLOR1ACI
1070
     5
1001
GRADIENTCOLOR2ACI
1070
     2
1001
ACAD
1010
0.0
1020
0.0
1030
0.0
  0
LINE
  5
4821
  8
0
  6
CONTINUOUS
 10
608.0746252785495471
 20
177.7970763774908107
 30
0.0
 11
608.4618733815742644
 21
178.1843244805153859
 31
0.0
1001
GRADIENTCOLOR1ACI
1070
     5
1001
GRADIENTCOLOR2ACI
1070
     2
1001
ACAD
1010
0.0
1020
0.0
1030
0.0
  0
LINE
  5
4822
  8
0
  6
CONTINUOUS
 10
608.2514019738463276
 20
177.7970763774908107
 30
0.0
 11
608.4618733815742644
 21
178.0075477852188044
 31
0.0
1001
GRADIENTCOLOR1ACI
1070
     5
1001
GRADIENTCOLOR2ACI
1070
     2
1001
ACAD
1010
0.0
1020
0.0
1030
0.0
  0
LINE
  5
4823
  8
0
  6
CONTINUOUS
 10
608.4281786691429943
 20
177.7970763774908107
 30
0.0
 11
608.4618733815742644
 21
177.8307710899221092
 31
0.0
1001
GRADIENTCOLOR1ACI
1070
     5
1001
GRADIENTCOLOR2ACI
1070
     2
1001
ACAD
1010
0.0
1020
0.0
1030
0.0
  0
LINE
  5
48B2
  8
0
 10
608.530771019374356
 20
179.7065251962910111
 30
0.0
 11
608.530771019374356
 21
177.816761416790996
 31
0.0
  0
ENDSEC
  0
EOF
