  0
SECTION
  2
HEADER
  9
$ACADVER
  1
AC1009
  9
$INSBASE
 10
3566.6805570353308212
 20
296.5671548590485145
 30
0.0
  9
$EXTMIN
 10
3563.0871383482181045
 20
292.1605173808662812
 30
-0.0000000349181948
  9
$EXTMAX
 10
3570.4417931914631481
 20
300.128780911647425
 30
0.0000000814935746
  9
$LIMMIN
 10
0.0
 20
0.0
  9
$LIMMAX
 10
11.6929133858000007
 20
8.2677165353999982
  9
$ORTHOMODE
 70
     0
  9
$REGENMODE
 70
     1
  9
$FILLMODE
 70
     1
  9
$QTEXTMODE
 70
     0
  9
$MIRRTEXT
 70
     0
  9
$DRAGMODE
 70
     2
  9
$LTSCALE
 40
0.6431102362
  9
$OSMODE
 70
  4095
  9
$ATTMODE
 70
     1
  9
$TEXTSIZE
 40
0.2
  9
$TRACEWID
 40
0.05
  9
$TEXTSTYLE
  7
STANDARD
  9
$CLAYER
  8
0
  9
$CELTYPE
  6
BYLAYER
  9
$CECOLOR
 62
   256
  9
$DIMSCALE
 40
1.0
  9
$DIMASZ
 40
0.1875
  9
$DIMEXO
 40
0.0625
  9
$DIMDLI
 40
0.4443307087
  9
$DIMRND
 40
0.0
  9
$DIMDLE
 40
0.0
  9
$DIMEXE
 40
0.125
  9
$DIMTP
 40
0.01
  9
$DIMTM
 40
0.01
  9
$DIMTXT
 40
2.0
  9
$DIMCEN
 40
0.1052362205
  9
$DIMTSZ
 40
0.0
  9
$DIMTOL
 70
     1
  9
$DIMLIM
 70
     0
  9
$DIMTIH
 70
     1
  9
$DIMTOH
 70
     1
  9
$DIMSE1
 70
     0
  9
$DIMSE2
 70
     0
  9
$DIMTAD
 70
     0
  9
$DIMZIN
 70
     0
  9
$DIMBLK
  1

  9
$DIMASO
 70
     1
  9
$DIMSHO
 70
     1
  9
$DIMPOST
  1
\X
  9
$DIMAPOST
  1

  9
$DIMALT
 70
     1
  9
$DIMALTD
 70
     2
  9
$DIMALTF
 40
25.3999999999999986
  9
$DIMLFAC
 40
1.0
  9
$DIMTOFL
 70
     0
  9
$DIMTVP
 40
0.0
  9
$DIMTIX
 70
     0
  9
$DIMSOXD
 70
     0
  9
$DIMSAH
 70
     0
  9
$DIMBLK1
  1

  9
$DIMBLK2
  1

  9
$DIMSTYLE
  2
STANDARD
  9
$DIMCLRD
 70
     0
  9
$DIMCLRE
 70
     0
  9
$DIMCLRT
 70
     0
  9
$DIMTFAC
 40
1.0
  9
$DIMGAP
 40
0.09
  9
$LUNITS
 70
     2
  9
$LUPREC
 70
     4
  9
$SKETCHINC
 40
0.1
  9
$FILLETRAD
 40
0.0
  9
$AUNITS
 70
     0
  9
$AUPREC
 70
     0
  9
$MENU
  1
.
  9
$ELEVATION
 40
0.0
  9
$PELEVATION
 40
0.0
  9
$THICKNESS
 40
0.0
  9
$LIMCHECK
 70
     0
  9
$BLIPMODE
 70
     0
  9
$CHAMFERA
 40
0.0
  9
$CHAMFERB
 40
0.0
  9
$SKPOLY
 70
     0
  9
$TDCREATE
 40
2458060.468368056230247
  9
$TDUPDATE
 40
2459710.6714236112311482
  9
$TDINDWG
 40
0.4871050579
  9
$TDUSRTIMER
 40
0.4871050579
  9
$USRTIMER
 70
     1
  9
$ANGBASE
 50
0.0
  9
$ANGDIR
 70
     0
  9
$PDMODE
 70
     0
  9
$PDSIZE
 40
0.3125
  9
$PLINEWID
 40
0.0
  9
$COORDS
 70
     1
  9
$SPLFRAME
 70
     0
  9
$SPLINETYPE
 70
     6
  9
$SPLINESEGS
 70
     8
  9
$ATTDIA
 70
     1
  9
$ATTREQ
 70
     1
  9
$HANDLING
 70
     1
  9
$HANDSEED
  5
C4A1
  9
$SURFTAB1
 70
     6
  9
$SURFTAB2
 70
     6
  9
$SURFTYPE
 70
     6
  9
$SURFU
 70
     6
  9
$SURFV
 70
     6
  9
$UCSNAME
  2

  9
$UCSORG
 10
0.0
 20
0.0
 30
0.0
  9
$UCSXDIR
 10
1.0
 20
0.0
 30
0.0
  9
$UCSYDIR
 10
0.0
 20
1.0
 30
0.0
  9
$PUCSNAME
  2

  9
$PUCSORG
 10
0.0
 20
0.0
 30
0.0
  9
$PUCSXDIR
 10
1.0
 20
0.0
 30
0.0
  9
$PUCSYDIR
 10
0.0
 20
1.0
 30
0.0
  9
$USERI1
 70
     0
  9
$USERI2
 70
     0
  9
$USERI3
 70
     0
  9
$USERI4
 70
     0
  9
$USERI5
 70
     0
  9
$USERR1
 40
0.0
  9
$USERR2
 40
0.0
  9
$USERR3
 40
0.0
  9
$USERR4
 40
0.0
  9
$USERR5
 40
0.0
  9
$WORLDVIEW
 70
     1
  9
$SHADEDGE
 70
     3
  9
$SHADEDIF
 70
    70
  9
$TILEMODE
 70
     1
  9
$MAXACTVP
 70
    64
  9
$PLIMCHECK
 70
     0
  9
$PEXTMIN
 10
1.0000000000000000E+20
 20
1.0000000000000000E+20
 30
1.0000000000000000E+20
  9
$PEXTMAX
 10
-1.0000000000000000E+20
 20
-1.0000000000000000E+20
 30
-1.0000000000000000E+20
  9
$PLIMMIN
 10
0.0
 20
0.0
  9
$PLIMMAX
 10
12.0
 20
9.0
  9
$UNITMODE
 70
     0
  9
$VISRETAIN
 70
     1
  9
$PLINEGEN
 70
     0
  9
$PSLTSCALE
 70
     1
  0
ENDSEC
  0
SECTION
  2
TABLES
  0
TABLE
  2
VPORT
 70
     1
  0
VPORT
  2
*ACTIVE
 70
     0
 10
0.0
 20
0.0
 11
1.0
 21
1.0
 12
306.4481815901527284
 22
-8.0657848137041128
 13
0.0
 23
0.0
 14
1.0
 24
1.0
 15
0.0
 25
0.0
 16
0.0
 26
0.0
 36
48.4519809769821421
 17
3260.3162841796870453
 27
304.2104339599608807
 37
0.0
 40
8.0181691478841017
 41
2.005224660397074
 42
50.0
 43
0.0
 44
0.0
 50
0.0
 51
0.0
 71
     0
 72
   100
 73
     1
 74
     1
 75
     0
 76
     0
 77
     0
 78
     1
  0
ENDTAB
  0
TABLE
  2
LTYPE
 70
     2
  0
LTYPE
  2
CONTINUOUS
 70
     0
  3
Solid line
 72
    65
 73
     0
 40
0.0
  0
LTYPE
  2
PHANTOM2
 70
     0
  3
___ _ _ ___ _ _ ___ _ _ ___ _ _
 72
    65
 73
     6
 40
1.25
 49
0.625
 49
-0.125
 49
0.125
 49
-0.125
 49
0.125
 49
-0.125
  0
ENDTAB
  0
TABLE
  2
LAYER
 70
     2
  0
LAYER
  2
0
 70
     0
 62
   255
  6
CONTINUOUS
  0
LAYER
  2
DEFPOINTS
 70
     0
 62
     7
  6
CONTINUOUS
  0
ENDTAB
  0
TABLE
  2
STYLE
 70
     1
  0
STYLE
  2
STANDARD
 70
     0
 40
0.0
 41
0.8
 50
0.0
 71
     0
 42
0.2
  3
txt
  4

  0
ENDTAB
  0
TABLE
  2
VIEW
 70
     0
  0
ENDTAB
  0
TABLE
  2
UCS
 70
     0
  0
ENDTAB
  0
TABLE
  2
APPID
 70
     9
  0
APPID
  2
ACAD
 70
     0
  0
APPID
  2
ACAD_MLEADERVER
 70
     0
  0
APPID
  2
ACAD_EXEMPT_FROM_CAD_STANDARDS
 70
     0
  0
APPID
  2
ACAD_NAV_VCDISPLAY
 70
     0
  0
APPID
  2
ACAECLAYERSTANDARD
 70
     0
  0
APPID
  2
ACCMTRANSPARENCY
 70
     0
  0
APPID
  2
ACAD_DSTYLE_DIMJAG
 70
     0
  0
APPID
  2
ACAD_DSTYLE_DIMTALN
 70
     0
  0
APPID
  2
ACDBATTR
 70
     0
  0
ENDTAB
  0
TABLE
  2
DIMSTYLE
 70
     1
  0
DIMSTYLE
  2
STANDARD
 70
     0
  3

  4

  5

  6

  7

 40
1.0
 41
0.1875
 42
0.0625
 43
0.38
 44
0.125
 45
0.0
 46
0.0
 47
0.01
 48
0.01
140
0.15625
141
0.09
142
0.0
143
25.3999999999999986
144
1.0
145
0.0
146
1.0
147
0.09
 71
     1
 72
     0
 73
     1
 74
     1
 75
     0
 76
     0
 77
     0
 78
     4
170
     0
171
     2
172
     0
173
     0
174
     0
175
     0
176
     0
177
     0
178
     0
  0
ENDTAB
  0
ENDSEC
  0
SECTION
  2
BLOCKS
  0
BLOCK
  8
0
  2
$MODEL_SPACE
 70
     0
 10
0.0
 20
0.0
 30
0.0
  3
$MODEL_SPACE
  1

  0
ENDBLK
  5
21
  8
0
  0
BLOCK
 67
     1
  8
0
  2
$PAPER_SPACE
 70
     0
 10
0.0
 20
0.0
 30
0.0
  3
$PAPER_SPACE
  1

  0
ENDBLK
  5
1D
 67
     1
  8
0
  0
ENDSEC
  0
SECTION
  2
ENTITIES
  0
ARC
  5
C0A2
  8
0
 10
3566.6805569825310158
 20
296.5671548590486282
 30
0.0
 40
3.543307086599881
 50
279.1182077267259842
 51
260.8817922732740158
  0
CIRCLE
  5
C0A3
  8
0
 10
3566.6805569825310158
 20
298.0829028905487235
 30
0.0
 40
0.4921259842999995
  0
ARC
  5
C0A4
  8
0
 10
3566.6805569825310158
 20
295.5238477724486756
 30
0.0
 40
0.9645669291
 50
275.8567050598632022
 51
264.1433012396623781
  0
ARC
  5
C0FB
  8
0
 10
3566.6805569825310158
 20
296.567154859047605
 30
0.0
 40
3.5433070865989129
 50
266.3448937554023814
 51
268.4082466767005144
  0
LINE
  5
C0FC
  8
0
 10
3566.454669816806927
 20
293.0310552990376891
 30
0.0
 11
3566.4443365100310075
 21
293.042086970648711
 31
0.0
  0
ARC
  5
C0FD
  8
0
 10
3566.6805569824950908
 20
296.5671548587743018
 30
0.0
 40
3.5329737796231062
 50
261.0245917835895284
 51
266.1662493038667776
  0
LINE
  5
C0FE
  8
0
 10
3566.1293758801662079
 20
293.0774409564692746
 30
0.0
 11
3566.1190425734430391
 21
293.0686227842584799
 31
0.0
  0
ARC
  5
C117
  8
0
 10
3566.6805569825310158
 20
296.567154859047605
 30
0.0
 40
3.5433070865989129
 50
271.5917550314973141
 51
273.6551062445976186
  0
LINE
  5
C118
  8
0
 10
3566.9064441482560142
 20
293.0310552990376891
 30
0.0
 11
3566.9167774550310241
 21
293.042086970648711
 31
0.0
  0
ARC
  5
C119
  8
0
 10
3566.6805569825678504
 20
296.5671548587743018
 30
0.0
 40
3.5329737796231062
 50
273.8337506961332224
 51
278.9754082164105853
  0
LINE
  5
C11A
  8
0
 10
3567.2317380848971879
 20
293.0774409564692746
 30
0.0
 11
3567.242071391619902
 21
293.0686227842584799
 31
0.0
  0
CIRCLE
  5
C11B
  8
0
 10
3566.6805569825310158
 20
298.0829028905487235
 30
0.0
 40
0.5118110236
  0
ARC
  5
C11C
  8
0
 10
3566.6805569825310158
 20
295.5238477724486756
 30
0.0
 40
0.9940944882
 50
275.6821620915267772
 51
264.3178440190292235
  0
LINE
  5
C121
  8
0
 10
3566.5821318384300866
 20
294.5643301748518752
 30
0.0
 11
3566.5821318384300866
 21
292.1970906163484756
 31
0.0
  0
ARC
  5
C122
  8
0
 10
3566.60181687783097
 20
292.1970906163484756
 30
0.0
 40
0.0196850394000006
 50
180.0
 51
270.0
  0
LINE
  5
C123
  8
0
 10
3566.60181687783097
 20
292.1774055769485017
 30
0.0
 11
3566.7592971928302177
 21
292.1774055769485017
 31
0.0
  0
ARC
  5
C124
  8
0
 10
3566.7592971928302177
 20
292.1970906163484756
 30
0.0
 40
0.0196850394000006
 50
270.0
 51
0.0
  0
LINE
  5
C125
  8
0
 10
3566.7789822322311011
 20
292.1970906163484756
 30
0.0
 11
3566.7789822322311011
 21
294.5643301748415865
 31
0.0
  0
ATTDEF
  5
C13D
  8
DEFPOINTS
 10
3566.6694319757548328
 20
296.5653514120512
 30
0.0
 40
0.001
  1
K-78021T-4AMU
  3

  2
MODELNUMBER
 70
     0
1001
ACDBATTR
1070
     0
1070
     1
  0
ATTDEF
  5
C13E
  8
DEFPOINTS
 10
3566.6694319757548328
 20
296.5636847453845917
 30
0.0
 40
0.001
  1
MODULO
  3

  2
TRADENAME
 70
     0
1001
ACDBATTR
1070
     0
1070
     1
  0
ATTDEF
  5
C13F
  8
DEFPOINTS
 10
3566.6694319757548328
 20
296.5620180787179265
 30
0.0
 40
0.001
  1
VALVE TRIM
  3

  2
PRODUCT
 70
     0
1001
ACDBATTR
1070
     0
1070
     1
  0
ENDSEC
  0
EOF
