  0
SECTION
  2
HEADER
  9
$ACADVER
  1
AC1009
  9
$INSBASE
 10
3577.2089768138298496
 20
296.5671548590485145
 30
0.0
  9
$EXTMIN
 10
3573.7247248453309112
 20
292.1774055769485017
 30
0.0
  9
$EXTMAX
 10
3577.2200902068020696
 20
300.1104619456485239
 30
0.0
  9
$LIMMIN
 10
0.0
 20
0.0
  9
$LIMMAX
 10
11.6929133858000007
 20
8.2677165353999982
  9
$ORTHOMODE
 70
     0
  9
$REGENMODE
 70
     1
  9
$FILLMODE
 70
     1
  9
$QTEXTMODE
 70
     0
  9
$MIRRTEXT
 70
     0
  9
$DRAGMODE
 70
     2
  9
$LTSCALE
 40
0.6431102362
  9
$OSMODE
 70
  4095
  9
$ATTMODE
 70
     1
  9
$TEXTSIZE
 40
0.2
  9
$TRACEWID
 40
0.05
  9
$TEXTSTYLE
  7
STANDARD
  9
$CLAYER
  8
0
  9
$CELTYPE
  6
BYLAYER
  9
$CECOLOR
 62
   256
  9
$DIMSCALE
 40
1.0
  9
$DIMASZ
 40
0.1875
  9
$DIMEXO
 40
0.0625
  9
$DIMDLI
 40
0.4443307087
  9
$DIMRND
 40
0.0
  9
$DIMDLE
 40
0.0
  9
$DIMEXE
 40
0.125
  9
$DIMTP
 40
0.01
  9
$DIMTM
 40
0.01
  9
$DIMTXT
 40
2.0
  9
$DIMCEN
 40
0.1052362205
  9
$DIMTSZ
 40
0.0
  9
$DIMTOL
 70
     1
  9
$DIMLIM
 70
     0
  9
$DIMTIH
 70
     1
  9
$DIMTOH
 70
     1
  9
$DIMSE1
 70
     0
  9
$DIMSE2
 70
     0
  9
$DIMTAD
 70
     0
  9
$DIMZIN
 70
     0
  9
$DIMBLK
  1

  9
$DIMASO
 70
     1
  9
$DIMSHO
 70
     1
  9
$DIMPOST
  1
\X
  9
$DIMAPOST
  1

  9
$DIMALT
 70
     1
  9
$DIMALTD
 70
     2
  9
$DIMALTF
 40
25.3999999999999986
  9
$DIMLFAC
 40
1.0
  9
$DIMTOFL
 70
     0
  9
$DIMTVP
 40
0.0
  9
$DIMTIX
 70
     0
  9
$DIMSOXD
 70
     0
  9
$DIMSAH
 70
     0
  9
$DIMBLK1
  1

  9
$DIMBLK2
  1

  9
$DIMSTYLE
  2
STANDARD
  9
$DIMCLRD
 70
     0
  9
$DIMCLRE
 70
     0
  9
$DIMCLRT
 70
     0
  9
$DIMTFAC
 40
1.0
  9
$DIMGAP
 40
0.09
  9
$LUNITS
 70
     2
  9
$LUPREC
 70
     4
  9
$SKETCHINC
 40
0.1
  9
$FILLETRAD
 40
0.0
  9
$AUNITS
 70
     0
  9
$AUPREC
 70
     0
  9
$MENU
  1
.
  9
$ELEVATION
 40
0.0
  9
$PELEVATION
 40
0.0
  9
$THICKNESS
 40
0.0
  9
$LIMCHECK
 70
     0
  9
$BLIPMODE
 70
     0
  9
$CHAMFERA
 40
0.0
  9
$CHAMFERB
 40
0.0
  9
$SKPOLY
 70
     0
  9
$TDCREATE
 40
2458060.468368056230247
  9
$TDUPDATE
 40
2459710.6710069440305233
  9
$TDINDWG
 40
0.4868504282
  9
$TDUSRTIMER
 40
0.4868504282
  9
$USRTIMER
 70
     1
  9
$ANGBASE
 50
0.0
  9
$ANGDIR
 70
     0
  9
$PDMODE
 70
     0
  9
$PDSIZE
 40
0.3125
  9
$PLINEWID
 40
0.0
  9
$COORDS
 70
     1
  9
$SPLFRAME
 70
     0
  9
$SPLINETYPE
 70
     6
  9
$SPLINESEGS
 70
     8
  9
$ATTDIA
 70
     1
  9
$ATTREQ
 70
     1
  9
$HANDLING
 70
     1
  9
$HANDSEED
  5
C520
  9
$SURFTAB1
 70
     6
  9
$SURFTAB2
 70
     6
  9
$SURFTYPE
 70
     6
  9
$SURFU
 70
     6
  9
$SURFV
 70
     6
  9
$UCSNAME
  2

  9
$UCSORG
 10
0.0
 20
0.0
 30
0.0
  9
$UCSXDIR
 10
1.0
 20
0.0
 30
0.0
  9
$UCSYDIR
 10
0.0
 20
1.0
 30
0.0
  9
$PUCSNAME
  2

  9
$PUCSORG
 10
0.0
 20
0.0
 30
0.0
  9
$PUCSXDIR
 10
1.0
 20
0.0
 30
0.0
  9
$PUCSYDIR
 10
0.0
 20
1.0
 30
0.0
  9
$USERI1
 70
     0
  9
$USERI2
 70
     0
  9
$USERI3
 70
     0
  9
$USERI4
 70
     0
  9
$USERI5
 70
     0
  9
$USERR1
 40
0.0
  9
$USERR2
 40
0.0
  9
$USERR3
 40
0.0
  9
$USERR4
 40
0.0
  9
$USERR5
 40
0.0
  9
$WORLDVIEW
 70
     1
  9
$SHADEDGE
 70
     3
  9
$SHADEDIF
 70
    70
  9
$TILEMODE
 70
     1
  9
$MAXACTVP
 70
    64
  9
$PLIMCHECK
 70
     0
  9
$PEXTMIN
 10
1.0000000000000000E+20
 20
1.0000000000000000E+20
 30
1.0000000000000000E+20
  9
$PEXTMAX
 10
-1.0000000000000000E+20
 20
-1.0000000000000000E+20
 30
-1.0000000000000000E+20
  9
$PLIMMIN
 10
0.0
 20
0.0
  9
$PLIMMAX
 10
12.0
 20
9.0
  9
$UNITMODE
 70
     0
  9
$VISRETAIN
 70
     1
  9
$PLINEGEN
 70
     0
  9
$PSLTSCALE
 70
     1
  0
ENDSEC
  0
SECTION
  2
TABLES
  0
TABLE
  2
VPORT
 70
     1
  0
VPORT
  2
*ACTIVE
 70
     0
 10
0.0
 20
0.0
 11
1.0
 21
1.0
 12
315.1561233463784788
 22
-8.0665001986624247
 13
0.0
 23
0.0
 14
1.0
 24
1.0
 15
0.0
 25
0.0
 16
0.0
 26
0.0
 36
48.4519809769821421
 17
3260.3162841796870453
 27
304.2104339599608807
 37
0.0
 40
7.9827414816563902
 41
2.005224660397074
 42
50.0
 43
0.0
 44
0.0
 50
0.0
 51
0.0
 71
     0
 72
   100
 73
     1
 74
     1
 75
     0
 76
     0
 77
     0
 78
     1
  0
ENDTAB
  0
TABLE
  2
LTYPE
 70
     2
  0
LTYPE
  2
CONTINUOUS
 70
     0
  3
Solid line
 72
    65
 73
     0
 40
0.0
  0
LTYPE
  2
PHANTOM2
 70
     0
  3
___ _ _ ___ _ _ ___ _ _ ___ _ _
 72
    65
 73
     6
 40
1.25
 49
0.625
 49
-0.125
 49
0.125
 49
-0.125
 49
0.125
 49
-0.125
  0
ENDTAB
  0
TABLE
  2
LAYER
 70
     2
  0
LAYER
  2
0
 70
     0
 62
   255
  6
CONTINUOUS
  0
LAYER
  2
DEFPOINTS
 70
     0
 62
     7
  6
CONTINUOUS
  0
ENDTAB
  0
TABLE
  2
STYLE
 70
     1
  0
STYLE
  2
STANDARD
 70
     0
 40
0.0
 41
0.8
 50
0.0
 71
     0
 42
0.2
  3
txt
  4

  0
ENDTAB
  0
TABLE
  2
VIEW
 70
     0
  0
ENDTAB
  0
TABLE
  2
UCS
 70
     0
  0
ENDTAB
  0
TABLE
  2
APPID
 70
     9
  0
APPID
  2
ACAD
 70
     0
  0
APPID
  2
ACAD_MLEADERVER
 70
     0
  0
APPID
  2
ACAD_EXEMPT_FROM_CAD_STANDARDS
 70
     0
  0
APPID
  2
ACAD_NAV_VCDISPLAY
 70
     0
  0
APPID
  2
ACAECLAYERSTANDARD
 70
     0
  0
APPID
  2
ACCMTRANSPARENCY
 70
     0
  0
APPID
  2
ACAD_DSTYLE_DIMJAG
 70
     0
  0
APPID
  2
ACAD_DSTYLE_DIMTALN
 70
     0
  0
APPID
  2
ACDBATTR
 70
     0
  0
ENDTAB
  0
TABLE
  2
DIMSTYLE
 70
     1
  0
DIMSTYLE
  2
STANDARD
 70
     0
  3

  4

  5

  6

  7

 40
1.0
 41
0.1875
 42
0.0625
 43
0.38
 44
0.125
 45
0.0
 46
0.0
 47
0.01
 48
0.01
140
0.15625
141
0.09
142
0.0
143
25.3999999999999986
144
1.0
145
0.0
146
1.0
147
0.09
 71
     1
 72
     0
 73
     1
 74
     1
 75
     0
 76
     0
 77
     0
 78
     4
170
     0
171
     2
172
     0
173
     0
174
     0
175
     0
176
     0
177
     0
178
     0
  0
ENDTAB
  0
ENDSEC
  0
SECTION
  2
BLOCKS
  0
BLOCK
  8
0
  2
$MODEL_SPACE
 70
     0
 10
0.0
 20
0.0
 30
0.0
  3
$MODEL_SPACE
  1

  0
ENDBLK
  5
21
  8
0
  0
BLOCK
 67
     1
  8
0
  2
$PAPER_SPACE
 70
     0
 10
0.0
 20
0.0
 30
0.0
  3
$PAPER_SPACE
  1

  0
ENDBLK
  5
1D
 67
     1
  8
0
  0
ENDSEC
  0
SECTION
  2
ENTITIES
  0
ATTDEF
  5
B746
  8
DEFPOINTS
 10
3577.2094235401327751
 20
296.5707751258822782
 30
0.0
 40
0.001
  1
K-78021T-4AMU
  3

  2
MODELNUMBER
 70
     0
1001
ACDBATTR
1070
     0
1070
     1
  0
ATTDEF
  5
B747
  8
DEFPOINTS
 10
3577.2094235401327751
 20
296.569108459215613
 30
0.0
 40
0.001
  1
MODULO
  3

  2
TRADENAME
 70
     0
1001
ACDBATTR
1070
     0
1070
     1
  0
ATTDEF
  5
B748
  8
DEFPOINTS
 10
3577.2094235401327751
 20
296.5674417925490047
 30
0.0
 40
0.001
  1
VALVE TRIM
  3

  2
PRODUCT
 70
     0
1001
ACDBATTR
1070
     0
1070
     1
  0
LINE
  5
C07A
  8
0
 10
3577.2089768138330328
 20
293.0238477724485051
 30
0.0
 11
3577.2089768138280306
 21
300.1104619456485239
 31
0.0
  0
LINE
  5
C07B
  8
0
 10
3576.6577957114309356
 20
298.5651718576987719
 30
0.0
 11
3575.8113390185280878
 21
298.5651718576987719
 31
0.0
  0
LINE
  5
C07C
  8
0
 10
3575.8113390185280878
 20
298.5651718576987719
 30
0.0
 11
3575.7916539791272044
 21
298.545486818298798
 31
0.0
  0
LINE
  5
C07D
  8
0
 10
3575.7916539791272044
 20
298.545486818298798
 30
0.0
 11
3575.7916539791272044
 21
297.6202899678988274
 31
0.0
  0
LINE
  5
C07E
  8
0
 10
3575.7916539791272044
 20
297.6202899678988274
 30
0.0
 11
3575.8113390185280878
 21
297.6006049285987842
 31
0.0
  0
LINE
  5
C07F
  8
0
 10
3575.8113390185280878
 20
297.6006049285987842
 30
0.0
 11
3576.6577957114309356
 21
297.6006049285987842
 31
0.0
  0
LINE
  5
C080
  8
0
 10
3575.7916539791272044
 20
297.6891876056988053
 30
0.0
 11
3575.7006028738278474
 21
297.6891876056988053
 31
0.0
  0
LINE
  5
C081
  8
0
 10
3575.7006028738278474
 20
297.6891876056988053
 30
0.0
 11
3575.7006028738278474
 21
298.47658918049882
 31
0.0
  0
LINE
  5
C082
  8
0
 10
3575.7006028738278474
 20
298.47658918049882
 30
0.0
 11
3575.6978292164340019
 21
298.5560308333962212
 31
0.0
  0
ARC
  5
C083
  8
0
 10
3575.6781561686261739
 20
298.555343835426811
 30
0.0
 40
0.0196850394017418
 50
2.000000004800627
 51
89.9999999951016463
  0
LINE
  5
C084
  8
0
 10
3575.6781561686279929
 20
298.5750288748286039
 30
0.0
 11
3575.2035525318278815
 21
298.5750288748690764
 31
0.0
  0
ARC
  5
C085
  8
0
 10
3575.203552531826972
 20
298.5553438354742752
 30
0.0
 40
0.0196850393948029
 50
89.9999999951016463
 51
175.5882732443947134
  0
ARC
  5
C086
  8
0
 10
3581.3270855193691204
 20
298.0829028977387907
 30
0.0
 40
6.1614157962063603
 50
175.5882731824960103
 51
184.4117268175039897
  0
ARC
  5
C087
  8
0
 10
3575.2035525328719814
 20
297.6104619600840238
 30
0.0
 40
0.0196850404431052
 50
184.4117267556021034
 51
269.9999969627305063
  0
LINE
  5
C088
  8
0
 10
3575.2035525318278815
 20
297.5907769196409163
 30
0.0
 11
3575.6781561686279929
 21
297.5907768944820191
 31
0.0
  0
ARC
  5
C089
  8
0
 10
3575.6781561696711833
 20
297.6104619318916207
 30
0.0
 40
0.0196850374096425
 50
269.9999969627305063
 51
358.0000788675058061
  0
ARC
  5
C08A
  8
0
 10
32413.6668793838398415
 20
-709.5785563554071587
 30
0.0
 40
28855.5521048056398286
 50
177.9995559494408894
 51
177.9997137278749051
  0
LINE
  5
C08B
  8
0
 10
3575.8113390185280878
 20
298.5651718576987719
 30
0.0
 11
3575.8113390185280878
 21
297.6006049285987842
 31
0.0
  0
LINE
  5
C08C
  8
0
 10
3575.5297015978280797
 20
298.511458949498774
 30
0.0
 11
3575.352818958827811
 21
298.5114599023988262
 31
0.0
  0
ARC
  5
C08D
  8
0
 10
3575.7901386435810309
 20
298.2153735820407974
 30
0.0
 40
0.5281246214444748
 50
145.9001226849335069
 51
164.6576255395092119
  0
ARC
  5
C08E
  8
0
 10
3575.9511046881898437
 20
298.0902551860394851
 30
0.0
 40
0.7134968743449426
 50
166.1158407155461987
 51
175.7257231932103991
  0
ARC
  5
C08F
  8
0
 10
3471.0418935376778791
 20
298.0831610317879949
 30
0.0
 40
104.1977161602725062
 50
359.9665581059751958
 51
0.033141998389148
  0
ARC
  5
C090
  8
0
 10
3575.9587904422701286
 20
298.0767498398124076
 30
0.0
 40
0.7212534130067824
 50
184.3260777652930926
 51
193.8323820178115966
  0
ARC
  5
C091
  8
0
 10
3103.5585596114960936
 20
185.1139081013157011
 30
0.0
 40
484.9973868156210983
 50
13.4363908853352907
 51
13.4477650480329505
  0
ARC
  5
C092
  8
0
 10
3575.7906165243261967
 20
297.9506232177706124
 30
0.0
 40
0.5286437229412181
 50
195.351686620321999
 51
214.0905904918386966
  0
LINE
  5
C093
  8
0
 10
3575.352818958827811
 20
297.6543168265989152
 30
0.0
 11
3575.5297015979281241
 21
297.6543168265989152
 31
0.0
  0
ARC
  5
C094
  8
0
 10
3575.0756676177547888
 20
297.9580985050616846
 30
0.0
 40
0.5462876195936044
 50
326.2146054171374203
 51
344.343103300589803
  0
ARC
  5
C095
  8
0
 10
3574.4183605539619748
 20
298.1423257427063049
 30
0.0
 40
1.2289238706105581
 50
344.3431033005928725
 51
348.7731068395390821
  0
ARC
  5
C096
  8
0
 10
3574.007849513498968
 20
298.2238093738445741
 30
0.0
 40
1.647443758411812
 50
348.7731068395390821
 51
352.975733082378099
  0
ARC
  5
C097
  8
0
 10
3573.9891222843380092
 20
297.9396696438441836
 30
0.0
 40
1.666311752135212
 50
7.0239387575105052
 51
11.1348463938672104
  0
ARC
  5
C098
  8
0
 10
3574.4506831998010057
 20
298.0305159534863719
 30
0.0
 40
1.1958954145590459
 50
11.1348414940517699
 51
15.7488972116720696
  0
ARC
  5
C099
  8
0
 10
3575.0786116899071203
 20
298.2090318749403082
 30
0.0
 40
0.5430876913116456
 50
15.6032060864304807
 51
33.8393371821151518
  0
LINE
  5
C09A
  8
0
 10
3575.2808353608888865
 20
298.3551084653572048
 30
0.0
 11
3575.2585804928030484
 21
298.2619942622885105
 31
0.0
  0
LINE
  5
C09B
  8
0
 10
3575.3528189589278554
 20
298.511458949498774
 30
0.0
 11
3575.3528189589278554
 21
297.6543178543989256
 31
0.0
  0
LINE
  5
C09C
  8
0
 10
3575.5297015979281241
 20
297.6543168265989152
 30
0.0
 11
3575.5297015978280797
 21
298.511459193798828
 31
0.0
  0
LINE
  5
C09D
  8
0
 10
3575.7916539791272044
 20
298.47658918049882
 30
0.0
 11
3575.7006028738278474
 21
298.47658918049882
 31
0.0
  0
LINE
  5
C09E
  8
0
 10
3577.2089768131781966
 20
293.0686082860078727
 30
0.0
 11
3577.0908665776310045
 21
293.077440956448811
 31
0.0
  0
LINE
  5
C09F
  8
0
 10
3577.0908665776310045
 20
293.077440956448811
 30
0.0
 11
3577.0908665776310045
 21
293.042086970648711
 31
0.0
  0
LINE
  5
C0A0
  8
0
 10
3577.0908665776310045
 20
293.042086970648711
 30
0.0
 11
3577.2089768131268102
 21
293.0310408007882188
 31
0.0
  0
ARC
  5
C0A1
  8
0
 10
3471.4452298827782215
 20
298.0831611475878731
 30
0.0
 40
104.1977161602725062
 50
359.9665581059751958
 51
0.033141998389148
  0
LINE
  5
C0FF
  8
0
 10
3577.2089768138280306
 20
300.1104619456485239
 30
0.0
 11
3576.6937344617308554
 21
300.065384080808883
 31
0.0
  0
ARC
  5
C100
  8
0
 10
3576.6971657901822255
 20
300.0261638171929803
 30
0.0
 40
0.0393700786516548
 50
95.0000000069306054
 51
180.0000000644701004
  0
LINE
  5
C101
  8
0
 10
3576.65779571153098
 20
300.026163817148813
 30
0.0
 11
3576.657795719313981
 21
293.1081748707488259
 31
0.0
  0
ARC
  5
C102
  8
0
 10
3576.697197425522063
 20
293.1081748707931069
 30
0.0
 40
0.0394017062071761
 50
180.000000064473312
 51
264.9578443097241234
  0
LINE
  5
C103
  8
0
 10
3576.6937344617749659
 20
293.0689256372448881
 30
0.0
 11
3577.2089768138330328
 21
293.0238477724485051
 31
0.0
  0
LINE
  5
C104
  8
0
 10
3576.6577957114309356
 20
296.488414701548777
 30
0.0
 11
3575.5475594909307802
 21
296.488414701548777
 31
0.0
  0
ARC
  5
C105
  8
0
 10
3575.5475594909307802
 20
296.4766036736313026
 30
0.0
 40
0.0118110279174708
 50
90.0
 51
180.0489900981746985
  0
LINE
  5
C106
  8
0
 10
3575.5357484673309045
 20
296.4765935747486765
 30
0.0
 11
3575.5357484673309045
 21
294.5710925634962223
 31
0.0
  0
ARC
  5
C107
  8
0
 10
3575.5475594909448773
 20
294.5710918669838065
 30
0.0
 40
0.0118110236350642
 50
179.9966211889463068
 51
269.9999999295470161
  0
LINE
  5
C108
  8
0
 10
3575.5475594909307802
 20
294.5592808433488017
 30
0.0
 11
3576.6577957176818927
 21
294.5592808419834796
 31
0.0
  0
ARC
  5
C109
  8
0
 10
3575.5239374437160222
 20
294.5710918669835792
 30
0.0
 40
0.0118110236348597
 50
270.0000000695150106
 51
0.003378812043749
  0
LINE
  5
C10A
  8
0
 10
3575.5239374437301194
 20
294.5592808433488017
 30
0.0
 11
3574.5239374437310289
 21
294.5592808433488017
 31
0.0
  0
ARC
  5
C10B
  8
0
 10
3574.5239374437310289
 20
294.5710918669486773
 30
0.0
 40
0.0118110235999998
 50
180.0
 51
270.0
  0
LINE
  5
C10C
  8
0
 10
3574.512126420129789
 20
294.5710918669486773
 30
0.0
 11
3574.512126420129789
 21
296.476603677948674
 31
0.0
  0
ARC
  5
C10D
  8
0
 10
3574.5239374437310289
 20
296.476603677948674
 30
0.0
 40
0.0118110235999964
 50
89.9999999999739515
 51
179.9999999999836859
  0
LINE
  5
C10E
  8
0
 10
3574.5239374437310289
 20
296.488414701548777
 30
0.0
 11
3575.5239374437301194
 21
296.4884147015483791
 31
0.0
  0
ARC
  5
C10F
  8
0
 10
3575.5239374437301194
 20
296.4766036736310184
 30
0.0
 40
0.0118110279174668
 50
359.9510099032647759
 51
89.9999999999739515
  0
LINE
  5
C110
  8
0
 10
3574.512126420129789
 20
296.468729662248677
 30
0.0
 11
3574.5022811213298155
 21
296.4687274412526108
 31
0.0
  0
LINE
  5
C111
  8
0
 10
3574.5022811213298155
 20
296.4687274412526108
 30
0.0
 11
3574.5022849534561828
 21
294.5822409873654237
 31
0.0
  0
LINE
  5
C112
  8
0
 10
3574.5022849534561828
 20
294.5822409873654237
 30
0.0
 11
3574.512126420129789
 21
294.5822409873654237
 31
0.0
  0
ARC
  5
C113
  8
0
 10
3575.1167322748301558
 20
295.6998310129487777
 30
0.0
 40
0.9842519684999416
 50
128.6295348271387127
 51
133.9698342980479993
  0
LINE
  5
C114
  8
0
 10
3574.4333862626308473
 20
294.6394930437816129
 30
0.0
 11
3574.4806303571299395
 21
294.5967802248487146
 31
0.0
  0
LINE
  5
C115
  8
0
 10
3574.4806303571299395
 20
294.5967802248487146
 30
0.0
 11
3574.4806303571299395
 21
294.6000837866487245
 31
0.0
  0
LINE
  5
C116
  8
0
 10
3574.4806303571299395
 20
294.6000837866487245
 30
0.0
 11
3574.5022849534561828
 21
294.5822410184259184
 31
0.0
  0
LINE
  5
C126
  8
0
 10
3574.4333862626308473
 20
296.4884291990485963
 30
0.0
 11
3574.4333862626308473
 21
294.5593034564485038
 31
0.0
  0
LINE
  5
C127
  8
0
 10
3574.4333862626308473
 20
294.5593034564485038
 30
0.0
 11
3574.0012996485311305
 21
294.5592953407485197
 31
0.0
  0
ARC
  5
C128
  8
0
 10
3573.9018602633777846
 20
293.598715451927319
 30
0.0
 40
0.9657131634846366
 50
84.0897837869973159
 51
89.9982251037548906
  0
ARC
  5
C129
  8
0
 10
3573.901920053160211
 20
293.5987170560935056
 30
0.0
 40
0.9657115593171399
 50
90.0017724356271458
 51
95.9102211254108141
  0
LINE
  5
C12A
  8
0
 10
3573.80248075083
 20
294.5592953407485197
 30
0.0
 11
3573.7633150876308719
 21
294.5592953407485197
 31
0.0
  0
ARC
  5
C12B
  8
0
 10
3573.7633150876299624
 20
294.5789803801465041
 30
0.0
 40
0.0196850393979656
 50
182.2924427699788907
 51
270.000000002397087
  0
ARC
  5
C12C
  8
0
 10
3597.3664571288331899
 20
295.5238622698483937
 30
0.0
 40
23.6417322835022503
 50
177.7075572240009933
 51
182.2924427758003958
  0
ARC
  5
C12D
  8
0
 10
3573.7633150876508807
 20
296.4687441596320241
 30
0.0
 40
0.0196850394164986
 50
90.0000000610992288
 51
177.7075572298248005
  0
LINE
  5
C12E
  8
0
 10
3573.7633150876308719
 20
296.4884291990485963
 30
0.0
 11
3574.4333862626308473
 21
296.4884291997630044
 31
0.0
  0
LINE
  5
C12F
  8
0
 10
3573.8034650028312171
 20
294.5593967211552808
 30
0.0
 11
3573.8034650028312171
 21
292.1970906163484756
 31
0.0
  0
LINE
  5
C130
  8
0
 10
3574.0003153965299134
 20
294.5593967210708115
 30
0.0
 11
3574.0003153965299134
 21
292.1970906163484756
 31
0.0
  0
ARC
  5
C131
  8
0
 10
3573.8231500422298268
 20
292.1970906163484756
 30
0.0
 40
0.0196850393999917
 50
179.9999999999934914
 51
270.0000000000259774
  0
LINE
  5
C132
  8
0
 10
3573.8231500422298268
 20
292.1774055769485017
 30
0.0
 11
3573.980630357130849
 21
292.1774055769486154
 31
0.0
  0
ARC
  5
C133
  8
0
 10
3573.980630357130849
 20
292.1970906163485893
 30
0.0
 40
0.0196850394000092
 50
270.0000000000259774
 51
359.9999999998079261
  0
LINE
  5
C13C
  8
0
 10
3573.7436458026299988
 20
296.4695315628289904
 30
0.0
 11
3573.7436458026299988
 21
294.5781929769681255
 31
0.0
  0
ENDSEC
  0
EOF
