  0
SECTION
  2
HEADER
  9
$ACADVER
  1
AC1009
  9
$INSBASE
 10
372.459774455470324
 20
27.8448235746343187
 30
0.0
  9
$EXTMIN
 10
368.5030815420694807
 20
24.3015164880341885
 30
0.0
  9
$EXTMAX
 10
372.4723139003942265
 20
31.3881306612342108
 30
0.0
  9
$LIMMIN
 10
0.0
 20
0.0
  9
$LIMMAX
 10
22.0
 20
17.0
  9
$ORTHOMODE
 70
     0
  9
$REGENMODE
 70
     1
  9
$FILLMODE
 70
     1
  9
$QTEXTMODE
 70
     0
  9
$MIRRTEXT
 70
     0
  9
$DRAGMODE
 70
     2
  9
$LTSCALE
 40
1.2099999999999991
  9
$OSMODE
 70
  4095
  9
$ATTMODE
 70
     1
  9
$TEXTSIZE
 40
0.2
  9
$TRACEWID
 40
0.05
  9
$TEXTSTYLE
  7
STANDARD
  9
$CLAYER
  8
0
  9
$CELTYPE
  6
BYLAYER
  9
$CECOLOR
 62
   256
  9
$DIMSCALE
 40
1.0
  9
$DIMASZ
 40
0.1875
  9
$DIMEXO
 40
0.0625
  9
$DIMDLI
 40
0.38
  9
$DIMRND
 40
0.0
  9
$DIMDLE
 40
0.0
  9
$DIMEXE
 40
0.125
  9
$DIMTP
 40
1.5
  9
$DIMTM
 40
1.5
  9
$DIMTXT
 40
1.5
  9
$DIMCEN
 40
0.09
  9
$DIMTSZ
 40
0.0
  9
$DIMTOL
 70
     0
  9
$DIMLIM
 70
     0
  9
$DIMTIH
 70
     1
  9
$DIMTOH
 70
     1
  9
$DIMSE1
 70
     0
  9
$DIMSE2
 70
     0
  9
$DIMTAD
 70
     0
  9
$DIMZIN
 70
     4
  9
$DIMBLK
  1

  9
$DIMASO
 70
     1
  9
$DIMSHO
 70
     1
  9
$DIMPOST
  1

  9
$DIMAPOST
  1

  9
$DIMALT
 70
     0
  9
$DIMALTD
 70
     2
  9
$DIMALTF
 40
25.3999999999999986
  9
$DIMLFAC
 40
1.0
  9
$DIMTOFL
 70
     0
  9
$DIMTVP
 40
0.0
  9
$DIMTIX
 70
     0
  9
$DIMSOXD
 70
     0
  9
$DIMSAH
 70
     0
  9
$DIMBLK1
  1

  9
$DIMBLK2
  1

  9
$DIMSTYLE
  2
STANDARD
  9
$DIMCLRD
 70
     0
  9
$DIMCLRE
 70
     0
  9
$DIMCLRT
 70
     0
  9
$DIMTFAC
 40
1.0
  9
$DIMGAP
 40
0.09
  9
$LUNITS
 70
     2
  9
$LUPREC
 70
     4
  9
$SKETCHINC
 40
0.1
  9
$FILLETRAD
 40
0.0
  9
$AUNITS
 70
     0
  9
$AUPREC
 70
     0
  9
$MENU
  1
.
  9
$ELEVATION
 40
0.0
  9
$PELEVATION
 40
0.0
  9
$THICKNESS
 40
0.0
  9
$LIMCHECK
 70
     0
  9
$BLIPMODE
 70
     0
  9
$CHAMFERA
 40
0.0
  9
$CHAMFERB
 40
0.0
  9
$SKPOLY
 70
     0
  9
$TDCREATE
 40
2457827.4934837957844138
  9
$TDUPDATE
 40
2459912.539224537089467
  9
$TDINDWG
 40
0.5131732639
  9
$TDUSRTIMER
 40
0.5131732639
  9
$USRTIMER
 70
     1
  9
$ANGBASE
 50
0.0
  9
$ANGDIR
 70
     0
  9
$PDMODE
 70
     0
  9
$PDSIZE
 40
0.3125
  9
$PLINEWID
 40
0.0
  9
$COORDS
 70
     1
  9
$SPLFRAME
 70
     0
  9
$SPLINETYPE
 70
     6
  9
$SPLINESEGS
 70
     8
  9
$ATTDIA
 70
     1
  9
$ATTREQ
 70
     1
  9
$HANDLING
 70
     1
  9
$HANDSEED
  5
6ABA
  9
$SURFTAB1
 70
     6
  9
$SURFTAB2
 70
     6
  9
$SURFTYPE
 70
     6
  9
$SURFU
 70
     6
  9
$SURFV
 70
     6
  9
$UCSNAME
  2

  9
$UCSORG
 10
0.0
 20
0.0
 30
0.0
  9
$UCSXDIR
 10
1.0
 20
0.0
 30
0.0
  9
$UCSYDIR
 10
0.0
 20
1.0
 30
0.0
  9
$PUCSNAME
  2

  9
$PUCSORG
 10
0.0
 20
0.0
 30
0.0
  9
$PUCSXDIR
 10
1.0
 20
0.0
 30
0.0
  9
$PUCSYDIR
 10
0.0
 20
1.0
 30
0.0
  9
$USERI1
 70
     0
  9
$USERI2
 70
     0
  9
$USERI3
 70
     0
  9
$USERI4
 70
     0
  9
$USERI5
 70
     0
  9
$USERR1
 40
0.0
  9
$USERR2
 40
0.0
  9
$USERR3
 40
0.0
  9
$USERR4
 40
0.0
  9
$USERR5
 40
0.0
  9
$WORLDVIEW
 70
     1
  9
$SHADEDGE
 70
     3
  9
$SHADEDIF
 70
    70
  9
$TILEMODE
 70
     1
  9
$MAXACTVP
 70
    48
  9
$PLIMCHECK
 70
     0
  9
$PEXTMIN
 10
1.0000000000000000E+20
 20
1.0000000000000000E+20
 30
1.0000000000000000E+20
  9
$PEXTMAX
 10
-1.0000000000000000E+20
 20
-1.0000000000000000E+20
 30
-1.0000000000000000E+20
  9
$PLIMMIN
 10
0.0
 20
0.0
  9
$PLIMMAX
 10
12.0
 20
9.0
  9
$UNITMODE
 70
     0
  9
$VISRETAIN
 70
     1
  9
$PLINEGEN
 70
     0
  9
$PSLTSCALE
 70
     1
  0
ENDSEC
  0
SECTION
  2
TABLES
  0
TABLE
  2
VPORT
 70
     1
  0
VPORT
  2
*ACTIVE
 70
     0
 10
0.0
 20
0.0
 11
1.0
 21
1.0
 12
167.0867486540508935
 22
18.3570065089588397
 13
0.0
 23
0.0
 14
1.0
 24
1.0
 15
0.0
 25
0.0
 16
-0.0000000000000284
 26
0.0
 36
157.2215818301446859
 17
210.9789276123046875
 27
7.2024491855605604
 37
0.0
 40
13.8341540094537994
 41
2.498684210526315
 42
50.0
 43
0.0
 44
0.0
 50
0.0
 51
0.0
 71
     0
 72
   100
 73
     1
 74
     1
 75
     0
 76
     0
 77
     0
 78
     0
  0
ENDTAB
  0
TABLE
  2
LTYPE
 70
     2
  0
LTYPE
  2
CONTINUOUS
 70
     0
  3
Solid line
 72
    65
 73
     0
 40
0.0
  0
LTYPE
  2
PHANTOM2
 70
     0
  3
___ _ _ ___ _ _ ___ _ _ ___ _ _
 72
    65
 73
     6
 40
1.25
 49
0.625
 49
-0.125
 49
0.125
 49
-0.125
 49
0.125
 49
-0.125
  0
ENDTAB
  0
TABLE
  2
LAYER
 70
     2
  0
LAYER
  2
0
 70
     0
 62
     7
  6
CONTINUOUS
  0
LAYER
  2
DEFPOINTS
 70
     0
 62
     7
  6
CONTINUOUS
  0
ENDTAB
  0
TABLE
  2
STYLE
 70
     1
  0
STYLE
  2
STANDARD
 70
     0
 40
0.0
 41
0.8
 50
0.0
 71
     0
 42
0.2
  3
txt
  4

  0
ENDTAB
  0
TABLE
  2
VIEW
 70
     0
  0
ENDTAB
  0
TABLE
  2
UCS
 70
     0
  0
ENDTAB
  0
TABLE
  2
APPID
 70
     9
  0
APPID
  2
ACAD
 70
     0
  0
APPID
  2
ACAD_MLEADERVER
 70
     0
  0
APPID
  2
ACAD_EXEMPT_FROM_CAD_STANDARDS
 70
     0
  0
APPID
  2
ACAD_NAV_VCDISPLAY
 70
     0
  0
APPID
  2
ACADANNOMONITORALERTICONDI
 70
     0
  0
APPID
  2
ACAD_DSTYLE_DIMJAG
 70
     0
  0
APPID
  2
ACAD_DSTYLE_DIMTALN
 70
     0
  0
APPID
  2
ACDBATTR
 70
     0
  0
APPID
  2
DCO15
 70
     0
  0
ENDTAB
  0
TABLE
  2
DIMSTYLE
 70
     1
  0
DIMSTYLE
  2
STANDARD
 70
     0
  3

  4

  5

  6

  7

 40
1.0
 41
0.1875
 42
0.0625
 43
0.38
 44
0.125
 45
0.0
 46
0.0
 47
1.5
 48
1.5
140
1.5
141
0.09
142
0.0
143
25.3999999999999986
144
1.0
145
0.0
146
1.0
147
0.09
 71
     0
 72
     0
 73
     1
 74
     1
 75
     0
 76
     0
 77
     0
 78
     4
170
     0
171
     2
172
     0
173
     0
174
     0
175
     0
176
     0
177
     0
178
     0
  0
ENDTAB
  0
ENDSEC
  0
SECTION
  2
BLOCKS
  0
BLOCK
  8
0
  2
$MODEL_SPACE
 70
     0
 10
0.0
 20
0.0
 30
0.0
  3
$MODEL_SPACE
  1

  0
ENDBLK
  5
21
  8
0
  0
BLOCK
 67
     1
  8
0
  2
$PAPER_SPACE
 70
     0
 10
0.0
 20
0.0
 30
0.0
  3
$PAPER_SPACE
  1

  0
ENDBLK
  5
1D
 67
     1
  8
0
  0
BLOCK
  8
0
  2
_FILLED
 70
     0
 10
0.0
 20
0.0
 30
0.0
  3
_FILLED
  1

  0
SOLID
  5
6485
  8
0
  6
BYBLOCK
 62
     0
 10
0.0
 20
0.0
 30
0.0
 11
-1.0
 21
0.1666666667
 31
0.0
 12
-1.0
 22
-0.1666666667
 32
0.0
 13
-1.0
 23
-0.1666666667
 33
0.0
  0
ENDBLK
  5
6486
  8
0
  6
BYBLOCK
 62
     0
  0
ENDSEC
  0
SECTION
  2
ENTITIES
  0
ATTDEF
  5
4EF9
  8
DEFPOINTS
 10
372.4616472337273763
 20
27.849234149421239
 30
0.0
 40
0.001
  1
K-78021T-B8
  3

  2
MODELNUMBER
 70
     0
1001
ACDBATTR
1070
     0
1070
     1
  0
ATTDEF
  5
4EFA
  8
DEFPOINTS
 10
372.4616472337273763
 20
27.8475674827545596
 30
0.0
 40
0.001
  1
MODULO
  3

  2
TRADENAME
 70
     0
1001
ACDBATTR
1070
     0
1070
     1
  0
ATTDEF
  5
4EFB
  8
DEFPOINTS
 10
372.4616472337273763
 20
27.8459008160878803
 30
0.0
 40
0.001
  1
VALVE TRIM
  3

  2
PRODUCT
 70
     0
1001
ACDBATTR
1070
     0
1070
     1
  0
LINE
  5
689F
  8
0
 10
372.4597744554729957
 20
24.3015164880341885
 30
0.0
 11
372.4597744554675955
 21
31.3881306612342108
 31
0.0
  0
LINE
  5
68A0
  8
0
 10
370.9715865578584726
 20
29.8291953295845786
 30
0.0
 11
370.9715865578584726
 21
28.8919768775142387
 31
0.0
  0
LINE
  5
68A1
  8
0
 10
370.8805354525582061
 20
28.9098396469346213
 30
0.0
 11
370.8805354525582061
 21
29.8113325602341916
 31
0.0
  0
ARC
  5
68A2
  8
0
 10
370.8529354525581994
 20
29.8113325602341916
 30
0.0
 40
0.0276
 50
359.9999999999968736
 51
90.0
  0
ARC
  5
68A3
  8
0
 10
370.8529354525581994
 20
28.9098396469346213
 30
0.0
 40
0.0276
 50
270.0000000124218218
 51
0.0
  0
ARC
  5
68A4
  8
0
 10
376.5070180980990244
 20
29.3608556824997109
 30
0.0
 40
6.1614157962063603
 50
175.7883178555294137
 51
184.216732055179591
  0
ARC
  5
68A5
  8
0
 10
370.3897665253404057
 20
29.8113325602341916
 30
0.0
 40
0.0276
 50
90.0
 51
175.7883178555312043
  0
ARC
  5
68A6
  8
0
 10
370.3898062530373068
 20
28.9098396468342109
 30
0.0
 40
0.0276
 50
184.2167320551770047
 51
270.0000000124218218
  0
LINE
  5
68A7
  8
0
 10
372.4597744548182163
 20
24.3462770015936201
 30
0.0
 11
372.3416642192701147
 21
24.3551096720344411
 31
0.0
  0
LINE
  5
68A8
  8
0
 10
372.3416642192701147
 20
24.3551096720344411
 30
0.0
 11
372.3416642192701147
 21
24.3197556862344584
 31
0.0
  0
LINE
  5
68A9
  8
0
 10
372.3416642192701147
 20
24.3197556862344584
 30
0.0
 11
372.4597744547672846
 21
24.3087095163738489
 31
0.0
  0
LINE
  5
68AA
  8
0
 10
372.4597744554675955
 20
31.3881306612342108
 30
0.0
 11
371.9445321033704204
 21
31.34305279639457
 31
0.0
  0
ARC
  5
68AB
  8
0
 10
371.9479634318217904
 20
31.3038325327787312
 30
0.0
 40
0.0393700786516548
 50
95.000000006930776
 51
180.0000000644701004
  0
LINE
  5
68AC
  8
0
 10
371.9085933531704882
 20
31.3038325327344502
 30
0.0
 11
371.9085933609543986
 21
24.3858435863344596
 31
0.0
  0
ARC
  5
68AD
  8
0
 10
371.9479950671620827
 20
24.3858435863787903
 30
0.0
 40
0.0394017062071761
 50
180.000000064473312
 51
264.9578443097241234
  0
LINE
  5
68AE
  8
0
 10
371.9445321034140761
 20
24.3465943528306283
 30
0.0
 11
372.4597744554729957
 21
24.3015164880341885
 31
0.0
  0
LINE
  5
68AF
  8
0
 10
371.9085933530705006
 20
27.7660834171344604
 30
0.0
 11
370.8141461089704762
 21
27.7660834171344604
 31
0.0
  0
ARC
  5
68B0
  8
0
 10
370.8141461089704762
 20
27.7384834171344608
 30
0.0
 40
0.0276
 50
90.0
 51
180.0
  0
LINE
  5
68B1
  8
0
 10
370.7865461089705263
 20
27.7542622907209484
 30
0.0
 11
370.7865461089704127
 21
25.8487612790818702
 31
0.0
  0
LINE
  5
68B2
  8
0
 10
370.8141461089364839
 20
25.8369495589150198
 30
0.0
 11
371.9085933593219124
 21
25.8369495575692198
 31
0.0
  0
ARC
  5
68B3
  8
0
 10
370.8141461089704762
 20
25.8645495589150194
 30
0.0
 40
0.0276
 50
180.0
 51
269.9999999295470161
  0
ARC
  5
68B4
  8
0
 10
370.7747350853559851
 20
25.8487605825693301
 30
0.0
 40
0.0118110236348597
 50
270.0000000695150106
 51
0.0033788120437486
  0
LINE
  5
68B5
  8
0
 10
370.7747350853700823
 20
25.8369495589344282
 30
0.0
 11
369.7747350853700823
 21
25.8369495589344282
 31
0.0
  0
ARC
  5
68B6
  8
0
 10
369.7747350853700823
 20
25.8487605825344211
 30
0.0
 40
0.0118110235999998
 50
180.0
 51
270.0
  0
LINE
  5
68B7
  8
0
 10
369.7629240617703203
 20
25.8487605825344211
 30
0.0
 11
369.7629240617703203
 21
27.7542723935344213
 31
0.0
  0
ARC
  5
68B8
  8
0
 10
369.7747350853700823
 20
27.7542723935344213
 30
0.0
 40
0.0118110235999964
 50
89.9999999999739515
 51
179.9999999999836859
  0
LINE
  5
68B9
  8
0
 10
369.7747350853700823
 20
27.7660834171344604
 30
0.0
 11
370.7747350853700823
 21
27.76608341713413
 31
0.0
  0
ARC
  5
68BA
  8
0
 10
370.7747350853700823
 20
27.7542723892166485
 30
0.0
 40
0.0118110279174668
 50
359.9510099032646053
 51
89.9999999999739515
  0
LINE
  5
68BB
  8
0
 10
369.7629240617703203
 20
27.7463983778344208
 30
0.0
 11
369.75307876297029
 21
27.7463961568382409
 31
0.0
  0
LINE
  5
68BC
  8
0
 10
369.75307876297029
 20
27.7463961568382409
 30
0.0
 11
369.753082595095691
 21
25.8599097029511107
 31
0.0
  0
LINE
  5
68BD
  8
0
 10
369.753082595095691
 20
25.8599097029511107
 30
0.0
 11
369.7629240617703203
 21
25.8599097029511107
 31
0.0
  0
ARC
  5
68BE
  8
0
 10
370.4122856619866866
 20
26.8184223981874688
 30
0.0
 40
1.138283370894813
 50
125.3889332769795004
 51
129.7656472184777954
  0
LINE
  5
68BF
  8
0
 10
369.6841839042695028
 20
25.9100429561663184
 30
0.0
 11
369.731427998770414
 21
25.8744489404344584
 31
0.0
  0
LINE
  5
68C0
  8
0
 10
369.731427998770414
 20
25.8744489404344584
 30
0.0
 11
369.731427998770414
 21
25.8777525022344115
 31
0.0
  0
LINE
  5
68C1
  8
0
 10
369.731427998770414
 20
25.8777525022344115
 30
0.0
 11
369.753082595095691
 21
25.8599097340116089
 31
0.0
  0
LINE
  5
68C2
  8
0
 10
368.5424661177664802
 20
27.7660979141313291
 30
0.0
 11
369.6728103709236848
 21
27.7660979153449397
 31
0.0
  0
LINE
  5
68C3
  8
0
 10
371.6122621934305243
 20
29.8526975904344098
 30
0.0
 11
370.9911659478744923
 21
29.8488949603738085
 31
0.0
  0
ARC
  5
68C4
  8
0
 10
370.9912865578584729
 20
29.8291953295845786
 30
0.0
 40
0.0197
 50
90.3507861025455554
 51
180.0
  0
LINE
  5
68C5
  8
0
 10
371.6169980234317904
 20
28.868445621834411
 30
0.0
 11
370.9911659478760271
 21
28.8722772467250088
 31
0.0
  0
ARC
  5
68C6
  8
0
 10
370.9912865578584729
 20
28.8919768775142387
 30
0.0
 40
0.0197
 50
180.0
 51
269.6492139017959175
  0
LINE
  5
68C7
  8
0
 10
370.3897665253404057
 20
29.8389325602341913
 30
0.0
 11
370.8529354525581994
 21
29.8389325602341913
 31
0.0
  0
LINE
  5
68C8
  8
0
 10
370.3898062530432753
 20
28.8822396468342113
 30
0.0
 11
370.8529354525642248
 21
28.882239646934611
 31
0.0
  0
LINE
  5
68C9
  8
0
 10
370.9001323040706097
 20
29.7574645690035702
 30
0.0
 11
370.971585479169903
 21
29.75709043763419
 31
0.0
  0
ARC
  5
68CA
  8
0
 10
370.9002354525582064
 20
29.7771642989608409
 30
0.0
 40
0.0197
 50
180.0000000000025864
 51
269.6999999996618271
  0
LINE
  5
68CB
  8
0
 10
370.9001323040706097
 20
28.9637076381648093
 30
0.0
 11
370.971585479169903
 21
28.9640817695341894
 31
0.0
  0
ARC
  5
68CC
  8
0
 10
370.9002354525582064
 20
28.9440079082075314
 30
0.0
 40
0.0197
 50
90.3000000003381729
 51
179.9999999999972999
  0
LINE
  5
68CD
  8
0
 10
370.5312063663070035
 20
29.7542407269341886
 30
0.0
 11
370.7111771466326786
 21
29.7542407269341886
 31
0.0
  0
LINE
  5
68CE
  8
0
 10
370.5327504588701117
 20
28.9669314801341891
 30
0.0
 11
370.7096330540699114
 21
28.9669314801341891
 31
0.0
  0
ARC
  5
68CF
  8
0
 10
370.5345792732953782
 20
29.7154726678138417
 30
0.0
 40
0.0389145076997133
 50
94.9723390626041635
 51
131.3669936477465114
  0
ARC
  5
68D0
  8
0
 10
370.584291103798023
 20
29.6590201396488702
 30
0.0
 40
0.1141352098244154
 50
131.3669936477465114
 51
145.6650978408314074
  0
ARC
  5
68D1
  8
0
 10
370.665339672273717
 20
29.6036601791921008
 30
0.0
 40
0.212286092009683
 50
145.6650978408310948
 51
161.2006049653556943
  0
ARC
  5
68D2
  8
0
 10
371.5447423944139018
 20
29.3042974341678288
 30
0.0
 40
1.1412463714705441
 50
161.2006049653556943
 51
164.7945135110915942
  0
ARC
  5
68D3
  8
0
 10
371.4752066493222742
 20
29.3231970282314691
 30
0.0
 40
1.0691879611271919
 50
164.7945135110915942
 51
168.0400231076752959
  0
ARC
  5
68D4
  8
0
 10
371.2986969468611278
 20
29.3605864739434708
 30
0.0
 40
0.8887616722622368
 50
168.0400231076752959
 51
191.9601200557746949
  0
ARC
  5
68D5
  8
0
 10
371.4494248625260866
 20
29.3925150455823712
 30
0.0
 40
1.0428341819698981
 50
191.9601200557746949
 51
195.2873966634028875
  0
ARC
  5
68D6
  8
0
 10
370.9385984929850792
 20
29.2321935503073718
 30
0.0
 40
0.50820493896428
 50
193.0360842178727978
 51
203.4011130030714867
  0
ARC
  5
68D7
  8
0
 10
370.660562494198075
 20
29.1128171110566107
 30
0.0
 40
0.2056278670327444
 50
203.6432527989223047
 51
215.7579273603340937
  0
ARC
  5
68D8
  8
0
 10
370.5638582677697173
 20
29.0434708644898194
 30
0.0
 40
0.0866300652850312
 50
215.9141908148075117
 51
231.9558460773799027
  0
ARC
  5
68D9
  8
0
 10
370.5340015392797
 20
29.0042893282795688
 30
0.0
 40
0.0373787910484666
 50
230.9853602415066973
 51
268.0819332096091898
  0
ARC
  5
68DA
  8
0
 10
370.7078042396444175
 20
29.7154726678138417
 30
0.0
 40
0.0389145076997133
 50
48.6330063522535028
 51
85.0276609373958649
  0
ARC
  5
68DB
  8
0
 10
370.6580924091418865
 20
29.6590201396488702
 30
0.0
 40
0.1141352098244154
 50
34.334902159168557
 51
48.6330063522535028
  0
ARC
  5
68DC
  8
0
 10
370.5770438406660787
 20
29.6036601791921008
 30
0.0
 40
0.212286092009683
 50
18.7993950346441494
 51
34.3349021591688981
  0
ARC
  5
68DD
  8
0
 10
369.6976411185258939
 20
29.3042974341678288
 30
0.0
 40
1.1412463714705441
 50
15.2054864889083703
 51
18.7993950346444301
  0
ARC
  5
68DE
  8
0
 10
369.7671768636175216
 20
29.3231970282314691
 30
0.0
 40
1.0691879611271919
 50
11.9599768923248
 51
15.2054864889083703
  0
ARC
  5
68DF
  8
0
 10
369.9436865660786111
 20
29.3605864739434708
 30
0.0
 40
0.8887616722622368
 50
348.0398799442249924
 51
11.9599768923248
  0
ARC
  5
68E0
  8
0
 10
369.7929586504137092
 20
29.3925150455823712
 30
0.0
 40
1.0428341819698981
 50
344.7126033365971125
 51
348.0398799442248787
  0
ARC
  5
68E1
  8
0
 10
370.3037850199547165
 20
29.2321935503073718
 30
0.0
 40
0.50820493896428
 50
336.5988869969285133
 51
346.9639157821267759
  0
ARC
  5
68E2
  8
0
 10
370.5818210187417208
 20
29.1128171110566107
 30
0.0
 40
0.2056278670327444
 50
324.242072639665821
 51
336.3567472010774964
  0
ARC
  5
68E3
  8
0
 10
370.6785252451700785
 20
29.0434708644898194
 30
0.0
 40
0.0866300652850312
 50
308.0441539226200121
 51
324.0858091851903851
  0
ARC
  5
68E4
  8
0
 10
370.7083819736602095
 20
29.0042893282795688
 30
0.0
 40
0.0373787910484666
 50
271.9180667903909239
 51
309.0146397584932743
  0
LINE
  5
68E6
  8
0
 10
371.6122621934305243
 20
29.8526975904344098
 30
0.0
 11
371.9085933548033154
 21
29.8526975904344098
 31
0.0
  0
LINE
  5
68E7
  8
0
 10
371.6169980234317904
 20
28.868445621834411
 30
0.0
 11
371.908593355910682
 21
28.868445621834411
 31
0.0
  0
LINE
  5
68E8
  8
0
 10
369.6841839042695028
 20
25.8566345982343186
 30
0.0
 11
369.6841839042695028
 21
27.7463983777343195
 31
0.0
  0
LINE
  5
68E9
  8
0
 10
368.5424516207694978
 20
25.8369495588343199
 30
0.0
 11
369.6728187414694844
 21
25.8369495588343199
 31
0.0
  0
LINE
  5
68EA
  8
0
 10
368.5030815420694807
 20
25.876319637634321
 30
0.0
 11
368.5030815420694807
 21
27.726713338434319
 31
0.0
  0
LINE
  5
68EB
  8
0
 10
368.5424661177664802
 20
27.7660979141313291
 30
0.0
 11
368.5030815420694807
 21
27.726713338434319
 31
0.0
  0
LINE
  5
68EC
  8
0
 10
368.5030815420694807
 20
25.876319637634321
 30
0.0
 11
368.5424516207694978
 21
25.8369495588343199
 31
0.0
  0
LINE
  5
68ED
  8
0
 10
369.6841839042695028
 20
25.8566345982343186
 30
0.0
 11
369.6728187414694844
 21
25.8369495588343199
 31
0.0
  0
LINE
  5
68EE
  8
0
 10
369.6728103709236848
 20
27.7660979153449397
 30
0.0
 11
369.6841839042695028
 21
27.7463983777343195
 31
0.0
  0
ENDSEC
  0
EOF
