  0
SECTION
  2
HEADER
  9
$ACADVER
  1
AC1009
  9
$INSBASE
 10
356.8216774797638209
 20
20.6307454761710503
 30
0.0
  9
$EXTMIN
 10
340.6296516447266072
 20
6.914016244322517
 30
0.0
  9
$EXTMAX
 10
368.2991318503680986
 20
24.1740525627709317
 30
0.0
  9
$LIMMIN
 10
0.0
 20
0.0
  9
$LIMMAX
 10
22.0
 20
17.0
  9
$ORTHOMODE
 70
     0
  9
$REGENMODE
 70
     1
  9
$FILLMODE
 70
     1
  9
$QTEXTMODE
 70
     0
  9
$MIRRTEXT
 70
     0
  9
$DRAGMODE
 70
     2
  9
$LTSCALE
 40
1.2099999999999991
  9
$OSMODE
 70
  4095
  9
$ATTMODE
 70
     1
  9
$TEXTSIZE
 40
0.2
  9
$TRACEWID
 40
0.05
  9
$TEXTSTYLE
  7
STANDARD
  9
$CLAYER
  8
0
  9
$CELTYPE
  6
BYLAYER
  9
$CECOLOR
 62
   256
  9
$DIMSCALE
 40
1.0
  9
$DIMASZ
 40
0.1875
  9
$DIMEXO
 40
0.0625
  9
$DIMDLI
 40
0.38
  9
$DIMRND
 40
0.0
  9
$DIMDLE
 40
0.0
  9
$DIMEXE
 40
0.125
  9
$DIMTP
 40
1.5
  9
$DIMTM
 40
1.5
  9
$DIMTXT
 40
1.5
  9
$DIMCEN
 40
0.09
  9
$DIMTSZ
 40
0.0
  9
$DIMTOL
 70
     0
  9
$DIMLIM
 70
     0
  9
$DIMTIH
 70
     1
  9
$DIMTOH
 70
     1
  9
$DIMSE1
 70
     0
  9
$DIMSE2
 70
     0
  9
$DIMTAD
 70
     0
  9
$DIMZIN
 70
     4
  9
$DIMBLK
  1

  9
$DIMASO
 70
     1
  9
$DIMSHO
 70
     1
  9
$DIMPOST
  1

  9
$DIMAPOST
  1

  9
$DIMALT
 70
     0
  9
$DIMALTD
 70
     2
  9
$DIMALTF
 40
25.3999999999999986
  9
$DIMLFAC
 40
1.0
  9
$DIMTOFL
 70
     0
  9
$DIMTVP
 40
0.0
  9
$DIMTIX
 70
     0
  9
$DIMSOXD
 70
     0
  9
$DIMSAH
 70
     0
  9
$DIMBLK1
  1

  9
$DIMBLK2
  1

  9
$DIMSTYLE
  2
STANDARD
  9
$DIMCLRD
 70
     0
  9
$DIMCLRE
 70
     0
  9
$DIMCLRT
 70
     0
  9
$DIMTFAC
 40
1.0
  9
$DIMGAP
 40
0.09
  9
$LUNITS
 70
     2
  9
$LUPREC
 70
     4
  9
$SKETCHINC
 40
0.1
  9
$FILLETRAD
 40
0.0
  9
$AUNITS
 70
     0
  9
$AUPREC
 70
     0
  9
$MENU
  1
.
  9
$ELEVATION
 40
0.0
  9
$PELEVATION
 40
0.0
  9
$THICKNESS
 40
0.0
  9
$LIMCHECK
 70
     0
  9
$BLIPMODE
 70
     0
  9
$CHAMFERA
 40
0.0
  9
$CHAMFERB
 40
0.0
  9
$SKPOLY
 70
     0
  9
$TDCREATE
 40
2457827.4934837957844138
  9
$TDUPDATE
 40
2459894.576851851772517
  9
$TDINDWG
 40
0.5092265046
  9
$TDUSRTIMER
 40
0.5092265046
  9
$USRTIMER
 70
     1
  9
$ANGBASE
 50
0.0
  9
$ANGDIR
 70
     0
  9
$PDMODE
 70
     0
  9
$PDSIZE
 40
0.3125
  9
$PLINEWID
 40
0.0
  9
$COORDS
 70
     1
  9
$SPLFRAME
 70
     0
  9
$SPLINETYPE
 70
     6
  9
$SPLINESEGS
 70
     8
  9
$ATTDIA
 70
     1
  9
$ATTREQ
 70
     1
  9
$HANDLING
 70
     1
  9
$HANDSEED
  5
69A9
  9
$SURFTAB1
 70
     6
  9
$SURFTAB2
 70
     6
  9
$SURFTYPE
 70
     6
  9
$SURFU
 70
     6
  9
$SURFV
 70
     6
  9
$UCSNAME
  2

  9
$UCSORG
 10
0.0
 20
0.0
 30
0.0
  9
$UCSXDIR
 10
1.0
 20
0.0
 30
0.0
  9
$UCSYDIR
 10
0.0
 20
1.0
 30
0.0
  9
$PUCSNAME
  2

  9
$PUCSORG
 10
0.0
 20
0.0
 30
0.0
  9
$PUCSXDIR
 10
1.0
 20
0.0
 30
0.0
  9
$PUCSYDIR
 10
0.0
 20
1.0
 30
0.0
  9
$USERI1
 70
     0
  9
$USERI2
 70
     0
  9
$USERI3
 70
     0
  9
$USERI4
 70
     0
  9
$USERI5
 70
     0
  9
$USERR1
 40
0.0
  9
$USERR2
 40
0.0
  9
$USERR3
 40
0.0
  9
$USERR4
 40
0.0
  9
$USERR5
 40
0.0
  9
$WORLDVIEW
 70
     1
  9
$SHADEDGE
 70
     3
  9
$SHADEDIF
 70
    70
  9
$TILEMODE
 70
     1
  9
$MAXACTVP
 70
    48
  9
$PLIMCHECK
 70
     0
  9
$PEXTMIN
 10
1.0000000000000000E+20
 20
1.0000000000000000E+20
 30
1.0000000000000000E+20
  9
$PEXTMAX
 10
-1.0000000000000000E+20
 20
-1.0000000000000000E+20
 30
-1.0000000000000000E+20
  9
$PLIMMIN
 10
0.0
 20
0.0
  9
$PLIMMAX
 10
12.0
 20
9.0
  9
$UNITMODE
 70
     0
  9
$VISRETAIN
 70
     1
  9
$PLINEGEN
 70
     0
  9
$PSLTSCALE
 70
     1
  0
ENDSEC
  0
SECTION
  2
TABLES
  0
TABLE
  2
VPORT
 70
     1
  0
VPORT
  2
*ACTIVE
 70
     0
 10
0.0
 20
0.0
 11
1.0
 21
1.0
 12
145.8418889209222868
 22
13.4281488361285195
 13
0.0
 23
0.0
 14
1.0
 24
1.0
 15
0.0
 25
0.0
 16
-0.0000000000000284
 26
0.0
 36
157.2215818301446859
 17
210.9789276123046875
 27
7.2024491855605604
 37
0.0
 40
0.0092633451693658
 41
2.498684210526315
 42
50.0
 43
0.0
 44
0.0
 50
0.0
 51
0.0
 71
     0
 72
   100
 73
     1
 74
     1
 75
     0
 76
     0
 77
     0
 78
     0
  0
ENDTAB
  0
TABLE
  2
LTYPE
 70
     2
  0
LTYPE
  2
CONTINUOUS
 70
     0
  3
Solid line
 72
    65
 73
     0
 40
0.0
  0
LTYPE
  2
PHANTOM2
 70
     0
  3
___ _ _ ___ _ _ ___ _ _ ___ _ _
 72
    65
 73
     6
 40
1.25
 49
0.625
 49
-0.125
 49
0.125
 49
-0.125
 49
0.125
 49
-0.125
  0
ENDTAB
  0
TABLE
  2
LAYER
 70
     2
  0
LAYER
  2
0
 70
     0
 62
     7
  6
CONTINUOUS
  0
LAYER
  2
DEFPOINTS
 70
     0
 62
     7
  6
CONTINUOUS
  0
ENDTAB
  0
TABLE
  2
STYLE
 70
     1
  0
STYLE
  2
STANDARD
 70
     0
 40
0.0
 41
0.8
 50
0.0
 71
     0
 42
0.2
  3
txt
  4

  0
ENDTAB
  0
TABLE
  2
VIEW
 70
     0
  0
ENDTAB
  0
TABLE
  2
UCS
 70
     0
  0
ENDTAB
  0
TABLE
  2
APPID
 70
     9
  0
APPID
  2
ACAD
 70
     0
  0
APPID
  2
ACAD_MLEADERVER
 70
     0
  0
APPID
  2
ACAD_EXEMPT_FROM_CAD_STANDARDS
 70
     0
  0
APPID
  2
ACAD_NAV_VCDISPLAY
 70
     0
  0
APPID
  2
ACADANNOMONITORALERTICONDI
 70
     0
  0
APPID
  2
ACAD_DSTYLE_DIMJAG
 70
     0
  0
APPID
  2
ACAD_DSTYLE_DIMTALN
 70
     0
  0
APPID
  2
ACDBATTR
 70
     0
  0
APPID
  2
DCO15
 70
     0
  0
ENDTAB
  0
TABLE
  2
DIMSTYLE
 70
     1
  0
DIMSTYLE
  2
STANDARD
 70
     0
  3

  4

  5

  6

  7

 40
1.0
 41
0.1875
 42
0.0625
 43
0.38
 44
0.125
 45
0.0
 46
0.0
 47
1.5
 48
1.5
140
1.5
141
0.09
142
0.0
143
25.3999999999999986
144
1.0
145
0.0
146
1.0
147
0.09
 71
     0
 72
     0
 73
     1
 74
     1
 75
     0
 76
     0
 77
     0
 78
     4
170
     0
171
     2
172
     0
173
     0
174
     0
175
     0
176
     0
177
     0
178
     0
  0
ENDTAB
  0
ENDSEC
  0
SECTION
  2
BLOCKS
  0
BLOCK
  8
0
  2
$MODEL_SPACE
 70
     0
 10
0.0
 20
0.0
 30
0.0
  3
$MODEL_SPACE
  1

  0
ENDBLK
  5
21
  8
0
  0
BLOCK
 67
     1
  8
0
  2
$PAPER_SPACE
 70
     0
 10
0.0
 20
0.0
 30
0.0
  3
$PAPER_SPACE
  1

  0
ENDBLK
  5
1D
 67
     1
  8
0
  0
BLOCK
  8
0
  2
_FILLED
 70
     0
 10
0.0
 20
0.0
 30
0.0
  3
_FILLED
  1

  0
SOLID
  5
6485
  8
0
  6
BYBLOCK
 62
     0
 10
0.0
 20
0.0
 30
0.0
 11
-1.0
 21
0.1666666667
 31
0.0
 12
-1.0
 22
-0.1666666667
 32
0.0
 13
-1.0
 23
-0.1666666667
 33
0.0
  0
ENDBLK
  5
6486
  8
0
  6
BYBLOCK
 62
     0
  0
ENDSEC
  0
SECTION
  2
ENTITIES
  0
ATTDEF
  5
4EF9
  8
DEFPOINTS
 10
356.8190624534062181
 20
20.6348376196521883
 30
0.0
 40
0.001
  1
K-78021T-B9
  3

  2
MODELNUMBER
 70
     0
1001
ACDBATTR
1070
     0
1070
     1
  0
ATTDEF
  5
4EFA
  8
DEFPOINTS
 10
356.8190624534062181
 20
20.6331709529855196
 30
0.0
 40
0.001
  1
MODULO
  3

  2
TRADENAME
 70
     0
1001
ACDBATTR
1070
     0
1070
     1
  0
ATTDEF
  5
4EFB
  8
DEFPOINTS
 10
356.8190624534062181
 20
20.6315042863188403
 30
0.0
 40
0.001
  1
VALVE TRIM
  3

  2
PRODUCT
 70
     0
1001
ACDBATTR
1070
     0
1070
     1
  0
ARC
  5
6844
  8
0
 10
356.8216774797638209
 20
20.6307454761710503
 30
0.0
 40
3.543307086599881
 50
279.1182077267257
 51
260.8817922732744137
  0
CIRCLE
  5
6845
  8
0
 10
356.8216774797638209
 20
22.1464935076711384
 30
0.0
 40
0.4921259842999995
  0
CIRCLE
  5
6846
  8
0
 10
356.8216774797638209
 20
22.1464935076711384
 30
0.0
 40
0.5118110236
  0
ARC
  5
6847
  8
0
 10
356.8216774797638209
 20
19.587438389571151
 30
0.0
 40
0.9940944882
 50
224.2064875189080908
 51
270.0
  0
ARC
  5
6848
  8
0
 10
356.821717503763125
 20
19.5874528869709188
 30
0.0
 40
0.9645710086134831
 50
222.3695275634154029
 51
269.9976225635820128
  0
LINE
  5
684A
  8
0
 10
356.7107456191810115
 20
20.5762668710711516
 30
0.0
 11
356.4930573092503892
 21
20.5265809349506583
 31
0.0
  0
LINE
  5
684B
  8
0
 10
356.4930573092503892
 20
20.5265809349506583
 30
0.0
 11
356.2923176272191199
 21
20.4299097990968797
 31
0.0
  0
LINE
  5
684C
  8
0
 10
356.2923176272191199
 20
20.4299097990968797
 30
0.0
 11
356.1181222594893825
 21
20.2909936287854116
 31
0.0
  0
LINE
  5
684D
  8
0
 10
356.1181222594893825
 20
20.2909936287854116
 30
0.0
 11
355.9792060893548751
 21
20.1167982611767293
 31
0.0
  0
LINE
  5
684E
  8
0
 10
355.9792060893548751
 20
20.1167982611767293
 30
0.0
 11
355.8825349534102997
 21
19.9160585790146705
 31
0.0
  0
LINE
  5
684F
  8
0
 10
355.8825349534102997
 20
19.9160585790146705
 30
0.0
 11
355.8328490172636975
 21
19.6983702692857108
 31
0.0
  0
LINE
  5
6850
  8
0
 10
355.8328490172636975
 20
17.9017033172291491
 30
0.0
 11
355.882534953502784
 21
17.6840150504210705
 31
0.0
  0
LINE
  5
6851
  8
0
 10
355.882534953502784
 20
17.6840150504210705
 30
0.0
 11
355.979206089374884
 21
17.4832753683403084
 31
0.0
  0
LINE
  5
6852
  8
0
 10
355.979206089374884
 20
17.4832753683403084
 30
0.0
 11
356.1181222594893825
 21
17.3090800007569108
 31
0.0
  0
LINE
  5
6853
  8
0
 10
356.1181222594893825
 20
17.3090800007569108
 30
0.0
 11
356.2923176272568071
 21
17.1701638304599591
 31
0.0
  0
LINE
  5
6854
  8
0
 10
356.2923176272568071
 20
17.1701638304599591
 30
0.0
 11
356.4930573092698864
 21
17.0734926946885714
 31
0.0
  0
LINE
  5
6855
  8
0
 10
356.4930573092698864
 20
17.0734926946885714
 30
0.0
 11
356.710745245989699
 21
17.0238068435711405
 31
0.0
  0
ARC
  5
6856
  8
0
 10
356.8216774987636768
 20
19.5874383895711404
 30
0.0
 40
0.9703325437000017
 50
90.0000011219034661
 51
105.176401041918794
  0
ARC
  5
6857
  8
0
 10
356.8216774987636768
 20
19.587438389571151
 30
0.0
 40
0.9703325436999882
 50
105.176401041918794
 51
121.1552335927767956
  0
ARC
  5
6858
  8
0
 10
356.8216774987636768
 20
19.5874383895711297
 30
0.0
 40
0.9703325437000122
 50
121.1552335927767956
 51
147.7487464214337081
  0
ARC
  5
6859
  8
0
 10
356.8216774987636768
 20
19.587438389571151
 30
0.0
 40
0.9703325436999735
 50
147.7487464214337081
 51
161.9424451413975135
  0
ARC
  5
685A
  8
0
 10
356.8522307022781206
 20
19.5825835056443083
 30
0.0
 40
1.0008975216648399
 50
162.2203611555572138
 51
179.722083985840186
  0
LINE
  5
685B
  8
0
 10
355.8513449550637802
 20
19.587438389571151
 30
0.0
 11
355.8513449613922148
 21
18.012635239915209
 31
0.0
  0
ARC
  5
685C
  8
0
 10
356.8216787433879063
 20
18.0126352438145787
 30
0.0
 40
0.9703337819957381
 50
180.0000002302477924
 51
185.9599500818954141
  0
ARC
  5
685D
  8
0
 10
356.8216765671085113
 20
18.0126350166163114
 30
0.0
 40
0.9703315938889649
 50
185.9599500818954141
 51
201.0033219645769975
  0
ARC
  5
685E
  8
0
 10
356.8216782972069154
 20
18.0126356808539398
 30
0.0
 40
0.9703334471164176
 50
201.0033219645769975
 51
216.8097121336905104
  0
ARC
  5
685F
  8
0
 10
356.8216769901501948
 20
18.0126347027050109
 30
0.0
 40
0.9703318145807982
 50
216.8097121336903967
 51
236.3288160981969099
  0
ARC
  5
6860
  8
0
 10
356.8216778559623208
 20
18.0126360023510905
 30
0.0
 40
0.9703333762179532
 50
236.3288160981969099
 51
253.462096676447004
  0
ARC
  5
6861
  8
0
 10
356.8216773733531113
 20
18.0126343770387791
 30
0.0
 40
0.9703316807676452
 50
253.4620966764468903
 51
270.0000062832958179
  0
ARC
  5
6862
  8
0
 10
356.8328408874344859
 20
20.0439609644779217
 30
0.0
 40
0.3147440028607521
 50
92.0326052926946687
 51
116.8791620153832014
  0
ARC
  5
6863
  8
0
 10
359.3080068733312942
 20
15.1607414289373299
 30
0.0
 40
5.7894384865763371
 50
116.8791620153832014
 51
119.0811102704251994
  0
ARC
  5
6864
  8
0
 10
356.9174505805088984
 20
19.4590575602993106
 30
0.0
 40
0.8710768737748281
 50
119.0811102704251994
 51
134.2535921020538012
  0
ARC
  5
6865
  8
0
 10
356.7380659488583206
 20
19.6431779397362689
 30
0.0
 40
0.6140182030468431
 50
134.2535921020538865
 51
158.3676800628267927
  0
ARC
  5
6866
  8
0
 10
356.9403889595691908
 20
19.5629405445880913
 30
0.0
 40
0.8316707707856515
 50
158.3676800628269064
 51
178.3120409748794941
  0
LINE
  5
6867
  8
0
 10
356.1090790735636915
 20
19.587438389571151
 30
0.0
 11
356.1090790735636915
 21
18.0126352399711394
 31
0.0
  0
ARC
  5
6868
  8
0
 10
356.8216774987636768
 20
18.0126352399711394
 30
0.0
 40
0.7125984252000006
 50
180.0
 51
221.9767758128843127
  0
ARC
  5
6869
  8
0
 10
356.8216774987636768
 20
18.0126352399711394
 30
0.0
 40
0.7125984251999988
 50
221.9767758128843127
 51
250.3259875078711048
  0
ARC
  5
686A
  8
0
 10
356.8216774987636768
 20
18.0126352399711394
 30
0.0
 40
0.7125984252000021
 50
250.3259875078711048
 51
269.99999847232408
  0
ARC
  5
686B
  8
0
 10
356.5318333949321072
 20
20.1119581131213501
 30
0.0
 40
0.1143371722824388
 50
86.3287017688247431
 51
110.4886099455112998
  0
ARC
  5
686C
  8
0
 10
356.5302544289564821
 20
20.0873498592446893
 30
0.0
 40
0.138996030577376
 50
60.0384648688159572
 51
86.3287017688247431
  0
ARC
  5
686D
  8
0
 10
356.531177021374674
 20
20.090034581696699
 30
0.0
 40
0.1362104087337014
 50
39.4416577207819685
 51
59.8106859158880582
  0
ARC
  5
686E
  8
0
 10
356.5503282965602807
 20
20.1027767477201884
 30
0.0
 40
0.1133492920364869
 50
2.0597687478432238
 51
40.6176070016776478
  0
LINE
  5
686F
  8
0
 10
356.64440741689981
 20
19.9360835296582302
 30
0.0
 11
356.6636043510637819
 21
20.1068507483711407
 31
0.0
  0
ARC
  5
6870
  8
0
 10
356.5481420401246737
 20
19.9461718214432686
 30
0.0
 40
0.0967925430845248
 50
307.5494979899348778
 51
354.0174296969531724
  0
CIRCLE
  5
6871
  8
0
 10
356.8216774987636768
 20
19.587438389571151
 30
0.0
 40
0.3543306894
  0
LINE
  5
6872
  8
0
 10
356.2601630706894866
 20
17.1322134013786602
 30
0.0
 11
356.2704963773638269
 21
17.1410315735711514
 31
0.0
  0
LINE
  5
6873
  8
0
 10
356.2704963773638269
 20
17.1410315735711514
 30
0.0
 11
356.3865579572390061
 21
17.1247800795070084
 31
0.0
  0
ARC
  5
6874
  8
0
 10
356.8216774797638209
 20
19.587438389571151
 30
0.0
 40
0.9940944882
 50
270.0
 51
315.7935124810919092
  0
ARC
  5
6875
  8
0
 10
356.8216374557644031
 20
19.5874528869709188
 30
0.0
 40
0.9645710086134831
 50
270.0023774364179872
 51
317.6304724365845118
  0
LINE
  5
6876
  8
0
 10
356.9326093403465165
 20
20.5762668710711516
 30
0.0
 11
357.1502976502771958
 21
20.5265809349506583
 31
0.0
  0
LINE
  5
6877
  8
0
 10
357.1502976502771958
 20
20.5265809349506583
 30
0.0
 11
357.3510373323084082
 21
20.4299097990968797
 31
0.0
  0
LINE
  5
6878
  8
0
 10
357.3510373323084082
 20
20.4299097990968797
 30
0.0
 11
357.5252327000380888
 21
20.2909936287854116
 31
0.0
  0
LINE
  5
6879
  8
0
 10
357.5252327000380888
 20
20.2909936287854116
 30
0.0
 11
357.6641488701727098
 21
20.1167982611767293
 31
0.0
  0
LINE
  5
687A
  8
0
 10
357.6641488701727098
 20
20.1167982611767293
 30
0.0
 11
357.7608200061172852
 21
19.9160585790146705
 31
0.0
  0
LINE
  5
687B
  8
0
 10
357.7608200061172852
 20
19.9160585790146705
 30
0.0
 11
357.8105059422637737
 21
19.6983702692857108
 31
0.0
  0
LINE
  5
687C
  8
0
 10
357.8105059422637737
 20
17.9017033172291491
 30
0.0
 11
357.7608200060246872
 21
17.6840150504210705
 31
0.0
  0
LINE
  5
687D
  8
0
 10
357.7608200060246872
 20
17.6840150504210705
 30
0.0
 11
357.6641488701525873
 21
17.4832753683403084
 31
0.0
  0
LINE
  5
687E
  8
0
 10
357.6641488701525873
 20
17.4832753683403084
 30
0.0
 11
357.5252327000380888
 21
17.3090800007569108
 31
0.0
  0
LINE
  5
687F
  8
0
 10
357.5252327000380888
 20
17.3090800007569108
 30
0.0
 11
357.3510373322707778
 21
17.1701638304599591
 31
0.0
  0
LINE
  5
6880
  8
0
 10
357.3510373322707778
 20
17.1701638304599591
 30
0.0
 11
357.1502976502575848
 21
17.0734926946885714
 31
0.0
  0
LINE
  5
6881
  8
0
 10
357.1502976502575848
 20
17.0734926946885714
 30
0.0
 11
356.9326097135378859
 21
17.0238068435711405
 31
0.0
  0
ARC
  5
6882
  8
0
 10
356.8216774607637944
 20
19.5874383895711404
 30
0.0
 40
0.9703325437000017
 50
74.8235989580811918
 51
89.9999988780965339
  0
ARC
  5
6883
  8
0
 10
356.8216774607637944
 20
19.587438389571151
 30
0.0
 40
0.9703325436999882
 50
58.8447664072231973
 51
74.8235989580811918
  0
ARC
  5
6884
  8
0
 10
356.8216774607637944
 20
19.5874383895711297
 30
0.0
 40
0.9703325437000122
 50
32.2512535785662493
 51
58.8447664072232399
  0
ARC
  5
6885
  8
0
 10
356.8216774607637944
 20
19.587438389571151
 30
0.0
 40
0.9703325436999735
 50
18.057554858602451
 51
32.2512535785662493
  0
ARC
  5
6886
  8
0
 10
356.7911242572494075
 20
19.5825835056443083
 30
0.0
 40
1.0008975216648399
 50
0.277916014159732
 51
17.7796388444427507
  0
LINE
  5
6887
  8
0
 10
357.7920100044638048
 20
19.587438389571151
 30
0.0
 11
357.7920099981353133
 21
18.012635239915209
 31
0.0
  0
ARC
  5
6888
  8
0
 10
356.8216762161395081
 20
18.0126352438145787
 30
0.0
 40
0.9703337819957381
 50
354.0400499181045006
 51
359.9999997697520939
  0
ARC
  5
6889
  8
0
 10
356.8216783924190167
 20
18.0126350166163114
 30
0.0
 40
0.9703315938889649
 50
338.9966780354229741
 51
354.0400499181045006
  0
ARC
  5
688A
  8
0
 10
356.8216766623206126
 20
18.0126356808539398
 30
0.0
 40
0.9703334471164176
 50
323.190287866309518
 51
338.9966780354229741
  0
ARC
  5
688B
  8
0
 10
356.8216779693772764
 20
18.0126347027050109
 30
0.0
 40
0.9703318145807982
 50
303.6711839018030901
 51
323.1902878663095748
  0
ARC
  5
688C
  8
0
 10
356.8216771035650936
 20
18.0126360023510905
 30
0.0
 40
0.9703333762179532
 50
286.5379033235531097
 51
303.6711839018030901
  0
ARC
  5
688D
  8
0
 10
356.8216775861744168
 20
18.0126343770387791
 30
0.0
 40
0.9703316807676452
 50
269.9999937167041821
 51
286.5379033235531097
  0
ARC
  5
688E
  8
0
 10
356.8105140720929853
 20
20.0439609644779217
 30
0.0
 40
0.3147440028607521
 50
63.1208379846167418
 51
87.9673947073053455
  0
ARC
  5
688F
  8
0
 10
354.3353480861961771
 20
15.1607414289373299
 30
0.0
 40
5.7894384865763371
 50
60.9188897295748433
 51
63.1208379846167773
  0
ARC
  5
6890
  8
0
 10
356.7259043790185729
 20
19.4590575602993106
 30
0.0
 40
0.8710768737748281
 50
45.7464078979461419
 51
60.9188897295748433
  0
ARC
  5
6891
  8
0
 10
356.9052890106692075
 20
19.6431779397362689
 30
0.0
 40
0.6140182030468431
 50
21.6323199371732002
 51
45.7464078979460709
  0
ARC
  5
6892
  8
0
 10
356.7029659999582805
 20
19.5629405445880913
 30
0.0
 40
0.8316707707856515
 50
1.687959025120473
 51
21.6323199371731008
  0
LINE
  5
6893
  8
0
 10
357.5342758859637229
 20
19.587438389571151
 30
0.0
 11
357.5342758859637229
 21
18.0126352399711394
 31
0.0
  0
ARC
  5
6894
  8
0
 10
356.8216774607637944
 20
18.0126352399711394
 30
0.0
 40
0.7125984252000006
 50
318.0232241871157157
 51
359.9999999999998863
  0
ARC
  5
6895
  8
0
 10
356.8216774607637944
 20
18.0126352399711394
 30
0.0
 40
0.7125984251999988
 50
289.6740124921288952
 51
318.0232241871157157
  0
ARC
  5
6896
  8
0
 10
356.8216774607637944
 20
18.0126352399711394
 30
0.0
 40
0.7125984252000021
 50
270.00000152767592
 51
289.6740124921290089
  0
ARC
  5
6897
  8
0
 10
357.1115215645954777
 20
20.1119581131213501
 30
0.0
 40
0.1143371722824388
 50
69.5113900544886434
 51
93.6712982311752427
  0
ARC
  5
6898
  8
0
 10
357.1131005305709891
 20
20.0873498592446893
 30
0.0
 40
0.138996030577376
 50
93.6712982311752427
 51
119.961535131183993
  0
ARC
  5
6899
  8
0
 10
357.1121779381527972
 20
20.090034581696699
 30
0.0
 40
0.1362104087337014
 50
120.1893140841118992
 51
140.5583422792180102
  0
ARC
  5
689A
  8
0
 10
357.0930266629671905
 20
20.1027767477201884
 30
0.0
 40
0.1133492920364869
 50
139.3823929983223024
 51
177.9402312521567922
  0
LINE
  5
689B
  8
0
 10
356.998947542627775
 20
19.9360835296582302
 30
0.0
 11
356.979750608463803
 21
20.1068507483711407
 31
0.0
  0
ARC
  5
689C
  8
0
 10
357.0952129194027975
 20
19.9461718214432686
 30
0.0
 40
0.0967925430845248
 50
185.9825703030466002
 51
232.4505020100650938
  0
CIRCLE
  5
689D
  8
0
 10
356.8216774607637944
 20
19.587438389571151
 30
0.0
 40
0.3543306894
  0
LINE
  5
689E
  8
0
 10
357.3831918888379278
 20
17.1322134013786602
 30
0.0
 11
357.3728585821637012
 21
17.1410315735711514
 31
0.0
  0
LINE
  5
689F
  8
0
 10
357.3728585821637012
 20
17.1410315735711514
 30
0.0
 11
357.2567970022884083
 21
17.1247800795070084
 31
0.0
  0
LINE
  5
68A0
  8
0
 10
356.710745245989699
 20
17.0238068435711405
 30
0.0
 11
356.9326097135378859
 21
17.0238068435711405
 31
0.0
  0
LINE
  5
68A1
  8
0
 10
356.7107456191810115
 20
20.5762668710711516
 30
0.0
 11
356.9326093403465165
 21
20.5762668710711516
 31
0.0
  0
LINE
  5
68A2
  8
0
 10
355.8328490172636975
 20
19.6983702692857108
 30
0.0
 11
355.8328490172636975
 21
17.9017033172291491
 31
0.0
  0
LINE
  5
68A3
  8
0
 10
357.8105059422637737
 20
19.6983702692857108
 30
0.0
 11
357.8105059422637737
 21
17.9017033172291491
 31
0.0
  0
ENDSEC
  0
EOF
