  0
SECTION
  2
HEADER
  9
$ACADVER
  1
AC1009
  9
$INSBASE
 10
363.9616043499348166
 20
23.5674076696212893
 30
0.0
  9
$EXTMIN
 10
349.9479351715770008
 20
19.1422108192212903
 30
0.0
  9
$EXTMAX
 10
377.2942033851605856
 20
36.6420936491219607
 30
0.0
  9
$LIMMIN
 10
0.0
 20
0.0
  9
$LIMMAX
 10
22.0
 20
17.0
  9
$ORTHOMODE
 70
     0
  9
$REGENMODE
 70
     1
  9
$FILLMODE
 70
     1
  9
$QTEXTMODE
 70
     0
  9
$MIRRTEXT
 70
     0
  9
$DRAGMODE
 70
     2
  9
$LTSCALE
 40
1.2099999999999991
  9
$OSMODE
 70
  4095
  9
$ATTMODE
 70
     1
  9
$TEXTSIZE
 40
0.2
  9
$TRACEWID
 40
0.05
  9
$TEXTSTYLE
  7
STANDARD
  9
$CLAYER
  8
0
  9
$CELTYPE
  6
BYLAYER
  9
$CECOLOR
 62
   256
  9
$DIMSCALE
 40
1.0
  9
$DIMASZ
 40
0.1875
  9
$DIMEXO
 40
0.0625
  9
$DIMDLI
 40
0.38
  9
$DIMRND
 40
0.0
  9
$DIMDLE
 40
0.0
  9
$DIMEXE
 40
0.125
  9
$DIMTP
 40
1.5
  9
$DIMTM
 40
1.5
  9
$DIMTXT
 40
1.5
  9
$DIMCEN
 40
0.09
  9
$DIMTSZ
 40
0.0
  9
$DIMTOL
 70
     0
  9
$DIMLIM
 70
     0
  9
$DIMTIH
 70
     1
  9
$DIMTOH
 70
     1
  9
$DIMSE1
 70
     0
  9
$DIMSE2
 70
     0
  9
$DIMTAD
 70
     0
  9
$DIMZIN
 70
     4
  9
$DIMBLK
  1

  9
$DIMASO
 70
     1
  9
$DIMSHO
 70
     1
  9
$DIMPOST
  1

  9
$DIMAPOST
  1

  9
$DIMALT
 70
     0
  9
$DIMALTD
 70
     2
  9
$DIMALTF
 40
25.3999999999999986
  9
$DIMLFAC
 40
1.0
  9
$DIMTOFL
 70
     0
  9
$DIMTVP
 40
0.0
  9
$DIMTIX
 70
     0
  9
$DIMSOXD
 70
     0
  9
$DIMSAH
 70
     0
  9
$DIMBLK1
  1

  9
$DIMBLK2
  1

  9
$DIMSTYLE
  2
STANDARD
  9
$DIMCLRD
 70
     0
  9
$DIMCLRE
 70
     0
  9
$DIMCLRT
 70
     0
  9
$DIMTFAC
 40
1.0
  9
$DIMGAP
 40
0.09
  9
$LUNITS
 70
     2
  9
$LUPREC
 70
     4
  9
$SKETCHINC
 40
0.1
  9
$FILLETRAD
 40
0.0
  9
$AUNITS
 70
     0
  9
$AUPREC
 70
     0
  9
$MENU
  1
.
  9
$ELEVATION
 40
0.0
  9
$PELEVATION
 40
0.0
  9
$THICKNESS
 40
0.0
  9
$LIMCHECK
 70
     0
  9
$BLIPMODE
 70
     0
  9
$CHAMFERA
 40
0.0
  9
$CHAMFERB
 40
0.0
  9
$SKPOLY
 70
     0
  9
$TDCREATE
 40
2457827.4934837957844138
  9
$TDUPDATE
 40
2459894.5767592592164874
  9
$TDINDWG
 40
0.5085320602
  9
$TDUSRTIMER
 40
0.5085320602
  9
$USRTIMER
 70
     1
  9
$ANGBASE
 50
0.0
  9
$ANGDIR
 70
     0
  9
$PDMODE
 70
     0
  9
$PDSIZE
 40
0.3125
  9
$PLINEWID
 40
0.0
  9
$COORDS
 70
     1
  9
$SPLFRAME
 70
     0
  9
$SPLINETYPE
 70
     6
  9
$SPLINESEGS
 70
     8
  9
$ATTDIA
 70
     1
  9
$ATTREQ
 70
     1
  9
$HANDLING
 70
     1
  9
$HANDSEED
  5
6CD8
  9
$SURFTAB1
 70
     6
  9
$SURFTAB2
 70
     6
  9
$SURFTYPE
 70
     6
  9
$SURFU
 70
     6
  9
$SURFV
 70
     6
  9
$UCSNAME
  2

  9
$UCSORG
 10
0.0
 20
0.0
 30
0.0
  9
$UCSXDIR
 10
1.0
 20
0.0
 30
0.0
  9
$UCSYDIR
 10
0.0
 20
1.0
 30
0.0
  9
$PUCSNAME
  2

  9
$PUCSORG
 10
0.0
 20
0.0
 30
0.0
  9
$PUCSXDIR
 10
1.0
 20
0.0
 30
0.0
  9
$PUCSYDIR
 10
0.0
 20
1.0
 30
0.0
  9
$USERI1
 70
     0
  9
$USERI2
 70
     0
  9
$USERI3
 70
     0
  9
$USERI4
 70
     0
  9
$USERI5
 70
     0
  9
$USERR1
 40
0.0
  9
$USERR2
 40
0.0
  9
$USERR3
 40
0.0
  9
$USERR4
 40
0.0
  9
$USERR5
 40
0.0
  9
$WORLDVIEW
 70
     1
  9
$SHADEDGE
 70
     3
  9
$SHADEDIF
 70
    70
  9
$TILEMODE
 70
     1
  9
$MAXACTVP
 70
    48
  9
$PLIMCHECK
 70
     0
  9
$PEXTMIN
 10
1.0000000000000000E+20
 20
1.0000000000000000E+20
 30
1.0000000000000000E+20
  9
$PEXTMAX
 10
-1.0000000000000000E+20
 20
-1.0000000000000000E+20
 30
-1.0000000000000000E+20
  9
$PLIMMIN
 10
0.0
 20
0.0
  9
$PLIMMAX
 10
12.0
 20
9.0
  9
$UNITMODE
 70
     0
  9
$VISRETAIN
 70
     1
  9
$PLINEGEN
 70
     0
  9
$PSLTSCALE
 70
     1
  0
ENDSEC
  0
SECTION
  2
TABLES
  0
TABLE
  2
VPORT
 70
     1
  0
VPORT
  2
*ACTIVE
 70
     0
 10
0.0
 20
0.0
 11
1.0
 21
1.0
 12
152.9842374124856974
 22
16.3640368896592712
 13
0.0
 23
0.0
 14
1.0
 24
1.0
 15
0.0
 25
0.0
 16
-0.0000000000000284
 26
0.0
 36
157.2215818301446859
 17
210.9789276123046875
 27
7.2024491855605604
 37
0.0
 40
0.017360091862372
 41
2.498684210526315
 42
50.0
 43
0.0
 44
0.0
 50
0.0
 51
0.0
 71
     0
 72
   100
 73
     1
 74
     1
 75
     0
 76
     0
 77
     0
 78
     0
  0
ENDTAB
  0
TABLE
  2
LTYPE
 70
     2
  0
LTYPE
  2
CONTINUOUS
 70
     0
  3
Solid line
 72
    65
 73
     0
 40
0.0
  0
LTYPE
  2
PHANTOM2
 70
     0
  3
___ _ _ ___ _ _ ___ _ _ ___ _ _
 72
    65
 73
     6
 40
1.25
 49
0.625
 49
-0.125
 49
0.125
 49
-0.125
 49
0.125
 49
-0.125
  0
ENDTAB
  0
TABLE
  2
LAYER
 70
     2
  0
LAYER
  2
0
 70
     0
 62
     7
  6
CONTINUOUS
  0
LAYER
  2
DEFPOINTS
 70
     0
 62
     7
  6
CONTINUOUS
  0
ENDTAB
  0
TABLE
  2
STYLE
 70
     1
  0
STYLE
  2
STANDARD
 70
     0
 40
0.0
 41
0.8
 50
0.0
 71
     0
 42
0.2
  3
txt
  4

  0
ENDTAB
  0
TABLE
  2
VIEW
 70
     0
  0
ENDTAB
  0
TABLE
  2
UCS
 70
     0
  0
ENDTAB
  0
TABLE
  2
APPID
 70
     9
  0
APPID
  2
ACAD
 70
     0
  0
APPID
  2
ACAD_MLEADERVER
 70
     0
  0
APPID
  2
ACAD_EXEMPT_FROM_CAD_STANDARDS
 70
     0
  0
APPID
  2
ACAD_NAV_VCDISPLAY
 70
     0
  0
APPID
  2
ACADANNOMONITORALERTICONDI
 70
     0
  0
APPID
  2
ACAD_DSTYLE_DIMJAG
 70
     0
  0
APPID
  2
ACAD_DSTYLE_DIMTALN
 70
     0
  0
APPID
  2
ACDBATTR
 70
     0
  0
APPID
  2
DCO15
 70
     0
  0
ENDTAB
  0
TABLE
  2
DIMSTYLE
 70
     1
  0
DIMSTYLE
  2
STANDARD
 70
     0
  3

  4

  5

  6

  7

 40
1.0
 41
0.1875
 42
0.0625
 43
0.38
 44
0.125
 45
0.0
 46
0.0
 47
1.5
 48
1.5
140
1.5
141
0.09
142
0.0
143
25.3999999999999986
144
1.0
145
0.0
146
1.0
147
0.09
 71
     0
 72
     0
 73
     1
 74
     1
 75
     0
 76
     0
 77
     0
 78
     4
170
     0
171
     2
172
     0
173
     0
174
     0
175
     0
176
     0
177
     0
178
     0
  0
ENDTAB
  0
ENDSEC
  0
SECTION
  2
BLOCKS
  0
BLOCK
  8
0
  2
$MODEL_SPACE
 70
     0
 10
0.0
 20
0.0
 30
0.0
  3
$MODEL_SPACE
  1

  0
ENDBLK
  5
21
  8
0
  0
BLOCK
 67
     1
  8
0
  2
$PAPER_SPACE
 70
     0
 10
0.0
 20
0.0
 30
0.0
  3
$PAPER_SPACE
  1

  0
ENDBLK
  5
1D
 67
     1
  8
0
  0
BLOCK
  8
0
  2
_FILLED
 70
     0
 10
0.0
 20
0.0
 30
0.0
  3
_FILLED
  1

  0
SOLID
  5
6485
  8
0
  6
BYBLOCK
 62
     0
 10
0.0
 20
0.0
 30
0.0
 11
-1.0
 21
0.1666666667
 31
0.0
 12
-1.0
 22
-0.1666666667
 32
0.0
 13
-1.0
 23
-0.1666666667
 33
0.0
  0
ENDBLK
  5
6486
  8
0
  6
BYBLOCK
 62
     0
  0
ENDSEC
  0
SECTION
  2
ENTITIES
  0
ATTDEF
  5
4EF9
  8
DEFPOINTS
 10
363.9536799721972784
 20
23.5712743190858482
 30
0.0
 40
0.001
  1
K-78021T-B9
  3

  2
MODELNUMBER
 70
     0
1001
ACDBATTR
1070
     0
1070
     1
  0
ATTDEF
  5
4EFA
  8
DEFPOINTS
 10
363.9536799721972784
 20
23.5696076524191689
 30
0.0
 40
0.001
  1
MODULO
  3

  2
TRADENAME
 70
     0
1001
ACDBATTR
1070
     0
1070
     1
  0
ATTDEF
  5
4EFB
  8
DEFPOINTS
 10
363.9536799721972784
 20
23.5679409857525002
 30
0.0
 40
0.001
  1
VALVE TRIM
  3

  2
PRODUCT
 70
     0
1001
ACDBATTR
1070
     0
1070
     1
  0
LINE
  5
6B79
  8
0
 10
367.5049114365345986
 20
23.5674076696212893
 30
0.0
 11
360.4182972633349209
 21
23.5674076696212893
 31
0.0
  0
LINE
  5
6B7A
  8
0
 10
362.9970374736341796
 20
23.0162265673212794
 30
0.0
 11
362.9970374736341796
 21
21.9217793232213083
 31
0.0
  0
LINE
  5
6B7B
  8
0
 10
363.0088484972341121
 20
21.8941793232213087
 30
0.0
 11
363.5239158340585846
 21
21.8941793232213087
 31
0.0
  0
ARC
  5
6B7C
  8
0
 10
363.0246374736341863
 20
21.9217793232213083
 30
0.0
 40
0.0276
 50
180.0
 51
270.0
  0
ARC
  5
6B7D
  8
0
 10
363.9616044027341104
 20
27.6146517642192499
 30
0.0
 40
6.1614173227979618
 50
265.7508018600568107
 51
270.0
  0
LINE
  5
6B7E
  8
0
 10
363.4930781005135145
 20
22.0792186933212911
 30
0.0
 11
364.4302535933803142
 21
22.0792186933212911
 31
0.0
  0
ARC
  5
6B7F
  8
0
 10
363.4930781005135145
 20
22.0989186933212913
 30
0.0
 40
0.0197
 50
180.3534680901645118
 51
270.0
  0
ARC
  5
6B80
  8
0
 10
364.4302535933803142
 20
22.0989186933212913
 30
0.0
 40
0.0197
 50
270.0
 51
359.6492138974539898
  0
LINE
  5
6B81
  8
0
 10
364.3553052157892012
 20
21.9881675879212608
 30
0.0
 11
363.5679036153339894
 21
21.9881675879212608
 31
0.0
  0
LINE
  5
6B82
  8
0
 10
363.5679036153339894
 20
21.9881675879212608
 30
0.0
 11
363.5084044092018871
 21
21.9860898299289396
 31
0.0
  0
ARC
  5
6B83
  8
0
 10
363.9616043933909282
 20
27.6146517642192499
 30
0.0
 40
6.1614173227979618
 50
270.0000001186550094
 51
274.2509079670700203
  0
LINE
  5
6B84
  8
0
 10
367.5049114365345986
 20
23.5674076696212893
 30
0.0
 11
367.4598481191436008
 21
23.0521653176213199
 31
0.0
  0
ARC
  5
6B85
  8
0
 10
367.420627855421003
 20
23.0555966460798984
 30
0.0
 40
0.0393700787586257
 50
270.0000000328814735
 51
354.9999999965157826
  0
LINE
  5
6B86
  8
0
 10
367.4206278554437972
 20
23.0162265673212794
 30
0.0
 11
360.5025808444257223
 21
23.0162265633521308
 31
0.0
  0
ARC
  5
6B87
  8
0
 10
360.5025808444033828
 20
23.0555966416485703
 30
0.0
 40
0.039370078296388
 50
184.9999936636671123
 51
270.0000000328814735
  0
LINE
  5
6B88
  8
0
 10
360.4633605807616732
 20
23.0521653175699299
 30
0.0
 11
360.4182972633349209
 21
23.5674076696212893
 31
0.0
  0
ARC
  5
6B89
  8
0
 10
363.0088484972341121
 20
21.8823682996213194
 30
0.0
 40
0.0118110235999982
 50
90.0
 51
180.0000000000098055
  0
LINE
  5
6B8A
  8
0
 10
362.9970374736341796
 20
21.8823682996213194
 30
0.0
 11
362.9970374736341796
 21
20.882368299621259
 31
0.0
  0
ARC
  5
6B8B
  8
0
 10
363.0088484973342133
 20
20.8823682996213194
 30
0.0
 40
0.0118110237000009
 50
180.0000000000032117
 51
269.9999995141504883
  0
LINE
  5
6B8C
  8
0
 10
363.0088484972341121
 20
20.8705572759212892
 30
0.0
 11
364.9143603082346203
 21
20.8705572597636007
 31
0.0
  0
ARC
  5
6B8D
  8
0
 10
364.9143603083351195
 20
20.8823682832628599
 30
0.0
 40
0.0118110234992415
 50
269.9999995141504883
 51
0.0000793555611103
  0
ARC
  5
6B8E
  8
0
 10
364.9143579269436941
 20
21.882365918330791
 30
0.0
 40
0.0118134051305221
 50
0.0115494085586756
 51
89.9884505867709379
  0
LINE
  5
6B8F
  8
0
 10
364.9143603082287086
 20
21.8941793232213087
 30
0.0
 11
364.3994158606133169
 21
21.8941793239991185
 31
0.0
  0
ARC
  5
6B90
  8
0
 10
364.8985713318339776
 20
21.9217793232451506
 30
0.0
 40
0.0276
 50
269.9999999134547011
 51
0.0
  0
LINE
  5
6B91
  8
0
 10
363.0167225129341091
 20
20.8705572758545514
 30
0.0
 11
363.0167225129341091
 21
20.8607147562212987
 31
0.0
  0
LINE
  5
6B92
  8
0
 10
363.0167225129341091
 20
20.8607147562212987
 30
0.0
 11
364.9064827783724922
 21
20.860710358892689
 31
0.0
  0
LINE
  5
6B93
  8
0
 10
364.9064827783724922
 20
20.860710358892689
 30
0.0
 11
364.9064827783724922
 21
20.8705572598303917
 31
0.0
  0
ARC
  5
6B94
  8
0
 10
363.7857796886357846
 20
21.4753258431719694
 30
0.0
 40
0.9844773881105403
 50
218.630965831444513
 51
223.9703363381557892
  0
ARC
  5
6B95
  8
0
 10
364.1374290914343987
 20
21.4753258681211783
 30
0.0
 40
0.984477423599869
 50
316.0296636368120176
 51
321.3687063528980161
  0
LINE
  5
6B96
  8
0
 10
364.9261713318339844
 20
21.9202546198111001
 30
0.0
 11
364.9261713318339844
 21
23.0162265658901397
 31
0.0
  0
LINE
  5
6B97
  8
0
 10
364.9261713318339844
 20
21.8823682996203495
 30
0.0
 11
364.9261713318339844
 21
20.8823682832628599
 31
0.0
  0
LINE
  5
6B98
  8
0
 10
364.9261713318339844
 20
21.9217793232451506
 30
0.0
 11
364.9261713318339844
 21
23.0162265658901397
 31
0.0
  0
LINE
  5
6B99
  8
0
 10
362.9970520210433733
 20
20.7918171184213207
 30
0.0
 11
364.9261858792431212
 21
20.7918171184213207
 31
0.0
  0
LINE
  5
6B9A
  8
0
 10
364.9261858792431212
 20
20.7918171184213207
 30
0.0
 11
364.9261756808430164
 21
20.1217459434212884
 31
0.0
  0
ARC
  5
6B9B
  8
0
 10
364.906489901510497
 20
20.1217462430364087
 30
0.0
 40
0.0196857793349646
 50
272.3242189023529249
 51
359.999127965360401
  0
ARC
  5
6B9C
  8
0
 10
363.9616189501431904
 20
43.724887984623102
 30
0.0
 40
23.6417322835018098
 50
267.7075572264452035
 51
272.2924427760319759
  0
ARC
  5
6B9D
  8
0
 10
363.0167484310371151
 20
20.1217568679360994
 30
0.0
 40
0.0196964130234078
 50
180.0317788128458005
 51
267.6757811001244249
  0
LINE
  5
6B9E
  8
0
 10
362.9970520210433733
 20
20.1217459434212884
 30
0.0
 11
362.9970520210433733
 21
20.7918171184213207
 31
0.0
  0
LINE
  5
6B9F
  8
0
 10
363.0159496597892144
 20
20.1020766583212804
 30
0.0
 11
364.9072882404972802
 21
20.1020766583212804
 31
0.0
  0
LINE
  5
6BA0
  8
0
 10
363.4677186146341228
 20
23.01622656732129
 30
0.0
 11
363.4733784753914847
 21
22.0987971612072904
 31
0.0
  0
LINE
  5
6BA1
  8
0
 10
364.4555701332237163
 20
23.0162265656201086
 30
0.0
 11
364.4499532241695192
 21
22.0987980833373214
 31
0.0
  0
LINE
  5
6BA2
  8
0
 10
363.5651400399340787
 20
22.0792186933212911
 30
0.0
 11
363.5647617067340889
 21
22.0069630350212897
 31
0.0
  0
ARC
  5
6BA3
  8
0
 10
363.5450715694930182
 20
22.0070661332810786
 30
0.0
 40
0.0196904071522965
 50
273.4775987249573177
 51
359.6999999996605766
  0
LINE
  5
6BA4
  8
0
 10
364.3581487079341059
 20
22.0792186933212911
 30
0.0
 11
364.3585270411717261
 21
22.0069630350669705
 31
0.0
  0
ARC
  5
6BA5
  8
0
 10
363.5109838636573727
 20
21.958524207811319
 30
0.0
 40
0.0276860453661929
 50
95.3458882920357951
 51
179.8468208595575959
  0
ARC
  5
6BA6
  8
0
 10
366.5791174982102802
 20
21.9503215932974101
 30
0.0
 40
3.0958306446899782
 50
179.8468208595573969
 51
180.1554079236277062
  0
ARC
  5
6BA7
  8
0
 10
363.5066472230975023
 20
21.9419878660860697
 30
0.0
 40
0.0233490674529286
 50
180.1554079236298946
 51
229.3561140565662129
  0
ARC
  5
6BA8
  8
0
 10
363.1111399609040973
 20
21.4812563007505695
 30
0.0
 40
0.5838572975863406
 50
44.3025376547275584
 51
49.3561140565661631
  0
ARC
  5
6BA9
  8
0
 10
363.4616443739341207
 20
21.8172663119212906
 30
0.0
 40
0.0984251969000008
 50
359.9999999999989768
 51
46.829325855643539
  0
LINE
  5
6BAA
  8
0
 10
363.5600695708341163
 20
21.81726631192128
 30
0.0
 11
363.5600695708341163
 21
21.6403836730212902
 31
0.0
  0
ARC
  5
6BAB
  8
0
 10
363.4616443742905858
 20
21.6403836730212902
 30
0.0
 40
0.0984251965435182
 50
312.9999998503670895
 51
0.0
  0
ARC
  5
6BAC
  8
0
 10
369.1549641751036006
 20
15.5350456304984803
 30
0.0
 40
8.2495711479577452
 50
132.9999998503672884
 51
133.3553249393249871
  0
ARC
  5
6BAD
  8
0
 10
363.506172866572399
 20
21.5158790997380507
 30
0.0
 40
0.0228721585221021
 50
130.0284754698676863
 51
179.2189928491928015
  0
LINE
  5
6BAE
  8
0
 10
363.4833028329341005
 20
21.5161908638212012
 30
0.0
 11
363.483297917234097
 21
21.49738047972129
 31
0.0
  0
ARC
  5
6BAF
  8
0
 10
363.5111755248229883
 20
21.4973731944923117
 30
0.0
 40
0.0278776085408853
 50
179.9850269481432861
 51
257.3638738076854224
  0
ARC
  5
6BB0
  8
0
 10
365.6748745987464986
 20
25.7016882539832103
 30
0.0
 40
4.351772747183043
 50
239.7611741061039083
 51
240.321598510917795
  0
ARC
  5
6BB1
  8
0
 10
363.6388586421668947
 20
22.1290436623531193
 30
0.0
 40
0.2396990180835593
 50
240.321598510917795
 51
248.1480715338302048
  0
ARC
  5
6BB2
  8
0
 10
363.1010111976361259
 20
20.7878556733019408
 30
0.0
 40
1.2053148557472431
 50
64.5777814470667693
 51
68.1480715338302616
  0
ARC
  5
6BB3
  8
0
 10
363.4554989913980876
 20
21.5336586868616493
 30
0.0
 40
0.3795523408793016
 50
55.8784429725916567
 51
64.577781447066684
  0
ARC
  5
6BB4
  8
0
 10
363.6324856287320131
 20
21.79485511978773
 30
0.0
 40
0.0640403024907971
 50
33.7227686865913228
 51
55.8784429725916567
  0
ARC
  5
6BB5
  8
0
 10
363.6652670154550151
 20
21.8167364130792514
 30
0.0
 40
0.0246269759173043
 50
1.233086681991125
 51
33.7227686865918201
  0
LINE
  5
6BB6
  8
0
 10
363.6898882883340889
 20
21.8172663797212891
 30
0.0
 11
363.6898882883340889
 21
21.6403836730212902
 31
0.0
  0
ARC
  5
6BB7
  8
0
 10
363.6665047854465911
 20
21.6403836730212902
 30
0.0
 40
0.0233835028874839
 50
322.0331123605334938
 51
0.0
  0
ARC
  5
6BB8
  8
0
 10
363.605887289532177
 20
21.6876868608891407
 30
0.0
 40
0.1002735047953705
 50
295.4769089732005796
 51
322.0331123605334938
  0
ARC
  5
6BB9
  8
0
 10
361.400665730049127
 20
26.3158292327750907
 30
0.0
 40
5.2269394721522398
 50
294.2760667768637859
 51
295.4769089732005796
  0
ARC
  5
6BBA
  8
0
 10
363.8082471299345002
 20
20.9776833241439
 30
0.0
 40
0.6290190265830313
 50
114.2760667768637006
 51
117.2560397046004965
  0
ARC
  5
6BBB
  8
0
 10
363.7378592479244048
 20
21.1143144578657314
 30
0.0
 40
0.4753228306770256
 50
117.2560397046004965
 51
122.3808467807482003
  0
LINE
  5
6BBC
  8
0
 10
364.3554280785597825
 20
21.9881675879212608
 30
0.0
 11
364.4149272846918279
 21
21.9860898299289396
 31
0.0
  0
ARC
  5
6BBD
  8
0
 10
364.3782601244006969
 20
22.0070661332810786
 30
0.0
 40
0.0196904071522965
 50
180.3000000003393097
 51
266.5224012750426823
  0
ARC
  5
6BBE
  8
0
 10
364.4123478302362855
 20
21.958524207811319
 30
0.0
 40
0.0276860453661929
 50
0.1531791404423506
 51
84.6541117079642049
  0
ARC
  5
6BBF
  8
0
 10
361.344214195683378
 20
21.9503215932974101
 30
0.0
 40
3.0958306446899782
 50
359.8445920763721233
 51
0.1531791404425542
  0
ARC
  5
6BC0
  8
0
 10
364.4166844707963264
 20
21.9419878660860697
 30
0.0
 40
0.0233490674529286
 50
310.6438859434338156
 51
359.8445920763697927
  0
ARC
  5
6BC1
  8
0
 10
364.8121917329896178
 20
21.4812563007505695
 30
0.0
 40
0.5838572975863406
 50
130.6438859434337871
 51
135.6974623452724131
  0
ARC
  5
6BC2
  8
0
 10
364.461687319959708
 20
21.8172663119212906
 30
0.0
 40
0.0984251969000008
 50
133.1706741443564113
 51
180.0000000000009948
  0
LINE
  5
6BC3
  8
0
 10
364.3632621230595987
 20
21.81726631192128
 30
0.0
 11
364.3632621230595987
 21
21.6403836730212902
 31
0.0
  0
ARC
  5
6BC4
  8
0
 10
364.4616873196031861
 20
21.6403836730212902
 30
0.0
 40
0.0984251965435182
 50
180.0
 51
227.0000001496327116
  0
ARC
  5
6BC5
  8
0
 10
358.7683675187900008
 20
15.5350456304984803
 30
0.0
 40
8.2495711479577452
 50
46.6446750606749774
 51
47.0000001496326902
  0
ARC
  5
6BC6
  8
0
 10
364.4171588273213729
 20
21.5158790997380507
 30
0.0
 40
0.0228721585221021
 50
0.7810071508072195
 51
49.971524530132271
  0
LINE
  5
6BC7
  8
0
 10
364.4400288609596146
 20
21.5161908638212012
 30
0.0
 11
364.4400337766596181
 21
21.49738047972129
 31
0.0
  0
ARC
  5
6BC8
  8
0
 10
364.4121561690707267
 20
21.4973731944923117
 30
0.0
 40
0.0278776085408853
 50
282.6361261923145207
 51
0.0149730518566718
  0
ARC
  5
6BC9
  8
0
 10
362.2484570951472733
 20
25.7016882539832103
 30
0.0
 40
4.351772747183043
 50
299.6784014890820913
 51
300.2388258938962053
  0
ARC
  5
6BCA
  8
0
 10
364.2844730517268204
 20
22.1290436623531193
 30
0.0
 40
0.2396990180835593
 50
291.8519284661696815
 51
299.6784014890820913
  0
ARC
  5
6BCB
  8
0
 10
364.8223204962577029
 20
20.7878556733019408
 30
0.0
 40
1.2053148557472431
 50
111.8519284661696958
 51
115.4222185529332023
  0
ARC
  5
6BCC
  8
0
 10
364.4678327024956275
 20
21.5336586868616493
 30
0.0
 40
0.3795523408793016
 50
115.4222185529333018
 51
124.1215570274083007
  0
ARC
  5
6BCD
  8
0
 10
364.290846065161702
 20
21.79485511978773
 30
0.0
 40
0.0640403024907971
 50
124.1215570274083007
 51
146.2772313134086914
  0
ARC
  5
6BCE
  8
0
 10
364.2580646784388136
 20
21.8167364130792514
 30
0.0
 40
0.0246269759173043
 50
146.2772313134082083
 51
178.7669133180091023
  0
LINE
  5
6BCF
  8
0
 10
364.2334434055596262
 20
21.8172663797212891
 30
0.0
 11
364.2334434055596262
 21
21.6403836730212902
 31
0.0
  0
ARC
  5
6BD0
  8
0
 10
364.256826908447124
 20
21.6403836730212902
 30
0.0
 40
0.0233835028874839
 50
180.0
 51
217.9668876394661083
  0
ARC
  5
6BD1
  8
0
 10
364.3174444043614812
 20
21.6876868608891407
 30
0.0
 40
0.1002735047953705
 50
217.9668876394661936
 51
244.523091026799392
  0
ARC
  5
6BD2
  8
0
 10
366.5226659638445881
 20
26.3158292327750907
 30
0.0
 40
5.2269394721522398
 50
244.523091026799392
 51
245.7239332231362141
  0
ARC
  5
6BD3
  8
0
 10
364.1150845639592717
 20
20.9776833241439
 30
0.0
 40
0.6290190265830313
 50
62.7439602953994893
 51
65.7239332231362852
  0
ARC
  5
6BD4
  8
0
 10
364.1854724459694239
 20
21.1143144578657314
 30
0.0
 40
0.4753228306770256
 50
57.6191532192518991
 51
62.7439602953994893
  0
LINE
  5
6BD6
  8
0
 10
363.0051974470134724
 20
19.1422108192212903
 30
0.0
 11
364.9180112528558766
 21
19.1422108192212903
 31
0.0
  0
LINE
  5
6BD7
  8
0
 10
363.0051974470181904
 20
19.614651764121291
 30
0.0
 11
364.9180112528512723
 21
19.614651764121291
 31
0.0
  0
LINE
  5
6BD8
  8
0
 10
362.9912674434306155
 20
19.6088817677124183
 30
0.0
 11
362.9727758874348069
 21
19.5903902117212887
 31
0.0
  0
LINE
  5
6BD9
  8
0
 10
362.9727758874348069
 20
19.5903902117212887
 30
0.0
 11
362.9803068543782274
 21
19.1589414047778099
 31
0.0
  0
LINE
  5
6BDA
  8
0
 10
362.9803068543782274
 20
19.1589414047778099
 30
0.0
 11
362.9912674433605844
 21
19.1479808156954299
 31
0.0
  0
ARC
  5
6BDB
  8
0
 10
363.0051974470134724
 20
19.1619108192212906
 30
0.0
 40
0.0197
 50
224.9999997387423036
 51
269.9999999999902229
  0
ARC
  5
6BDC
  8
0
 10
363.0051974470181904
 20
19.5949517641212907
 30
0.0
 40
0.0197
 50
89.9999999999902229
 51
134.9999999927734109
  0
ARC
  5
6BDD
  8
0
 10
362.9976725200265832
 20
19.5373415963179795
 30
0.0
 40
0.0530480422109895
 50
62.1408808830838311
 51
117.8591189827502035
  0
ARC
  5
6BDE
  8
0
 10
363.0707973915846765
 20
19.3973208084759605
 30
0.0
 40
0.1930689235778452
 50
75.5015418001280239
 51
104.4984581998686934
  0
ARC
  5
6BDF
  8
0
 10
363.1885867590196995
 20
19.1950331219669188
 30
0.0
 40
0.3953566251330871
 50
79.8808341468063361
 51
100.1178713013615038
  0
ARC
  5
6BE0
  8
0
 10
363.3451341823346752
 20
18.9704059237213301
 30
0.0
 40
0.6199804427999575
 50
81.9230013269988575
 51
98.0746872022998843
  0
ARC
  5
6BE1
  8
0
 10
363.5326186858645201
 20
18.7682834611322598
 30
0.0
 40
0.8221034450930369
 50
82.9876548219595946
 51
97.0130397695324262
  0
ARC
  5
6BE2
  8
0
 10
363.7435408461141719
 20
18.593821055975539
 30
0.0
 40
0.9965678834550292
 50
83.8559846181376969
 51
96.3693838555813755
  0
ARC
  5
6BE3
  8
0
 10
363.9595558353922797
 20
18.5430622161246603
 30
0.0
 40
1.0473271036874501
 50
89.8879325169970542
 51
95.993339959861828
  0
ARC
  5
6BE4
  8
0
 10
363.0048024248346792
 20
19.2099662742449198
 30
0.0
 40
0.051026258841768
 50
241.1694258312624015
 51
298.8305741687377122
  0
ARC
  5
6BE5
  8
0
 10
363.0773864143347964
 20
19.3440765413356814
 30
0.0
 40
0.1851365731081216
 50
254.9803993338339865
 51
285.0196006661660135
  0
ARC
  5
6BE6
  8
0
 10
363.1943087842348064
 20
19.537871050761801
 30
0.0
 40
0.3789310990965751
 50
259.5169740559252887
 51
280.4830259440747113
  0
ARC
  5
6BE7
  8
0
 10
363.3496913826597847
 20
19.7527592806914285
 30
0.0
 40
0.5938193350173329
 50
261.6301028094641765
 51
278.372913919825578
  0
ARC
  5
6BE8
  8
0
 10
363.5358055912960253
 20
19.9469090589700109
 30
0.0
 40
0.787965634802292
 50
262.735006171673092
 51
277.2623759923437774
  0
ARC
  5
6BE9
  8
0
 10
363.7432205689847251
 20
20.081340749266829
 30
0.0
 40
0.9223975872569319
 50
263.288186586951781
 51
276.711813413048219
  0
ARC
  5
6BEA
  8
0
 10
363.9635676946300009
 20
20.1635421577228193
 30
0.0
 40
1.004601097308824
 50
263.5678814716719103
 51
269.8880237771206225
  0
LINE
  5
6BEB
  8
0
 10
363.0224618236347851
 20
19.5842413320212891
 30
0.0
 11
363.0294083696347229
 21
19.1652647466212791
 31
0.0
  0
LINE
  5
6BEC
  8
0
 10
363.1191329595347952
 20
19.5842413320212891
 30
0.0
 11
363.1253644590348131
 21
19.1652647466212791
 31
0.0
  0
LINE
  5
6BED
  8
0
 10
363.2580493523319092
 20
19.5842397626694691
 30
0.0
 11
363.2632531094347996
 21
19.1652647466212791
 31
0.0
  0
LINE
  5
6BEE
  8
0
 10
363.4322437760267235
 20
19.5842362489263095
 30
0.0
 11
363.4361605884441815
 21
19.1652692985713706
 31
0.0
  0
LINE
  5
6BEF
  8
0
 10
363.6329837039739914
 20
19.5842374657021985
 30
0.0
 11
363.6354148810348192
 21
19.1652647466212791
 31
0.0
  0
LINE
  5
6BF0
  8
0
 10
363.8502014174487726
 20
19.5846646707082606
 30
0.0
 11
363.8510262569348015
 21
19.1652647466212791
 31
0.0
  0
ARC
  5
6BF1
  8
0
 10
379.3707094292701072
 20
19.7510904436244097
 30
0.0
 40
15.76221844326931
 50
178.7834538660854946
 51
180.4959617931723983
  0
ARC
  5
6BF2
  8
0
 10
364.2825292039299825
 20
19.7209932606760603
 30
0.0
 40
0.4982137769357703
 50
177.9984420580364883
 51
192.3243450951243005
  0
ARC
  5
6BF3
  8
0
 10
364.0748611243972164
 20
19.7282508434513488
 30
0.0
 40
0.2904189171231217
 50
153.6103924094481101
 51
177.9984420580366873
  0
ARC
  5
6BF4
  8
0
 10
363.9453025577313952
 20
19.7925349868482598
 30
0.0
 40
0.1457887913235321
 50
113.0263587398792993
 51
153.6103924094479112
  0
ARC
  5
6BF5
  8
0
 10
363.9677521021067719
 20
19.7397147491623208
 30
0.0
 40
0.2031818183552846
 50
91.7338855638191291
 51
113.0263587398792993
  0
LINE
  5
6BF6
  8
0
 10
364.931941256438904
 20
19.6088817677124183
 30
0.0
 11
364.9504328124347126
 21
19.5903902117212887
 31
0.0
  0
LINE
  5
6BF7
  8
0
 10
364.9504328124347126
 20
19.5903902117212887
 30
0.0
 11
364.9429018454912921
 21
19.1589414047778099
 31
0.0
  0
LINE
  5
6BF8
  8
0
 10
364.9429018454912921
 20
19.1589414047778099
 30
0.0
 11
364.9319412565088214
 21
19.1479808156954299
 31
0.0
  0
ARC
  5
6BF9
  8
0
 10
364.9180112528558766
 20
19.1619108192212906
 30
0.0
 40
0.0197
 50
270.0000000000097771
 51
315.0000002612578101
  0
ARC
  5
6BFA
  8
0
 10
364.9180112528512723
 20
19.5949517641212907
 30
0.0
 40
0.0197
 50
45.0000000072265607
 51
90.0000000000097771
  0
ARC
  5
6BFB
  8
0
 10
364.9255361798429931
 20
19.5373415963179795
 30
0.0
 40
0.0530480422109895
 50
62.1408810172497468
 51
117.8591191169162045
  0
ARC
  5
6BFC
  8
0
 10
364.8524113082846725
 20
19.3973208084759605
 30
0.0
 40
0.1930689235778452
 50
75.5015418001313066
 51
104.4984581998720046
  0
ARC
  5
6BFD
  8
0
 10
364.73462194084982
 20
19.1950331219669188
 30
0.0
 40
0.3953566251330871
 50
79.8821286986385104
 51
100.1191658531936071
  0
ARC
  5
6BFE
  8
0
 10
364.5780745175346738
 20
18.9704059237213301
 30
0.0
 40
0.6199804427999575
 50
81.9253127977001441
 51
98.0769986730011567
  0
ARC
  5
6BFF
  8
0
 10
364.3905900140049994
 20
18.7682834611322598
 30
0.0
 40
0.8221034450930369
 50
82.9869602304708138
 51
97.0123451780404054
  0
ARC
  5
6C00
  8
0
 10
364.1796678537552907
 20
18.593821055975539
 30
0.0
 40
0.9965678834550292
 50
83.6306161444186387
 51
96.1440153818623031
  0
ARC
  5
6C01
  8
0
 10
363.9636528644771829
 20
18.5430622161246603
 30
0.0
 40
1.0473271036874501
 50
84.006660040138172
 51
90.1120674830029458
  0
ARC
  5
6C02
  8
0
 10
364.9184062750347266
 20
19.2099662742449198
 30
0.0
 40
0.051026258841768
 50
241.1694258312622878
 51
298.8305741687374848
  0
ARC
  5
6C03
  8
0
 10
364.8458222855347231
 20
19.3440765413356814
 30
0.0
 40
0.1851365731081216
 50
254.9803993338339865
 51
285.0196006661660135
  0
ARC
  5
6C04
  8
0
 10
364.7288999156348268
 20
19.537871050761801
 30
0.0
 40
0.3789310990965751
 50
259.5169740559252887
 51
280.4830259440747113
  0
ARC
  5
6C05
  8
0
 10
364.5735173172096779
 20
19.7527592806914285
 30
0.0
 40
0.5938193350173329
 50
261.6270860801711251
 51
278.3698971905358235
  0
ARC
  5
6C06
  8
0
 10
364.3874031085734941
 20
19.9469090589700109
 30
0.0
 40
0.787965634802292
 50
262.7376240076562226
 51
277.264993828326908
  0
ARC
  5
6C07
  8
0
 10
364.1799881308846807
 20
20.081340749266829
 30
0.0
 40
0.9223975872569319
 50
263.288186586951781
 51
276.711813413048219
  0
ARC
  5
6C08
  8
0
 10
363.9596410052395186
 20
20.1635421577228193
 30
0.0
 40
1.004601097308824
 50
270.1119762228793206
 51
276.4321185283247928
  0
LINE
  5
6C09
  8
0
 10
364.9007468762346775
 20
19.5842413320212891
 30
0.0
 11
364.8938003302346829
 21
19.1652647466212791
 31
0.0
  0
LINE
  5
6C0A
  8
0
 10
364.8040757403347243
 20
19.5842413320212891
 30
0.0
 11
364.7978442408348201
 21
19.1652647466212791
 31
0.0
  0
LINE
  5
6C0B
  8
0
 10
364.6651593475376103
 20
19.5842397626694691
 30
0.0
 11
364.6599555904347199
 21
19.1652647466212791
 31
0.0
  0
LINE
  5
6C0C
  8
0
 10
364.490964923842796
 20
19.5842362489263095
 30
0.0
 11
364.4870481114252811
 21
19.1652692985713706
 31
0.0
  0
LINE
  5
6C0D
  8
0
 10
364.2902249958955281
 20
19.5842374657021985
 30
0.0
 11
364.2877938188348139
 21
19.1652647466212791
 31
0.0
  0
LINE
  5
6C0E
  8
0
 10
364.0730072824205763
 20
19.5846646707082606
 30
0.0
 11
364.072182442934718
 21
19.1652647466212791
 31
0.0
  0
ARC
  5
6C0F
  8
0
 10
348.5524992705994123
 20
19.7510904436244097
 30
0.0
 40
15.76221844326931
 50
359.5040382068276017
 51
1.2165461339144801
  0
ARC
  5
6C10
  8
0
 10
363.6406794959394801
 20
19.7209932606760603
 30
0.0
 40
0.4982137769357703
 50
347.6756549048756142
 51
2.001557941963525
  0
ARC
  5
6C11
  8
0
 10
363.8483475754723031
 20
19.7282508434513488
 30
0.0
 40
0.2904189171231217
 50
2.001557941963322
 51
26.389607590551929
  0
ARC
  5
6C12
  8
0
 10
363.9779061421381812
 20
19.7925349868482598
 30
0.0
 40
0.1457887913235321
 50
26.3896075905520711
 51
66.9736412601206439
  0
ARC
  5
6C13
  8
0
 10
363.9554565977626908
 20
19.7397147491623208
 30
0.0
 40
0.2031818183552846
 50
66.9736412601206439
 51
88.2661144361808851
  0
ENDSEC
  0
EOF
