  0
SECTION
  2
HEADER
  9
$ACADVER
  1
AC1009
  9
$INSBASE
 10
372.3934953592352031
 20
22.2009629820941612
 30
0.0
  9
$EXTMIN
 10
360.3690405616638941
 20
9.8634510597178213
 30
0.0
  9
$EXTMAX
 10
421.084168730322574
 20
34.9877286706673232
 30
0.0
  9
$LIMMIN
 10
0.0
 20
0.0
  9
$LIMMAX
 10
22.0
 20
17.0
  9
$ORTHOMODE
 70
     0
  9
$REGENMODE
 70
     1
  9
$FILLMODE
 70
     1
  9
$QTEXTMODE
 70
     0
  9
$MIRRTEXT
 70
     0
  9
$DRAGMODE
 70
     2
  9
$LTSCALE
 40
1.2099999999999991
  9
$OSMODE
 70
  4095
  9
$ATTMODE
 70
     1
  9
$TEXTSIZE
 40
0.2
  9
$TRACEWID
 40
0.05
  9
$TEXTSTYLE
  7
STANDARD
  9
$CLAYER
  8
0
  9
$CELTYPE
  6
BYLAYER
  9
$CECOLOR
 62
   256
  9
$DIMSCALE
 40
1.0
  9
$DIMASZ
 40
0.1875
  9
$DIMEXO
 40
0.0625
  9
$DIMDLI
 40
0.38
  9
$DIMRND
 40
0.0
  9
$DIMDLE
 40
0.0
  9
$DIMEXE
 40
0.125
  9
$DIMTP
 40
1.5
  9
$DIMTM
 40
1.5
  9
$DIMTXT
 40
1.5
  9
$DIMCEN
 40
0.09
  9
$DIMTSZ
 40
0.0
  9
$DIMTOL
 70
     0
  9
$DIMLIM
 70
     0
  9
$DIMTIH
 70
     1
  9
$DIMTOH
 70
     1
  9
$DIMSE1
 70
     0
  9
$DIMSE2
 70
     0
  9
$DIMTAD
 70
     0
  9
$DIMZIN
 70
     4
  9
$DIMBLK
  1

  9
$DIMASO
 70
     1
  9
$DIMSHO
 70
     1
  9
$DIMPOST
  1

  9
$DIMAPOST
  1

  9
$DIMALT
 70
     0
  9
$DIMALTD
 70
     2
  9
$DIMALTF
 40
25.3999999999999986
  9
$DIMLFAC
 40
1.0
  9
$DIMTOFL
 70
     0
  9
$DIMTVP
 40
0.0
  9
$DIMTIX
 70
     0
  9
$DIMSOXD
 70
     0
  9
$DIMSAH
 70
     0
  9
$DIMBLK1
  1

  9
$DIMBLK2
  1

  9
$DIMSTYLE
  2
STANDARD
  9
$DIMCLRD
 70
     0
  9
$DIMCLRE
 70
     0
  9
$DIMCLRT
 70
     0
  9
$DIMTFAC
 40
1.0
  9
$DIMGAP
 40
0.09
  9
$LUNITS
 70
     2
  9
$LUPREC
 70
     4
  9
$SKETCHINC
 40
0.1
  9
$FILLETRAD
 40
0.0
  9
$AUNITS
 70
     0
  9
$AUPREC
 70
     0
  9
$MENU
  1
.
  9
$ELEVATION
 40
0.0
  9
$PELEVATION
 40
0.0
  9
$THICKNESS
 40
0.0
  9
$LIMCHECK
 70
     0
  9
$BLIPMODE
 70
     0
  9
$CHAMFERA
 40
0.0
  9
$CHAMFERB
 40
0.0
  9
$SKPOLY
 70
     0
  9
$TDCREATE
 40
2457827.4934837957844138
  9
$TDUPDATE
 40
2459894.5769560188055038
  9
$TDINDWG
 40
0.5090760417
  9
$TDUSRTIMER
 40
0.5090760417
  9
$USRTIMER
 70
     1
  9
$ANGBASE
 50
0.0
  9
$ANGDIR
 70
     0
  9
$PDMODE
 70
     0
  9
$PDSIZE
 40
0.3125
  9
$PLINEWID
 40
0.0
  9
$COORDS
 70
     1
  9
$SPLFRAME
 70
     0
  9
$SPLINETYPE
 70
     6
  9
$SPLINESEGS
 70
     8
  9
$ATTDIA
 70
     1
  9
$ATTREQ
 70
     1
  9
$HANDLING
 70
     1
  9
$HANDSEED
  5
6B69
  9
$SURFTAB1
 70
     6
  9
$SURFTAB2
 70
     6
  9
$SURFTYPE
 70
     6
  9
$SURFU
 70
     6
  9
$SURFV
 70
     6
  9
$UCSNAME
  2

  9
$UCSORG
 10
0.0
 20
0.0
 30
0.0
  9
$UCSXDIR
 10
1.0
 20
0.0
 30
0.0
  9
$UCSYDIR
 10
0.0
 20
1.0
 30
0.0
  9
$PUCSNAME
  2

  9
$PUCSORG
 10
0.0
 20
0.0
 30
0.0
  9
$PUCSXDIR
 10
1.0
 20
0.0
 30
0.0
  9
$PUCSYDIR
 10
0.0
 20
1.0
 30
0.0
  9
$USERI1
 70
     0
  9
$USERI2
 70
     0
  9
$USERI3
 70
     0
  9
$USERI4
 70
     0
  9
$USERI5
 70
     0
  9
$USERR1
 40
0.0
  9
$USERR2
 40
0.0
  9
$USERR3
 40
0.0
  9
$USERR4
 40
0.0
  9
$USERR5
 40
0.0
  9
$WORLDVIEW
 70
     1
  9
$SHADEDGE
 70
     3
  9
$SHADEDIF
 70
    70
  9
$TILEMODE
 70
     1
  9
$MAXACTVP
 70
    48
  9
$PLIMCHECK
 70
     0
  9
$PEXTMIN
 10
1.0000000000000000E+20
 20
1.0000000000000000E+20
 30
1.0000000000000000E+20
  9
$PEXTMAX
 10
-1.0000000000000000E+20
 20
-1.0000000000000000E+20
 30
-1.0000000000000000E+20
  9
$PLIMMIN
 10
0.0
 20
0.0
  9
$PLIMMAX
 10
12.0
 20
9.0
  9
$UNITMODE
 70
     0
  9
$VISRETAIN
 70
     1
  9
$PLINEGEN
 70
     0
  9
$PSLTSCALE
 70
     1
  0
ENDSEC
  0
SECTION
  2
TABLES
  0
TABLE
  2
VPORT
 70
     1
  0
VPORT
  2
*ACTIVE
 70
     0
 10
0.0
 20
0.0
 11
1.0
 21
1.0
 12
161.4142867628426075
 22
14.9957557492917299
 13
0.0
 23
0.0
 14
1.0
 24
1.0
 15
0.0
 25
0.0
 16
-0.0000000000000284
 26
0.0
 36
157.2215818301446859
 17
210.9789276123046875
 27
7.2024491855605604
 37
0.0
 40
0.0255770929209405
 41
2.498684210526315
 42
50.0
 43
0.0
 44
0.0
 50
0.0
 51
0.0
 71
     0
 72
   100
 73
     1
 74
     1
 75
     0
 76
     0
 77
     0
 78
     0
  0
ENDTAB
  0
TABLE
  2
LTYPE
 70
     2
  0
LTYPE
  2
CONTINUOUS
 70
     0
  3
Solid line
 72
    65
 73
     0
 40
0.0
  0
LTYPE
  2
PHANTOM2
 70
     0
  3
___ _ _ ___ _ _ ___ _ _ ___ _ _
 72
    65
 73
     6
 40
1.25
 49
0.625
 49
-0.125
 49
0.125
 49
-0.125
 49
0.125
 49
-0.125
  0
ENDTAB
  0
TABLE
  2
LAYER
 70
     2
  0
LAYER
  2
0
 70
     0
 62
     7
  6
CONTINUOUS
  0
LAYER
  2
DEFPOINTS
 70
     0
 62
     7
  6
CONTINUOUS
  0
ENDTAB
  0
TABLE
  2
STYLE
 70
     1
  0
STYLE
  2
STANDARD
 70
     0
 40
0.0
 41
0.8
 50
0.0
 71
     0
 42
0.2
  3
txt
  4

  0
ENDTAB
  0
TABLE
  2
VIEW
 70
     0
  0
ENDTAB
  0
TABLE
  2
UCS
 70
     0
  0
ENDTAB
  0
TABLE
  2
APPID
 70
     9
  0
APPID
  2
ACAD
 70
     0
  0
APPID
  2
ACAD_MLEADERVER
 70
     0
  0
APPID
  2
ACAD_EXEMPT_FROM_CAD_STANDARDS
 70
     0
  0
APPID
  2
ACAD_NAV_VCDISPLAY
 70
     0
  0
APPID
  2
ACADANNOMONITORALERTICONDI
 70
     0
  0
APPID
  2
ACAD_DSTYLE_DIMJAG
 70
     0
  0
APPID
  2
ACAD_DSTYLE_DIMTALN
 70
     0
  0
APPID
  2
ACDBATTR
 70
     0
  0
APPID
  2
DCO15
 70
     0
  0
ENDTAB
  0
TABLE
  2
DIMSTYLE
 70
     1
  0
DIMSTYLE
  2
STANDARD
 70
     0
  3

  4

  5

  6

  7

 40
1.0
 41
0.1875
 42
0.0625
 43
0.38
 44
0.125
 45
0.0
 46
0.0
 47
1.5
 48
1.5
140
1.5
141
0.09
142
0.0
143
25.3999999999999986
144
1.0
145
0.0
146
1.0
147
0.09
 71
     0
 72
     0
 73
     1
 74
     1
 75
     0
 76
     0
 77
     0
 78
     4
170
     0
171
     2
172
     0
173
     0
174
     0
175
     0
176
     0
177
     0
178
     0
  0
ENDTAB
  0
ENDSEC
  0
SECTION
  2
BLOCKS
  0
BLOCK
  8
0
  2
$MODEL_SPACE
 70
     0
 10
0.0
 20
0.0
 30
0.0
  3
$MODEL_SPACE
  1

  0
ENDBLK
  5
21
  8
0
  0
BLOCK
 67
     1
  8
0
  2
$PAPER_SPACE
 70
     0
 10
0.0
 20
0.0
 30
0.0
  3
$PAPER_SPACE
  1

  0
ENDBLK
  5
1D
 67
     1
  8
0
  0
BLOCK
  8
0
  2
_FILLED
 70
     0
 10
0.0
 20
0.0
 30
0.0
  3
_FILLED
  1

  0
SOLID
  5
6485
  8
0
  6
BYBLOCK
 62
     0
 10
0.0
 20
0.0
 30
0.0
 11
-1.0
 21
0.1666666667
 31
0.0
 12
-1.0
 22
-0.1666666667
 32
0.0
 13
-1.0
 23
-0.1666666667
 33
0.0
  0
ENDBLK
  5
6486
  8
0
  6
BYBLOCK
 62
     0
  0
ENDSEC
  0
SECTION
  2
ENTITIES
  0
ATTDEF
  5
4EF9
  8
DEFPOINTS
 10
372.394791045439888
 20
22.2041157687592587
 30
0.0
 40
0.001
  1
K-78021T-B9
  3

  2
MODELNUMBER
 70
     0
1001
ACDBATTR
1070
     0
1070
     1
  0
ATTDEF
  5
4EFA
  8
DEFPOINTS
 10
372.394791045439888
 20
22.2024491020925794
 30
0.0
 40
0.001
  1
MODULO
  3

  2
TRADENAME
 70
     0
1001
ACDBATTR
1070
     0
1070
     1
  0
ATTDEF
  5
4EFB
  8
DEFPOINTS
 10
372.394791045439888
 20
22.2007824354259
 30
0.0
 40
0.001
  1
VALVE TRIM
  3

  2
PRODUCT
 70
     0
1001
ACDBATTR
1070
     0
1070
     1
  0
LINE
  5
69D6
  8
0
 10
372.3934953592379884
 20
18.6576558954941483
 30
0.0
 11
372.3934953592324746
 21
25.7442700686941706
 31
0.0
  0
LINE
  5
69D7
  8
0
 10
370.9053074616234085
 20
24.1853347370445384
 30
0.0
 11
370.9053074616234085
 21
23.2481162849741985
 31
0.0
  0
LINE
  5
69D8
  8
0
 10
370.8142563563231988
 20
23.265979054394581
 30
0.0
 11
370.8142563563231988
 21
24.1674719676941407
 31
0.0
  0
ARC
  5
69D9
  8
0
 10
370.7866563563230784
 20
24.1674719676941407
 30
0.0
 40
0.0276
 50
359.9999999999972147
 51
90.0
  0
ARC
  5
69DA
  8
0
 10
370.7866563563230784
 20
23.265979054394581
 30
0.0
 40
0.0276
 50
270.0000000124218218
 51
0.0
  0
ARC
  5
69DB
  8
0
 10
376.4407390018640172
 20
23.7169950899596707
 30
0.0
 40
6.1614157962063603
 50
175.7883178555293
 51
184.2167320551797047
  0
ARC
  5
69DC
  8
0
 10
370.3234874291052847
 20
24.1674719676941514
 30
0.0
 40
0.0276
 50
90.0
 51
175.7883178555310906
  0
ARC
  5
69DD
  8
0
 10
370.3235271568022995
 20
23.26597905429416
 30
0.0
 40
0.0276
 50
184.2167320551770047
 51
270.0000000124218218
  0
LINE
  5
69DE
  8
0
 10
372.3934953585830954
 20
18.7024164090535692
 30
0.0
 11
372.2753851230351074
 21
18.7112490794944009
 31
0.0
  0
LINE
  5
69DF
  8
0
 10
372.2753851230351074
 20
18.7112490794944009
 30
0.0
 11
372.2753851230351074
 21
18.675895093694411
 31
0.0
  0
LINE
  5
69E0
  8
0
 10
372.2753851230351074
 20
18.675895093694411
 30
0.0
 11
372.3934953585322205
 21
18.6648489238338016
 31
0.0
  0
LINE
  5
69E1
  8
0
 10
372.3934953592324746
 20
25.7442700686941706
 30
0.0
 11
371.8782530071352994
 21
25.6991922038545297
 31
0.0
  0
ARC
  5
69E2
  8
0
 10
371.8816843355867263
 20
25.6599719402386803
 30
0.0
 40
0.0393700786516548
 50
95.000000006930776
 51
180.0000000644701004
  0
LINE
  5
69E3
  8
0
 10
371.8423142569354809
 20
25.6599719401943993
 30
0.0
 11
371.8423142647193913
 21
18.7419829937944087
 31
0.0
  0
ARC
  5
69E4
  8
0
 10
371.8817159709270186
 20
18.7419829938387501
 30
0.0
 40
0.0394017062071761
 50
180.000000064473312
 51
264.9578443097241234
  0
LINE
  5
69E5
  8
0
 10
371.878253007179012
 20
18.7027337602905916
 30
0.0
 11
372.3934953592379884
 21
18.6576558954941483
 31
0.0
  0
LINE
  5
69E6
  8
0
 10
371.8423142568353796
 20
22.1222228245944201
 30
0.0
 11
370.7478670127354121
 21
22.1222228245944201
 31
0.0
  0
ARC
  5
69E7
  8
0
 10
370.7478670127354121
 20
22.0946228245944205
 30
0.0
 40
0.0276
 50
90.0
 51
180.0
  0
LINE
  5
69E8
  8
0
 10
370.7202670127354054
 20
22.1104016981809011
 30
0.0
 11
370.7202670127352917
 21
20.2049006865418193
 31
0.0
  0
LINE
  5
69E9
  8
0
 10
370.7478670127014766
 20
20.1930889663749689
 30
0.0
 11
371.8423142630867915
 21
20.1930889650291796
 31
0.0
  0
ARC
  5
69EA
  8
0
 10
370.7478670127354121
 20
20.2206889663749685
 30
0.0
 40
0.0276
 50
180.0
 51
269.9999999295470161
  0
ARC
  5
69EB
  8
0
 10
370.7084559891209778
 20
20.2048999900292792
 30
0.0
 40
0.0118110236348597
 50
270.0000000695150106
 51
0.0033788120437485
  0
LINE
  5
69EC
  8
0
 10
370.708455989135075
 20
20.1930889663943915
 30
0.0
 11
369.708455989135075
 21
20.1930889663943915
 31
0.0
  0
ARC
  5
69ED
  8
0
 10
369.708455989135075
 20
20.2048999899943809
 30
0.0
 40
0.0118110235999998
 50
180.0
 51
270.0
  0
LINE
  5
69EE
  8
0
 10
369.6966449655351994
 20
20.2048999899943809
 30
0.0
 11
369.6966449655351994
 21
22.1104118009943704
 31
0.0
  0
ARC
  5
69EF
  8
0
 10
369.708455989135075
 20
22.1104118009943704
 30
0.0
 40
0.0118110235999964
 50
89.9999999999739515
 51
179.9999999999836859
  0
LINE
  5
69F0
  8
0
 10
369.708455989135075
 20
22.1222228245944201
 30
0.0
 11
370.708455989135075
 21
22.1222228245940791
 31
0.0
  0
ARC
  5
69F1
  8
0
 10
370.708455989135075
 20
22.1104117966766083
 30
0.0
 40
0.0118110279174668
 50
359.9510099032647759
 51
89.9999999999739515
  0
LINE
  5
69F2
  8
0
 10
369.6966449655351994
 20
22.1025377852943805
 30
0.0
 11
369.6867996667352259
 21
22.1025355642982007
 31
0.0
  0
LINE
  5
69F3
  8
0
 10
369.6867996667352259
 20
22.1025355642982007
 30
0.0
 11
369.6868034988606837
 21
20.2160491104110704
 31
0.0
  0
LINE
  5
69F4
  8
0
 10
369.6868034988606837
 20
20.2160491104110704
 30
0.0
 11
369.6966449655351994
 21
20.2160491104110704
 31
0.0
  0
ARC
  5
69F5
  8
0
 10
370.3012508202351114
 20
21.3336391359944209
 30
0.0
 40
0.9842519684999416
 50
128.6295348271335968
 51
133.9698342980466066
  0
LINE
  5
69F6
  8
0
 10
369.6179048080352914
 20
20.2733011668272596
 30
0.0
 11
369.6651489025354067
 21
20.2305883478944111
 31
0.0
  0
LINE
  5
69F7
  8
0
 10
369.6651489025354067
 20
20.2305883478944111
 30
0.0
 11
369.6651489025354067
 21
20.2338919096943712
 31
0.0
  0
LINE
  5
69F8
  8
0
 10
369.6651489025354067
 20
20.2338919096943712
 30
0.0
 11
369.6868034988606837
 21
20.2160491414715615
 31
0.0
  0
LINE
  5
69F9
  8
0
 10
369.6179048080352914
 20
22.122237322094179
 30
0.0
 11
369.6179048080352914
 21
20.1931115794941505
 31
0.0
  0
LINE
  5
69FA
  8
0
 10
369.6179048080352914
 20
20.1931115794941505
 30
0.0
 11
368.9472012168137098
 21
20.202454364232981
 31
0.0
  0
ARC
  5
69FB
  8
0
 10
392.5509756742376908
 20
21.1576703928940901
 30
0.0
 40
23.6417322835022503
 50
177.7075572240009933
 51
182.2697137415977124
  0
ARC
  5
69FC
  8
0
 10
368.9474756077780171
 20
20.222152453216399
 30
0.0
 40
0.0197
 50
182.2697137415954103
 51
269.2019313417811759
  0
ARC
  5
69FD
  8
0
 10
368.9478336330562911
 20
22.1025522826776708
 30
0.0
 40
0.0196850394164986
 50
90.0000000610992288
 51
177.7075572298249142
  0
LINE
  5
69FE
  8
0
 10
368.9478336330353727
 20
22.122237322094179
 30
0.0
 11
369.6179048080352914
 21
22.1222373228086511
 31
0.0
  0
LINE
  5
69FF
  8
0
 10
368.9281643480354091
 20
22.1033396858745803
 30
0.0
 11
368.9281643480354091
 21
20.2182581949872606
 31
0.0
  0
LINE
  5
6A00
  8
0
 10
371.5459830971952897
 20
24.2088369978943696
 30
0.0
 11
370.9248868516394282
 21
24.2050343678337612
 31
0.0
  0
ARC
  5
6A01
  8
0
 10
370.9250074616234087
 20
24.1853347370445384
 30
0.0
 40
0.0197
 50
90.3507861025455554
 51
180.0
  0
LINE
  5
6A02
  8
0
 10
371.5507189271967263
 20
23.2245850292943707
 30
0.0
 11
370.9248868516409061
 21
23.2284166541849686
 31
0.0
  0
ARC
  5
6A03
  8
0
 10
370.9250074616234087
 20
23.2481162849741985
 30
0.0
 40
0.0197
 50
180.0
 51
269.6492139017959175
  0
LINE
  5
6A04
  8
0
 10
370.3234874291052847
 20
24.195071967694151
 30
0.0
 11
370.7866563563230784
 21
24.195071967694151
 31
0.0
  0
LINE
  5
6A05
  8
0
 10
370.3235271568082112
 20
23.2383790542941604
 30
0.0
 11
370.7866563563291038
 21
23.2383790543945707
 31
0.0
  0
LINE
  5
6A06
  8
0
 10
370.8338532078354888
 20
24.1136039764635193
 30
0.0
 11
370.9053063829347821
 21
24.1132298450941498
 31
0.0
  0
ARC
  5
6A07
  8
0
 10
370.8339563563231991
 20
24.1333037064208114
 30
0.0
 40
0.0197
 50
180.0000000000025864
 51
269.6999999996618271
  0
LINE
  5
6A08
  8
0
 10
370.8338532078354888
 20
23.3198470456247584
 30
0.0
 11
370.9053063829347821
 21
23.3202211769941385
 31
0.0
  0
ARC
  5
6A09
  8
0
 10
370.8339563563231991
 20
23.3001473156674912
 30
0.0
 40
0.0197
 50
90.3000000003381729
 51
179.9999999999972999
  0
LINE
  5
6A0A
  8
0
 10
370.4649272700719962
 20
24.1103801343941484
 30
0.0
 11
370.6448980503977282
 21
24.1103801343941484
 31
0.0
  0
LINE
  5
6A0B
  8
0
 10
370.4664693854423945
 20
23.3230708875941417
 30
0.0
 11
370.6433539578347904
 21
23.3230708875941417
 31
0.0
  0
ARC
  5
6A0C
  8
0
 10
370.4683001770603141
 20
24.0716120752737908
 30
0.0
 40
0.0389145076997133
 50
94.9723390626041635
 51
131.3669936477465114
  0
ARC
  5
6A0D
  8
0
 10
370.518012007562902
 20
24.0151595471088299
 30
0.0
 40
0.1141352098244154
 50
131.3669936477465114
 51
145.6650978408312938
  0
ARC
  5
6A0E
  8
0
 10
370.5990605760387098
 20
23.9597995866520499
 30
0.0
 40
0.212286092009683
 50
145.6650978408310095
 51
161.2006049653556943
  0
ARC
  5
6A0F
  8
0
 10
371.4784632981788945
 20
23.6604368416277886
 30
0.0
 40
1.1412463714705441
 50
161.2006049653556943
 51
164.7945135110915942
  0
ARC
  5
6A10
  8
0
 10
371.4089275530873238
 20
23.6793364356914289
 30
0.0
 40
1.0691879611271919
 50
164.7945135110915942
 51
168.0400231076752107
  0
ARC
  5
6A11
  8
0
 10
371.2324178506261205
 20
23.7167258814034199
 30
0.0
 40
0.8887616722622368
 50
168.0400231076752107
 51
191.9601200557748086
  0
ARC
  5
6A12
  8
0
 10
371.3831457662910793
 20
23.7486544530423203
 30
0.0
 40
1.0428341819698981
 50
191.9601200557748086
 51
195.2873966634028875
  0
ARC
  5
6A13
  8
0
 10
370.8723193967500151
 20
23.5883329577673315
 30
0.0
 40
0.50820493896428
 50
193.0360842178729968
 51
203.4011130030714867
  0
ARC
  5
6A14
  8
0
 10
370.5942833979630109
 20
23.4689565185165705
 30
0.0
 40
0.2056278670327444
 50
203.6432527989223047
 51
215.7579273603342074
  0
ARC
  5
6A15
  8
0
 10
370.49757917153471
 20
23.3996102719497685
 30
0.0
 40
0.0866300652850312
 50
215.9141908148093876
 51
231.955846077379789
  0
ARC
  5
6A16
  8
0
 10
370.467722443044579
 20
23.3604287357395286
 30
0.0
 40
0.0373787910484666
 50
230.9853602415066121
 51
268.0819332096091898
  0
ARC
  5
6A17
  8
0
 10
370.6415251434094102
 20
24.0716120752737908
 30
0.0
 40
0.0389145076997133
 50
48.6330063522534601
 51
85.0276609373958649
  0
ARC
  5
6A18
  8
0
 10
370.5918133129068224
 20
24.0151595471088299
 30
0.0
 40
0.1141352098244154
 50
34.3349021591687276
 51
48.6330063522534601
  0
ARC
  5
6A19
  8
0
 10
370.5107647444310146
 20
23.9597995866520499
 30
0.0
 40
0.212286092009683
 50
18.7993950346442418
 51
34.3349021591689834
  0
ARC
  5
6A1A
  8
0
 10
369.6313620222908867
 20
23.6604368416277886
 30
0.0
 40
1.1412463714705441
 50
15.2054864889084005
 51
18.7993950346444301
  0
ARC
  5
6A1B
  8
0
 10
369.7008977673825143
 20
23.6793364356914289
 30
0.0
 40
1.0691879611271919
 50
11.9599768923248
 51
15.2054864889084005
  0
ARC
  5
6A1C
  8
0
 10
369.8774074698436038
 20
23.7167258814034199
 30
0.0
 40
0.8887616722622368
 50
348.0398799442251061
 51
11.9599768923248
  0
ARC
  5
6A1D
  8
0
 10
369.7266795541785882
 20
23.7486544530423203
 30
0.0
 40
1.0428341819698981
 50
344.7126033365971125
 51
348.0398799442248787
  0
ARC
  5
6A1E
  8
0
 10
370.2375059237195956
 20
23.5883329577673315
 30
0.0
 40
0.50820493896428
 50
336.598886996928286
 51
346.9639157821270032
  0
ARC
  5
6A1F
  8
0
 10
370.5155419225067135
 20
23.4689565185165705
 30
0.0
 40
0.2056278670327444
 50
324.242072639665821
 51
336.35674720107761
  0
ARC
  5
6A20
  8
0
 10
370.6122461489351281
 20
23.3996102719497685
 30
0.0
 40
0.0866300652850312
 50
308.0441539226201257
 51
324.0858091851904987
  0
ARC
  5
6A21
  8
0
 10
370.6421028774250885
 20
23.3604287357395286
 30
0.0
 40
0.0373787910484666
 50
271.9180667903909239
 51
309.0146397584933879
  0
LINE
  5
6A23
  8
0
 10
368.4407394537370237
 20
22.1140628174156184
 30
0.0
 11
368.4407394537370237
 21
18.6264458253031115
 31
0.0
  0
LINE
  5
6A24
  8
0
 10
367.9682985088369946
 20
22.1140628175156202
 30
0.0
 11
367.9682985088369946
 21
18.6264458257351393
 31
0.0
  0
LINE
  5
6A25
  8
0
 10
367.974068505247601
 20
22.1279928211049892
 30
0.0
 11
367.9850290942370066
 21
22.1389534100943699
 31
0.0
  0
LINE
  5
6A26
  8
0
 10
367.9850290942370066
 20
22.1389534100943699
 30
0.0
 11
368.4164779013369753
 21
22.1464843769943691
 31
0.0
  0
LINE
  5
6A27
  8
0
 10
368.4164779013369753
 20
22.1464843769943691
 30
0.0
 11
368.4349694573264173
 21
22.127992821004991
 31
0.0
  0
ARC
  5
6A28
  8
0
 10
368.4210394537370235
 20
22.1140628174156184
 30
0.0
 40
0.0197
 50
0.0
 51
44.9999999999995595
  0
ARC
  5
6A29
  8
0
 10
367.9879985088369949
 20
22.1140628175156095
 30
0.0
 40
0.0197
 50
135.0000000000052012
 51
179.9999999999967031
  0
LINE
  5
6A2A
  8
0
 10
367.9740709405821804
 20
18.6125133872368416
 30
0.0
 11
367.9850329965369724
 21
18.6015551631943588
 31
0.0
  0
LINE
  5
6A2B
  8
0
 10
367.9850329965369724
 20
18.6015551631943588
 30
0.0
 11
368.4164730258369786
 21
18.5940243494943616
 31
0.0
  0
LINE
  5
6A2C
  8
0
 10
368.4164730258369786
 20
18.5940243494943616
 30
0.0
 11
368.4349675893976155
 21
18.6125139540354283
 31
0.0
  0
ARC
  5
6A2D
  8
0
 10
368.4210394537370235
 20
18.6264458253031115
 30
0.0
 40
0.0197
 50
314.9923174995063277
 51
359.9999999999968168
  0
ARC
  5
6A2E
  8
0
 10
367.9879985088369949
 20
18.6264458257351393
 30
0.0
 40
0.0197
 50
179.9999999999978968
 51
225.0100159486611915
  0
ARC
  5
6A2F
  8
0
 10
368.0360542386977727
 20
22.1144578396443698
 30
0.0
 40
0.0510264996764317
 50
151.1695746948568058
 51
208.8304252497223956
  0
ARC
  5
6A30
  8
0
 10
368.1701642336602163
 20
22.0418738501443698
 30
0.0
 40
0.1851365758338613
 50
164.9803995441527036
 51
195.0196004558472964
  0
ARC
  5
6A31
  8
0
 10
368.364028926759886
 20
21.9249514801943697
 30
0.0
 40
0.3790001143011477
 50
169.5189045792110107
 51
190.481095420788904
  0
ARC
  5
6A32
  8
0
 10
368.5790544155976818
 20
21.7695537056943706
 30
0.0
 40
0.594026780168905
 50
171.631567161040806
 51
188.368432838959194
  0
ARC
  5
6A33
  8
0
 10
368.7730566176031743
 20
21.5834871639785497
 30
0.0
 40
0.7880255043476123
 50
172.73790001303081
 51
187.2642347478883948
  0
ARC
  5
6A34
  8
0
 10
368.8771974567712277
 20
21.3777816767053999
 30
0.0
 40
0.8921682808125165
 50
173.1723823310599926
 51
187.0529861426606999
  0
ARC
  5
6A35
  8
0
 10
368.8808342216229903
 20
21.1584605120555587
 30
0.0
 40
0.8958054887411684
 50
172.9611337258318997
 51
180.0514633364732902
  0
LINE
  5
6A36
  8
0
 10
367.9850290942370066
 20
21.1576558954943685
 30
0.0
 11
367.9850273851076281
 21
19.5828533825845703
 31
0.0
  0
ARC
  5
6A37
  8
0
 10
368.9621740109145094
 20
19.5832465809560503
 30
0.0
 40
0.9771467049173136
 50
180.0230555019952021
 51
186.5209948951703893
  0
ARC
  5
6A38
  8
0
 10
369.0086358712342189
 20
19.358567171240189
 30
0.0
 40
1.023621846137208
 50
173.6222206205235068
 51
185.7129814631634872
  0
ARC
  5
6A39
  8
0
 10
368.7426597779776216
 20
19.1617894904614801
 30
0.0
 40
0.7585190651096227
 50
172.814207188516491
 51
187.9096253789431898
  0
ARC
  5
6A3A
  8
0
 10
368.5788468764113759
 20
18.9709397508731783
 30
0.0
 40
0.5938192409474484
 50
171.6270838674801951
 51
188.3698976729857861
  0
ARC
  5
6A3B
  8
0
 10
368.4874033122707147
 20
18.8155571611943699
 30
0.0
 40
0.500819120731557
 50
172.0873561615231893
 51
187.9126438384774076
  0
ARC
  5
6A3C
  8
0
 10
368.1701643499865213
 20
18.6986347912443591
 30
0.0
 40
0.1851366881861398
 50
164.9804088736536016
 51
195.0195911263463984
  0
ARC
  5
6A3D
  8
0
 10
368.0360542388929161
 20
18.6260508016943582
 30
0.0
 40
0.0510264998714179
 50
151.1695748067064926
 51
208.8304251003395962
  0
ARC
  5
6A3E
  8
0
 10
368.3729837238760751
 20
22.1144578396443698
 30
0.0
 40
0.0510264996764317
 50
331.1695747502772065
 51
38.7830627035284792
  0
ARC
  5
6A3F
  8
0
 10
368.2388737289139158
 20
22.0418738501443698
 30
0.0
 40
0.1851365758338613
 50
344.9803995441525899
 51
15.01960045584722
  0
ARC
  5
6A40
  8
0
 10
368.0450090358140756
 20
21.9249514801943697
 30
0.0
 40
0.3790001143011477
 50
349.5189045792109255
 51
10.4810954207889804
  0
ARC
  5
6A41
  8
0
 10
367.8299835469763934
 20
21.7695537056943706
 30
0.0
 40
0.594026780168905
 50
351.6315671610407776
 51
8.3684328389592082
  0
ARC
  5
6A42
  8
0
 10
367.6359813449709009
 20
21.5834871639785497
 30
0.0
 40
0.7880255043476123
 50
352.7357652521113778
 51
7.2620999869692424
  0
ARC
  5
6A43
  8
0
 10
367.5318405058027906
 20
21.3777816767053999
 30
0.0
 40
0.8921682808125165
 50
352.9470138573391864
 51
6.8276176689398458
  0
ARC
  5
6A44
  8
0
 10
367.5282037409510281
 20
21.1584605120555587
 30
0.0
 40
0.8958054887411684
 50
359.9485366635266814
 51
7.0388662741680648
  0
LINE
  5
6A45
  8
0
 10
368.4240088683370118
 20
21.1576558954943685
 30
0.0
 11
368.4240105774663903
 21
19.5828533825845703
 31
0.0
  0
ARC
  5
6A46
  8
0
 10
367.446863951659509
 20
19.5832465809560503
 30
0.0
 40
0.9771467049173136
 50
353.4790051048295823
 51
359.9769444980046273
  0
ARC
  5
6A47
  8
0
 10
367.4004020913397994
 20
19.358567171240189
 30
0.0
 40
1.023621846137208
 50
354.2870185368365128
 51
6.3777793794764728
  0
ARC
  5
6A48
  8
0
 10
367.6663781845962831
 20
19.1617894904614801
 30
0.0
 40
0.7585190651096227
 50
352.0903746210565828
 51
7.1857928114834024
  0
ARC
  5
6A49
  8
0
 10
367.8301910861625856
 20
18.9709397508731783
 30
0.0
 40
0.5938192409474484
 50
351.6301023270140718
 51
8.3729161325198298
  0
ARC
  5
6A4A
  8
0
 10
367.9216346503033037
 20
18.8155571611943699
 30
0.0
 40
0.500819120731557
 50
352.0873561615226208
 51
7.9126438384767921
  0
ARC
  5
6A4B
  8
0
 10
368.2388736125876108
 20
18.6986347912443591
 30
0.0
 40
0.1851366881861398
 50
344.9804088736534027
 51
15.0195911263464001
  0
ARC
  5
6A4C
  8
0
 10
368.3729837236811022
 20
18.6260508016943582
 30
0.0
 40
0.0510264998714179
 50
321.2169375391566746
 51
28.8304251932934505
  0
LINE
  5
6A4D
  8
0
 10
367.9913524361369923
 20
22.0898518948943092
 30
0.0
 11
368.4176855264370261
 21
22.0898518948943696
 31
0.0
  0
LINE
  5
6A4E
  8
0
 10
367.9913524361369923
 20
21.9938958053943701
 30
0.0
 11
368.4176855264370261
 21
21.9938958053943701
 31
0.0
  0
LINE
  5
6A4F
  8
0
 10
367.9913524361369923
 20
21.8560071549943409
 30
0.0
 11
368.4176855264370261
 21
21.8560071549943693
 31
0.0
  0
LINE
  5
6A50
  8
0
 10
367.9913524361369923
 20
21.6831002563943684
 30
0.0
 11
368.4176855264370261
 21
21.6831002563943684
 31
0.0
  0
LINE
  5
6A51
  8
0
 10
367.9913561481246234
 20
21.4838449464231189
 30
0.0
 11
368.417681814449395
 21
21.4838449464231616
 31
0.0
  0
LINE
  5
6A52
  8
0
 10
367.9917801914107827
 20
21.268234848866431
 30
0.0
 11
368.4172577711631789
 21
21.268234848866431
 31
0.0
  0
LINE
  5
6A53
  8
0
 10
367.9913491443002158
 20
19.4722746867931313
 30
0.0
 11
368.4176888182738026
 21
19.4722746867931491
 31
0.0
  0
LINE
  5
6A54
  8
0
 10
367.9900983122057028
 20
19.2566705337211097
 30
0.0
 11
368.4189396503683156
 21
19.2566705337211204
 31
0.0
  0
LINE
  5
6A55
  8
0
 10
367.9913569906977955
 20
19.0574089656477312
 30
0.0
 11
368.4176809718761092
 21
19.0574089656477312
 31
0.0
  0
LINE
  5
6A56
  8
0
 10
367.9913524361369923
 20
18.8845014863943703
 30
0.0
 11
368.4176855264370261
 21
18.8845014863943597
 31
0.0
  0
LINE
  5
6A57
  8
0
 10
367.9913524361369923
 20
18.7466128359943802
 30
0.0
 11
368.4176855264370261
 21
18.7466128359943696
 31
0.0
  0
LINE
  5
6A58
  8
0
 10
367.9913524361369923
 20
18.6506567464943416
 30
0.0
 11
368.4176855264370261
 21
18.6506567464943416
 31
0.0
  0
LINE
  5
6A59
  8
0
 10
367.9850290942370066
 20
21.1576558954943685
 30
0.0
 11
368.4240092296922171
 21
21.1584605120555587
 31
0.0
  0
ARC
  5
6A5A
  8
0
 10
368.5859264422369961
 20
22.0091615871943809
 30
0.0
 40
0.1573677809000297
 50
202.6913029252743002
 51
219.794926941230699
  0
ARC
  5
6A5B
  8
0
 10
-2392.9508781317649664
 20
-2278.4023496708018683
 30
0.0
 40
3594.0015942219069984
 50
39.787357415640642
 51
39.79492694123077
  0
ARC
  5
6A5C
  8
0
 10
368.844512916198596
 20
21.6065772455930194
 30
0.0
 40
0.098410773625646
 50
219.7873574156405141
 51
269.203722820859582
  0
ARC
  5
6A5D
  8
0
 10
362.3114358321798818
 20
-448.4478892809646027
 30
0.0
 40
470.0014537208799084
 50
89.1953492259342227
 51
89.2037228208596531
  0
ARC
  5
6A5E
  8
0
 10
368.5352406334870921
 20
25.4426899293152395
 30
0.0
 40
4.638519637706068
 50
268.8326246703533116
 51
270.4319339953465828
  0
ARC
  5
6A5F
  8
0
 10
368.2089645919617169
 20
68.7221867848214742
 30
0.0
 40
47.9192463428001787
 50
270.4319339953465828
 51
270.8404251289579747
  0
ARC
  5
6A60
  8
0
 10
368.6214362760791232
 20
22.1313596071818388
 30
0.0
 40
0.6307613023569285
 50
253.3530128533670904
 51
264.8194397915131049
  0
ARC
  5
6A61
  8
0
 10
368.5978653989240001
 20
21.871382036977181
 30
0.0
 40
0.3697173917606748
 50
264.8194397915131049
 51
297.5540556097512876
  0
LINE
  5
6A62
  8
0
 10
371.8423142585681944
 20
24.2088369978943696
 30
0.0
 11
371.5459830971952897
 21
24.2088369978943696
 31
0.0
  0
LINE
  5
6A63
  8
0
 10
371.5507189271967263
 20
23.2245850292943707
 30
0.0
 11
371.8423142596756747
 21
23.2245850292943707
 31
0.0
  0
ENDSEC
  0
EOF
