  0
SECTION
  2
HEADER
  9
$ACADVER
  1
AC1009
  9
$INSBASE
 10
2893.4520353109141979
 20
148.0714709009531873
 30
0.0
  9
$EXTMIN
 10
2888.9953434381368425
 20
144.5281638143532064
 30
0.0
  9
$EXTMAX
 10
2893.4520353109141979
 20
151.6147779875531967
 30
0.0
  9
$LIMMIN
 10
0.0
 20
0.0
  9
$LIMMAX
 10
11.6929133858000007
 20
8.2677165353999982
  9
$ORTHOMODE
 70
     0
  9
$REGENMODE
 70
     1
  9
$FILLMODE
 70
     1
  9
$QTEXTMODE
 70
     0
  9
$MIRRTEXT
 70
     0
  9
$DRAGMODE
 70
     2
  9
$LTSCALE
 40
0.6431102362
  9
$OSMODE
 70
  3839
  9
$ATTMODE
 70
     1
  9
$TEXTSIZE
 40
0.2
  9
$TRACEWID
 40
0.05
  9
$TEXTSTYLE
  7
STANDARD
  9
$CLAYER
  8
0
  9
$CELTYPE
  6
BYLAYER
  9
$CECOLOR
 62
   256
  9
$DIMSCALE
 40
1.0
  9
$DIMASZ
 40
0.1875
  9
$DIMEXO
 40
0.0625
  9
$DIMDLI
 40
0.4443307087
  9
$DIMRND
 40
0.0
  9
$DIMDLE
 40
0.0
  9
$DIMEXE
 40
0.125
  9
$DIMTP
 40
0.01
  9
$DIMTM
 40
0.01
  9
$DIMTXT
 40
2.0
  9
$DIMCEN
 40
0.1052362205
  9
$DIMTSZ
 40
0.0
  9
$DIMTOL
 70
     1
  9
$DIMLIM
 70
     0
  9
$DIMTIH
 70
     1
  9
$DIMTOH
 70
     1
  9
$DIMSE1
 70
     0
  9
$DIMSE2
 70
     0
  9
$DIMTAD
 70
     0
  9
$DIMZIN
 70
     0
  9
$DIMBLK
  1

  9
$DIMASO
 70
     1
  9
$DIMSHO
 70
     1
  9
$DIMPOST
  1
\X
  9
$DIMAPOST
  1

  9
$DIMALT
 70
     1
  9
$DIMALTD
 70
     2
  9
$DIMALTF
 40
25.3999999999999986
  9
$DIMLFAC
 40
1.0
  9
$DIMTOFL
 70
     0
  9
$DIMTVP
 40
0.0
  9
$DIMTIX
 70
     0
  9
$DIMSOXD
 70
     0
  9
$DIMSAH
 70
     0
  9
$DIMBLK1
  1

  9
$DIMBLK2
  1

  9
$DIMSTYLE
  2
STANDARD
  9
$DIMCLRD
 70
     0
  9
$DIMCLRE
 70
     0
  9
$DIMCLRT
 70
     0
  9
$DIMTFAC
 40
1.0
  9
$DIMGAP
 40
0.09
  9
$LUNITS
 70
     2
  9
$LUPREC
 70
     4
  9
$SKETCHINC
 40
0.1
  9
$FILLETRAD
 40
0.0
  9
$AUNITS
 70
     0
  9
$AUPREC
 70
     0
  9
$MENU
  1
.
  9
$ELEVATION
 40
0.0
  9
$PELEVATION
 40
0.0
  9
$THICKNESS
 40
0.0
  9
$LIMCHECK
 70
     0
  9
$BLIPMODE
 70
     0
  9
$CHAMFERA
 40
0.0
  9
$CHAMFERB
 40
0.0
  9
$SKPOLY
 70
     0
  9
$TDCREATE
 40
2458060.468368056230247
  9
$TDUPDATE
 40
2459016.7928125010803342
  9
$TDINDWG
 40
0.3094746528
  9
$TDUSRTIMER
 40
0.3094746528
  9
$USRTIMER
 70
     1
  9
$ANGBASE
 50
0.0
  9
$ANGDIR
 70
     0
  9
$PDMODE
 70
     0
  9
$PDSIZE
 40
0.3125
  9
$PLINEWID
 40
0.0
  9
$COORDS
 70
     1
  9
$SPLFRAME
 70
     0
  9
$SPLINETYPE
 70
     6
  9
$SPLINESEGS
 70
     8
  9
$ATTDIA
 70
     1
  9
$ATTREQ
 70
     1
  9
$HANDLING
 70
     1
  9
$HANDSEED
  5
718F
  9
$SURFTAB1
 70
     6
  9
$SURFTAB2
 70
     6
  9
$SURFTYPE
 70
     6
  9
$SURFU
 70
     6
  9
$SURFV
 70
     6
  9
$UCSNAME
  2

  9
$UCSORG
 10
0.0
 20
0.0
 30
0.0
  9
$UCSXDIR
 10
1.0
 20
0.0
 30
0.0
  9
$UCSYDIR
 10
0.0
 20
1.0
 30
0.0
  9
$PUCSNAME
  2

  9
$PUCSORG
 10
0.0
 20
0.0
 30
0.0
  9
$PUCSXDIR
 10
1.0
 20
0.0
 30
0.0
  9
$PUCSYDIR
 10
0.0
 20
1.0
 30
0.0
  9
$USERI1
 70
     0
  9
$USERI2
 70
     0
  9
$USERI3
 70
     0
  9
$USERI4
 70
     0
  9
$USERI5
 70
     0
  9
$USERR1
 40
0.0
  9
$USERR2
 40
0.0
  9
$USERR3
 40
0.0
  9
$USERR4
 40
0.0
  9
$USERR5
 40
0.0
  9
$WORLDVIEW
 70
     1
  9
$SHADEDGE
 70
     3
  9
$SHADEDIF
 70
    70
  9
$TILEMODE
 70
     1
  9
$MAXACTVP
 70
    64
  9
$PLIMCHECK
 70
     0
  9
$PEXTMIN
 10
1.0000000000000000E+20
 20
1.0000000000000000E+20
 30
1.0000000000000000E+20
  9
$PEXTMAX
 10
-1.0000000000000000E+20
 20
-1.0000000000000000E+20
 30
-1.0000000000000000E+20
  9
$PLIMMIN
 10
0.0
 20
0.0
  9
$PLIMMAX
 10
12.0
 20
9.0
  9
$UNITMODE
 70
     0
  9
$VISRETAIN
 70
     1
  9
$PLINEGEN
 70
     0
  9
$PSLTSCALE
 70
     1
  0
ENDSEC
  0
SECTION
  2
TABLES
  0
TABLE
  2
VPORT
 70
     1
  0
VPORT
  2
*ACTIVE
 70
     0
 10
0.0
 20
0.0
 11
1.0
 21
1.0
 12
28.9081775894156507
 22
1.4804905017078061
 13
0.0
 23
0.0
 14
1.0
 24
1.0
 15
0.0
 25
0.0
 16
0.0
 26
0.0
 36
30.1241266108570898
 17
2863.1249790072511132
 27
147.6709518432616903
 37
0.0
 40
13.58551457435847
 41
2.3528591352859132
 42
50.0
 43
0.0
 44
0.0
 50
0.0
 51
0.0
 71
     0
 72
   100
 73
     1
 74
     1
 75
     0
 76
     0
 77
     0
 78
     0
  0
ENDTAB
  0
TABLE
  2
LTYPE
 70
     2
  0
LTYPE
  2
CONTINUOUS
 70
     0
  3
Solid line
 72
    65
 73
     0
 40
0.0
  0
LTYPE
  2
PHANTOM2
 70
     0
  3
___ _ _ ___ _ _ ___ _ _ ___ _ _
 72
    65
 73
     6
 40
1.25
 49
0.625
 49
-0.125
 49
0.125
 49
-0.125
 49
0.125
 49
-0.125
  0
ENDTAB
  0
TABLE
  2
LAYER
 70
     2
  0
LAYER
  2
0
 70
     0
 62
   255
  6
CONTINUOUS
  0
LAYER
  2
DEFPOINTS
 70
     0
 62
     7
  6
CONTINUOUS
  0
ENDTAB
  0
TABLE
  2
STYLE
 70
     1
  0
STYLE
  2
STANDARD
 70
     0
 40
0.0
 41
0.8
 50
0.0
 71
     0
 42
0.2
  3
txt
  4

  0
ENDTAB
  0
TABLE
  2
VIEW
 70
     0
  0
ENDTAB
  0
TABLE
  2
UCS
 70
     0
  0
ENDTAB
  0
TABLE
  2
APPID
 70
     9
  0
APPID
  2
ACAD
 70
     0
  0
APPID
  2
ACAD_MLEADERVER
 70
     0
  0
APPID
  2
ACAD_EXEMPT_FROM_CAD_STANDARDS
 70
     0
  0
APPID
  2
ACAD_NAV_VCDISPLAY
 70
     0
  0
APPID
  2
ACAECLAYERSTANDARD
 70
     0
  0
APPID
  2
ACCMTRANSPARENCY
 70
     0
  0
APPID
  2
ACAD_DSTYLE_DIMJAG
 70
     0
  0
APPID
  2
ACAD_DSTYLE_DIMTALN
 70
     0
  0
APPID
  2
ACDBATTR
 70
     0
  0
ENDTAB
  0
TABLE
  2
DIMSTYLE
 70
     1
  0
DIMSTYLE
  2
STANDARD
 70
     0
  3

  4

  5

  6

  7

 40
1.0
 41
0.1875
 42
0.0625
 43
0.38
 44
0.125
 45
0.0
 46
0.0
 47
0.01
 48
0.01
140
0.15625
141
0.09
142
0.0
143
25.3999999999999986
144
1.0
145
0.0
146
1.0
147
0.09
 71
     1
 72
     0
 73
     1
 74
     1
 75
     0
 76
     0
 77
     0
 78
     4
170
     0
171
     2
172
     0
173
     0
174
     0
175
     0
176
     0
177
     0
178
     0
  0
ENDTAB
  0
ENDSEC
  0
SECTION
  2
BLOCKS
  0
BLOCK
  8
0
  2
$MODEL_SPACE
 70
     0
 10
0.0
 20
0.0
 30
0.0
  3
$MODEL_SPACE
  1

  0
ENDBLK
  5
21
  8
0
  0
BLOCK
 67
     1
  8
0
  2
$PAPER_SPACE
 70
     0
 10
0.0
 20
0.0
 30
0.0
  3
$PAPER_SPACE
  1

  0
ENDBLK
  5
1D
 67
     1
  8
0
  0
BLOCK
  8
0
  2
_FILLED
 70
     0
 10
0.0
 20
0.0
 30
0.0
  3
_FILLED
  1

  0
SOLID
  5
6A5E
  8
0
  6
BYBLOCK
 62
     0
 10
0.0
 20
0.0
 30
0.0
 11
-1.0
 21
0.1666666667
 31
0.0
 12
-1.0
 22
-0.1666666667
 32
0.0
 13
-1.0
 23
-0.1666666667
 33
0.0
  0
ENDBLK
  5
6A5F
  8
0
  6
BYBLOCK
 62
     0
  0
BLOCK
  8
0
  2
A$C59433B02
 70
     0
 10
0.0
 20
0.0
 30
0.0
  3
A$C59433B02
  1

  0
ARC
  5
6AC5
  8
DEFPOINTS
 10
2.5472440946406709
 20
6.998871609200001
 30
0.0
 40
0.0393700786999993
 50
95.000000071388996
 51
180.0000000000005969
  0
LINE
  5
6AC6
  8
DEFPOINTS
 10
2.5438127661406709
 20
7.0380918728601207
 30
0.0
 11
3.0984251969001728
 21
7.0866141732000001
 31
0.0
  0
LINE
  5
6AC7
  8
DEFPOINTS
 10
2.5078740159406698
 20
2.8937007873999971
 30
0.0
 11
1.75984251984067
 21
2.8937007873999989
 31
0.0
  0
ARC
  5
6AC8
  8
DEFPOINTS
 10
1.75984251984067
 20
2.8740157479999979
 30
0.0
 40
0.0196850394000005
 50
90.0000000000002984
 51
179.9999999999986073
  0
LINE
  5
6AC9
  8
DEFPOINTS
 10
1.7401574804406721
 20
2.8051181102
 30
0.0
 11
1.692913385940668
 21
2.8051181102
 31
0.0
  0
ARC
  5
6ACA
  8
DEFPOINTS
 10
1.673228345614532
 20
3.4645668835249221
 30
0.0
 40
0.019685041877313
 50
359.9772542703944964
 51
89.9999970132985538
  0
LINE
  5
6ACB
  8
DEFPOINTS
 10
1.673228346640669
 20
3.4842519254022331
 30
0.0
 11
0.019685039540672
 21
3.4842520115977651
 31
0.0
  0
ARC
  5
6ACC
  8
DEFPOINTS
 10
0.0196850385144121
 20
3.4645669732240258
 30
0.0
 40
0.0196850383737397
 50
89.9999970129413072
 51
180.000000000871097
  0
LINE
  5
6ACD
  8
DEFPOINTS
 10
2.5078740159406729
 20
1.1614173227999971
 30
0.0
 11
1.7598425198406671
 21
1.1614173227999991
 31
0.0
  0
ARC
  5
6ACE
  8
DEFPOINTS
 10
1.7598425198406671
 20
1.181102362200001
 30
0.0
 40
0.0196850394000005
 50
180.0000000000011084
 51
269.9999999999996021
  0
ARC
  5
6ACF
  8
DEFPOINTS
 10
1.673228345614532
 20
1.181102364677312
 30
0.0
 40
0.019685041877313
 50
270.0000029867013041
 51
0.0227457296053557
  0
LINE
  5
6AD0
  8
DEFPOINTS
 10
1.673228346640669
 20
1.1614173227999991
 30
0.0
 11
1.1023622039680161
 21
1.1614173231541001
 31
0.0
  0
LINE
  5
6AD1
  8
DEFPOINTS
 10
0.472440945000173
 20
1.1614173227999991
 30
0.0
 11
0.0196850395406703
 21
1.1614172366044679
 31
0.0
  0
ARC
  5
6AD2
  8
DEFPOINTS
 10
0.0196850385145329
 20
1.1811022749785069
 30
0.0
 40
0.0196850383740386
 50
179.999758074879793
 51
270.0000029867009061
  0
ARC
  5
6AD3
  8
DEFPOINTS
 10
2.5472440946406669
 20
0.0877425640000027
 30
0.0
 40
0.0393700786999993
 50
179.9999999999992042
 51
264.9999999286109755
  0
LINE
  5
6AD4
  8
DEFPOINTS
 10
2.5438127661406682
 20
0.0485223003398829
 30
0.0
 11
3.0984251969001728
 21
0.0
 31
0.0
  0
LINE
  5
6AD5
  8
DEFPOINTS
 10
3.0984251969001728
 20
7.0866141732000001
 30
0.0
 11
3.0984251969001728
 21
0.0
 31
0.0
  0
LINE
  5
6AD6
  8
DEFPOINTS
 10
2.5078740159406721
 20
6.998871609200001
 30
0.0
 11
2.5078740159406721
 21
0.0877425640000027
 31
0.0
  0
LINE
  5
6AD7
  8
DEFPOINTS
 10
1.7401574804406721
 20
2.8740157479999979
 30
0.0
 11
1.7401574804406681
 21
1.181102362200001
 31
0.0
  0
LINE
  5
6AD8
  8
DEFPOINTS
 10
1.692913385940668
 20
3.4645590687995149
 30
0.0
 11
1.69291338594067
 21
1.1811101794000001
 31
0.0
  0
LINE
  5
6AD9
  8
DEFPOINTS
 10
0.0000000001406715
 20
3.4645669732237261
 30
0.0
 11
0.0000000001406697
 21
1.181102358096414
 31
0.0
  0
LINE
  5
6ADA
  8
DEFPOINTS
 10
1.7401574804406701
 20
1.25
 30
0.0
 11
1.692913385940668
 21
1.25
 31
0.0
  0
LINE
  5
6ADB
  8
DEFPOINTS
 10
2.5078740159406698
 20
5.8464566928999959
 30
0.0
 11
1.75984251984067
 21
5.8464566928999986
 31
0.0
  0
ARC
  5
6ADC
  8
DEFPOINTS
 10
1.75984251984067
 20
5.826771653499998
 30
0.0
 40
0.0196850394000005
 50
90.0000000000002984
 51
179.9999999999986073
  0
LINE
  5
6ADD
  8
DEFPOINTS
 10
1.7401574804406721
 20
5.7578740156999988
 30
0.0
 11
1.692913385940668
 21
5.7578740156999979
 31
0.0
  0
ARC
  5
6ADE
  8
DEFPOINTS
 10
1.673228345474036
 20
6.4173227890249223
 30
0.0
 40
0.019685041877313
 50
359.9772542703944964
 51
89.9999970132985538
  0
LINE
  5
6ADF
  8
DEFPOINTS
 10
1.673228346500174
 20
6.4370078309022327
 30
0.0
 11
0.0196850394001764
 21
6.4370079170977661
 31
0.0
  0
ARC
  5
6AE0
  8
DEFPOINTS
 10
0.019685038374039
 20
6.4173228787237271
 30
0.0
 40
0.0196850383740386
 50
89.9999970132991649
 51
180.0002419251198944
  0
LINE
  5
6AE1
  8
DEFPOINTS
 10
2.5078740159406721
 20
4.5078740156999988
 30
0.0
 11
1.7598425198406671
 21
4.5078740156999997
 31
0.0
  0
ARC
  5
6AE2
  8
DEFPOINTS
 10
1.7598425198406671
 20
4.527559055100002
 30
0.0
 40
0.0196850394000005
 50
180.0000000000011084
 51
269.9999999999996021
  0
ARC
  5
6AE3
  8
DEFPOINTS
 10
1.673228345614532
 20
4.5275590575773128
 30
0.0
 40
0.019685041877313
 50
270.0000029867013041
 51
0.0227457296053557
  0
LINE
  5
6AE4
  8
DEFPOINTS
 10
1.673228346640669
 20
4.5078740156999997
 30
0.0
 11
0.0196850395406703
 21
4.507873929504469
 31
0.0
  0
ARC
  5
6AE5
  8
DEFPOINTS
 10
0.0196850385145329
 20
4.527558967878508
 30
0.0
 40
0.0196850383740386
 50
179.999758074879793
 51
270.0000029867009061
  0
LINE
  5
6AE6
  8
DEFPOINTS
 10
1.7401574804406721
 20
5.826771653499998
 30
0.0
 11
1.7401574804406681
 21
4.527559055100002
 31
0.0
  0
LINE
  5
6AE7
  8
DEFPOINTS
 10
1.69291338594067
 20
6.4173153366055491
 30
0.0
 11
1.69291338594067
 21
4.5275668723000013
 31
0.0
  0
LINE
  5
6AE8
  8
DEFPOINTS
 10
0.0000000001406715
 20
6.4173252320729528
 30
0.0
 11
0.0000000001406697
 21
4.5275590509964161
 31
0.0
  0
LINE
  5
6AE9
  8
DEFPOINTS
 10
1.7401574804406681
 20
4.596456692900003
 30
0.0
 11
1.69291338594067
 21
4.5964566929000013
 31
0.0
  0
LINE
  5
6AEA
  8
0
 10
0.5118110237044693
 20
1.17491729026644
 30
0.0
 11
0.5118110235001759
 21
1.140407648999999
 31
0.0
  0
ARC
  5
6AEB
  8
0
 10
0.5314962511843468
 20
1.1404076488834649
 30
0.0
 40
0.019685227684171
 50
179.9999996608119091
 51
269.9995157225965841
  0
LINE
  5
6AEC
  8
0
 10
0.5314960848001729
 20
1.1207224211999991
 30
0.0
 11
1.043307057081891
 21
1.120718095253292
 31
0.0
  0
ARC
  5
6AED
  8
0
 10
1.0433268797674129
 20
1.1403833415841571
 30
0.0
 40
0.0196652563215549
 50
269.9422455322850283
 51
0.056245898836678
  0
LINE
  5
6AEE
  8
0
 10
1.0629921266133799
 20
1.1404026464936881
 30
0.0
 11
1.062984233349638
 21
1.1749199554487739
 31
0.0
  0
ARC
  5
6AEF
  8
0
 10
0.4724171073208919
 20
1.1812346744273881
 30
0.0
 40
0.019817365992016
 50
270.0689190732265956
 51
290.3569733650962803
  0
ARC
  5
6AF0
  8
0
 10
0.7874013984105837
 20
0.3952876090839699
 30
0.0
 40
0.8269053721021153
 50
68.1250024677535748
 51
111.8749744998333995
  0
ARC
  5
6AF1
  8
0
 10
1.102385293140006
 20
1.1812326280689609
 30
0.0
 40
0.0198153183668282
 50
249.6430036024914898
 51
269.933237892910995
  0
ARC
  5
6AF2
  8
0
 10
0.7873930542018801
 20
0.2015471628283371
 30
0.0
 40
0.9784704737101579
 50
73.640508404277341
 51
106.3584515896907021
  0
LINE
  5
6AF3
  8
0
 62
     1
 10
3.0984251969001728
 20
3.5433070866
 30
0.0
 11
12.7091853523932805
 21
11.1200058750597499
 31
0.0
  0
ENDBLK
  5
6AF7
  8
0
  0
ENDSEC
  0
SECTION
  2
ENTITIES
  0
ATTDEF
  5
3930
  8
DEFPOINTS
 10
2893.4411977837121412
 20
148.0702860561335967
 30
0.0
 40
0.001
  1
K-78023T-9
  3

  2
MODELNUMBER
 70
     0
1001
ACDBATTR
1070
     0
1070
     1
  0
ATTDEF
  5
3931
  8
DEFPOINTS
 10
2893.4411977837121412
 20
148.0686193894669884
 30
0.0
 40
0.001
  1
MODULO
  3

  2
TRADENAME
 70
     0
1001
ACDBATTR
1070
     0
1070
     1
  0
ATTDEF
  5
3932
  8
DEFPOINTS
 10
2893.4411977837121412
 20
148.0669527228002949
 30
0.0
 40
0.001
  1
VALVE TRIM
  3

  2
PRODUCT
 70
     0
1001
ACDBATTR
1070
     0
1070
     1
  0
ARC
  5
6FFB
  8
0
 10
2892.9008542086548914
 20
151.5270354235532011
 30
0.0
 40
0.0393700786999993
 50
95.0000000714018284
 51
180.0
  0
LINE
  5
6FFC
  8
0
 10
2892.8974228801548634
 20
151.5662556872132996
 30
0.0
 11
2893.4520353109141979
 21
151.6147779875531967
 31
0.0
  0
LINE
  5
6FFD
  8
0
 10
2892.861484129954988
 20
147.4218646017532137
 30
0.0
 11
2892.1134526338541946
 21
147.4218646017532137
 31
0.0
  0
ARC
  5
6FFE
  8
0
 10
2892.1134526338541946
 20
147.4021795623530977
 30
0.0
 40
0.0196850394000005
 50
90.0
 51
179.9999999999984084
  0
LINE
  5
6FFF
  8
0
 10
2892.0937675944551302
 20
147.3332819245530914
 30
0.0
 11
2892.0465234999551285
 21
147.3332819245530914
 31
0.0
  0
LINE
  5
7000
  8
0
 10
2892.0465234998141568
 20
147.4218646016531977
 30
0.0
 11
2890.2945577783279987
 21
147.4218646017532137
 31
0.0
  0
ARC
  5
7001
  8
0
 10
2890.2945232737201877
 20
147.4022140920573918
 30
0.0
 40
0.0196505399893028
 50
89.8993936336752171
 51
180.0416712665960972
  0
LINE
  5
7002
  8
0
 10
2892.861484129954988
 20
145.6895811371531977
 30
0.0
 11
2892.1134526338541946
 21
145.6895811371531977
 31
0.0
  0
ARC
  5
7003
  8
0
 10
2892.1134526338541946
 20
145.7092661765532
 30
0.0
 40
0.0196850394000005
 50
180.0
 51
270.0
  0
LINE
  5
7004
  8
0
 10
2892.0465235000569919
 20
145.6895811371531977
 30
0.0
 11
2891.455972317981832
 21
145.6895811375073038
 31
0.0
  0
LINE
  5
7005
  8
0
 10
2890.8260510590139347
 20
145.6895811371531977
 30
0.0
 11
2890.2945577804939603
 21
145.6895810509575995
 31
0.0
  0
ARC
  5
7006
  8
0
 10
2890.2945577503010099
 20
145.7092660623312099
 30
0.0
 40
0.0196850113735845
 50
179.9996794861530134
 51
270.0000878809473761
  0
ARC
  5
7007
  8
0
 10
2892.9008542086548914
 20
144.6159063783532019
 30
0.0
 40
0.0393700786999993
 50
179.9999999999984084
 51
264.9999999285981858
  0
LINE
  5
7008
  8
0
 10
2892.8974228801548634
 20
144.5766861146929898
 30
0.0
 11
2893.4520353109141979
 21
144.5281638143532064
 31
0.0
  0
LINE
  5
7009
  8
0
 10
2893.4520353109141979
 20
151.6147779875531967
 30
0.0
 11
2893.4520353109141979
 21
144.5281638143532064
 31
0.0
  0
LINE
  5
700A
  8
0
 10
2892.861484129954988
 20
151.5270354235532011
 30
0.0
 11
2892.861484129954988
 21
144.6159063783532019
 31
0.0
  0
LINE
  5
700B
  8
0
 10
2892.0937675944551302
 20
147.4021795623530977
 30
0.0
 11
2892.0937675944551302
 21
145.7092661765532
 31
0.0
  0
LINE
  5
700C
  8
0
 10
2892.0465235000569919
 20
147.4218646016531977
 30
0.0
 11
2892.0465235000569919
 21
145.6895811371531977
 31
0.0
  0
LINE
  5
700D
  8
0
 10
2890.2748727389280248
 20
147.4021998002050964
 30
0.0
 11
2890.2748727389280248
 21
145.7092661724495883
 31
0.0
  0
LINE
  5
700E
  8
0
 10
2892.0937675944551302
 20
145.7781638143532064
 30
0.0
 11
2892.0465234999551285
 21
145.7781638143532064
 31
0.0
  0
LINE
  5
700F
  8
0
 10
2892.861484129954988
 20
150.3746205072532121
 30
0.0
 11
2892.1134526338541946
 21
150.3746205072532121
 31
0.0
  0
LINE
  5
7010
  8
0
 10
2892.0937675944551302
 20
150.2860378300532034
 30
0.0
 11
2892.0425864920139247
 21
150.2860378300532034
 31
0.0
  0
LINE
  5
7011
  8
0
 10
2892.0425864920139247
 20
150.3746205072532121
 30
0.0
 11
2890.3693581454440391
 21
150.3746205072532121
 31
0.0
  0
ARC
  5
7012
  8
0
 10
2890.3693588870319218
 20
150.3549347262778895
 30
0.0
 40
0.0196857809892234
 50
90.0021584035351054
 51
179.9993466475025059
  0
LINE
  5
7013
  8
0
 10
2892.861484129954988
 20
149.0360378300530897
 30
0.0
 11
2892.1134526338541946
 21
149.0360378300530897
 31
0.0
  0
LINE
  5
7014
  8
0
 10
2892.0425864920139247
 20
149.0360378300530897
 30
0.0
 11
2890.3693581455841013
 21
149.0360378300530897
 31
0.0
  0
ARC
  5
7015
  8
0
 10
2890.3693571812800656
 20
149.0557219051312927
 30
0.0
 40
0.0196840751017482
 50
179.99859666868619
 51
270.0028068658548932
  0
LINE
  5
7016
  8
0
 10
2892.0937675944551302
 20
150.3549354678532097
 30
0.0
 11
2892.0937675944551302
 21
149.0557228694532057
 31
0.0
  0
LINE
  5
7017
  8
0
 10
2892.0425864920139247
 20
150.3746205072532121
 30
0.0
 11
2892.0425864920139247
 21
149.0360378300530897
 31
0.0
  0
LINE
  5
7018
  8
0
 10
2890.3496731060440652
 20
150.3549349507578938
 30
0.0
 11
2890.3496731061841274
 21
149.055722387248494
 31
0.0
  0
LINE
  5
7019
  8
0
 10
2892.0937675944551302
 20
149.1246205072532121
 30
0.0
 11
2892.0425864920139247
 21
149.1246205072532121
 31
0.0
  0
LINE
  5
701A
  8
0
 10
2890.8654211377179308
 20
145.7030811046195993
 30
0.0
 11
2890.865421137514204
 21
145.6685714633530893
 31
0.0
  0
ARC
  5
701B
  8
0
 10
2890.8851063651982258
 20
145.6685714632365887
 30
0.0
 40
0.019685227684171
 50
179.9999996608113975
 51
269.9995157225894786
  0
LINE
  5
701C
  8
0
 10
2890.8851061988139008
 20
145.6488862355531921
 30
0.0
 11
2891.3969171710959927
 21
145.6488819096063878
 31
0.0
  0
ARC
  5
701D
  8
0
 10
2891.3969173374771344
 20
145.6685668127574047
 30
0.0
 40
0.0196849031516166
 50
269.9995157225894786
 51
0.013103132865307
  0
LINE
  5
701E
  8
0
 10
2891.4166022401141163
 20
145.6685713145531906
 30
0.0
 11
2891.416594347363116
 21
145.703083769801907
 31
0.0
  0
ARC
  5
701F
  8
0
 10
2890.8260272213351527
 20
145.7093984887804936
 30
0.0
 40
0.019817365992016
 50
270.068919073222105
 51
290.3569733650844
  0
ARC
  5
7020
  8
0
 10
2891.1410115124240292
 20
144.9234514234370863
 30
0.0
 40
0.8269053721021153
 50
68.1250024677412256
 51
111.8749744998330016
  0
ARC
  5
7021
  8
0
 10
2891.4559954071542052
 20
145.7093964424221042
 30
0.0
 40
0.0198153183668282
 50
249.643003602493593
 51
269.9332378929054244
  0
ARC
  5
7022
  8
0
 10
2891.1410114355339829
 20
144.7296534564258081
 30
0.0
 40
0.9785279944274133
 50
73.6420016050951745
 51
106.3579674831954947
  0
LINE
  5
7023
  8
0
 10
2892.1134526338541946
 20
150.3746205072532121
 30
0.0
 11
2892.0937675944551302
 21
150.3549354679936982
 31
0.0
  0
LINE
  5
7024
  8
0
 10
2892.0937675944551302
 20
149.0557228693126888
 30
0.0
 11
2892.1134526337141324
 21
149.0360378300530897
 31
0.0
  0
LINE
  5
7025
  8
0
 10
2892.1134526337141324
 20
149.0360378300530897
 30
0.0
 11
2892.1134526337141324
 21
150.3746205071126951
 31
0.0
  0
ARC
  5
7026
  8
0
 10
2890.4323502972529241
 20
147.9927397042820871
 30
0.0
 40
0.0196850650270349
 50
89.9287701592659801
 51
179.9999693946163859
  0
LINE
  5
7027
  8
0
 10
2890.412665232226118
 20
147.9927397147972101
 30
0.0
 11
2890.412665232226118
 21
147.4218646017507979
 31
0.0
  0
ARC
  5
7028
  8
0
 10
2890.4284132636139475
 20
150.9454866489531923
 30
0.0
 40
0.0196850394000077
 50
90.0000000000260485
 51
179.9999999999739089
  0
LINE
  5
7029
  8
0
 10
2890.4087282242139736
 20
150.9454866489531923
 30
0.0
 11
2890.4087282243131085
 21
150.3746205072532121
 31
0.0
  0
ARC
  5
702A
  8
0
 10
2890.5110904290140752
 20
493.3427850753984103
 30
0.0
 40
345.3303692926454005
 50
269.9869398248631001
 51
270.0130601751367863
  0
ARC
  5
702B
  8
0
 10
2890.5898305607120164
 20
147.9927397040954133
 30
0.0
 40
0.0196850652136285
 50
0.0000311487823231
 51
90.0712295880514375
  0
LINE
  5
702C
  8
0
 10
2890.6095156259261785
 20
147.9927397147972101
 30
0.0
 11
2890.6093876374447973
 21
147.4218646017390881
 31
0.0
  0
ARC
  5
702D
  8
0
 10
2890.585893552629841
 20
150.9454866381807108
 30
0.0
 40
0.0196850653840824
 50
0.0000313544645706
 51
90.0712290912844367
  0
LINE
  5
702E
  8
0
 10
2890.6055786180140785
 20
150.9454866489531923
 30
0.0
 11
2890.6055786180140785
 21
150.3746205072532121
 31
0.0
  0
LINE
  5
702F
  8
0
 10
2890.4284132636139475
 20
150.9651716883531947
 30
0.0
 11
2890.5858690805139304
 21
150.9651716883531947
 31
0.0
  0
ARC
  5
7031
  8
0
 10
2909.0559147784970264
 20
1256.8276504036139158
 30
0.0
 40
1110.9528122321689807
 50
268.9937797810861753
 51
269.0062202673714182
  0
ARC
  5
7032
  8
0
 10
2768.6581233791757768
 20
7098.9559689966372389
 30
0.0
 40
6953.9690698755575795
 50
270.9980724395597917
 51
271.0019275512302102
  0
ARC
  5
7033
  8
0
 10
2890.2551849172141374
 20
146.0697911933031889
 30
0.0
 40
0.0196850394000047
 50
270.9999999757146725
 51
359.9999999999869829
  0
ARC
  5
7034
  8
0
 10
2889.018062973727865
 20
147.6271178511823052
 30
0.0
 40
0.5859697734989475
 50
16.2605504852525584
 51
25.6254330080810888
  0
LINE
  5
7035
  8
0
 10
2889.5805929661141818
 20
147.7911927826031899
 30
0.0
 11
2890.1266865940137905
 21
147.0996724777031943
 31
0.0
  0
ARC
  5
7036
  8
0
 10
2890.2039097560750633
 20
147.1606462334391949
 30
0.0
 40
0.0983931687022711
 50
218.293865961949308
 51
269.0040286675235279
  0
LINE
  5
7037
  8
0
 10
2890.2021994758238179
 20
147.0622679299941922
 30
0.0
 11
2890.2555284685140577
 21
147.0613173116032044
 31
0.0
  0
ARC
  5
7038
  8
0
 10
2890.2552182779468239
 20
147.0416680764392936
 30
0.0
 40
0.0196516834065913
 50
359.9602076638951758
 51
89.0955813778323034
  0
ARC
  5
7039
  8
0
 10
2889.5270312677239417
 20
147.8783156819866917
 30
0.0
 40
0.0194933696367442
 50
359.8254104094476133
 51
45.233206682035231
  0
LINE
  5
703A
  8
0
 10
2889.5407589440192169
 20
147.8921555650549067
 30
0.0
 11
2889.5071535937140652
 21
147.925801570353201
 31
0.0
  0
LINE
  5
703B
  8
0
 10
2889.5071535937140652
 20
147.925801570353201
 30
0.0
 11
2889.0263218717141172
 21
147.9174085627032014
 31
0.0
  0
LINE
  5
703C
  8
0
 10
2889.0263218717141172
 20
147.9174085627032014
 30
0.0
 11
2889.0011092234658463
 21
147.8921970655507891
 31
0.0
  0
ARC
  5
703D
  8
0
 10
2889.0150275634669015
 20
147.8782780900669991
 30
0.0
 40
0.0196839545540825
 50
134.9986920249752984
 51
180.0006540206659054
  0
ARC
  5
703E
  8
0
 10
2889.3717531596039407
 20
147.8586759834531961
 30
0.0
 40
0.1354012771304536
 50
345.7546700969281801
 51
14.2453299030718501
  0
ARC
  5
703F
  8
0
 10
2889.2172888179811707
 20
147.7764046067848085
 30
0.0
 40
0.2898656276214637
 50
350.2772744405573917
 51
9.7227255594425959
  0
ARC
  5
7040
  8
0
 10
2889.022546256996975
 20
147.6640784538348043
 30
0.0
 40
0.4846063737861382
 50
352.4857223515184046
 51
7.5142776484815226
  0
ARC
  5
7041
  8
0
 10
2888.8069573002208017
 20
147.5244736299214878
 30
0.0
 40
0.7001957504263469
 50
353.7480710406384219
 51
6.250259394692983
  0
ARC
  5
7042
  8
0
 10
2888.5888857562999874
 20
147.3608667852903125
 30
0.0
 40
0.9182675223670608
 50
354.5492027981944148
 51
5.4588334264107452
  0
ARC
  5
7043
  8
0
 10
2888.3966452513877812
 20
147.1776974714325945
 30
0.0
 40
1.1105079722839271
 50
355.0368945572184884
 51
4.9562424777460707
  0
ARC
  5
7044
  8
0
 10
2888.2423713753478296
 20
146.9790766791234091
 30
0.0
 40
1.2647820945791779
 50
355.349592228125573
 51
4.6505333630771508
  0
ARC
  5
7045
  8
0
 10
2888.0935752454811336
 20
146.7680988224408907
 30
0.0
 40
1.4135795821361901
 50
355.7583194466261034
 51
4.399436280392953
  0
ARC
  5
7046
  8
0
 10
2887.8765177166910689
 20
146.5511439230403994
 30
0.0
 40
1.6306437865803229
 50
0.1608874212318919
 51
3.9525698070573951
  0
ARC
  5
7047
  8
0
 10
2889.4709062791948782
 20
147.9088618048911883
 30
0.0
 40
0.0362481069971042
 50
332.2689251677251718
 51
27.731177734447801
  0
ARC
  5
7048
  8
0
 10
2891.2184930127791631
 20
146.5047431244163931
 30
0.0
 40
2.1935939882703321
 50
175.8655605677699043
 51
178.6683120615743974
  0
ARC
  5
7049
  8
0
 10
2890.3357530983139441
 20
146.7687487149030972
 30
0.0
 40
1.309431147199829
 50
175.3631822418005015
 51
184.6368368236018966
  0
ARC
  5
704A
  8
0
 10
2890.2407557130550231
 20
146.9765370125790866
 30
0.0
 40
1.2144337247869501
 50
175.1858340626490929
 51
184.814839830011806
  0
ARC
  5
704B
  8
0
 10
2890.0926424377398689
 20
147.1739401135127139
 30
0.0
 40
1.066319660689121
 50
174.8708988311005044
 51
185.1373837432751088
  0
ARC
  5
704C
  8
0
 10
2889.9090691340170451
 20
147.3559899690278883
 30
0.0
 40
0.8827466156324895
 50
174.3530870767957879
 51
185.6378081595385083
  0
ARC
  5
704D
  8
0
 10
2889.6985766784368934
 20
147.5186221058378067
 30
0.0
 40
0.6722542283623884
 50
173.5264312970514879
 51
186.4717379263281032
  0
ARC
  5
704E
  8
0
 10
2889.4946625274678809
 20
147.6574190055353029
 30
0.0
 40
0.4683111818022567
 50
172.2705382605633133
 51
187.7316641584064882
  0
ARC
  5
704F
  8
0
 10
2889.3046730884411772
 20
147.7690603318530975
 30
0.0
 40
0.2783521818414679
 50
169.9330832854240043
 51
190.0669167145742904
  0
ARC
  5
7050
  8
0
 10
2889.1564344141352194
 20
147.8508340426531902
 30
0.0
 40
0.1301134968845261
 50
165.2540564956626952
 51
194.7459435043371911
  0
ARC
  5
7051
  8
0
 10
2889.0612596773648875
 20
147.9007178162030982
 30
0.0
 40
0.0349386625713603
 50
151.323991515578598
 51
208.6760075392305964
  0
LINE
  5
7052
  8
0
 10
2889.5029909788140685
 20
147.8919947568030864
 30
0.0
 11
2889.0306063403140797
 21
147.8839522840031862
 31
0.0
  0
LINE
  5
7053
  8
0
 10
2889.5029909788140685
 20
147.8253572101031068
 30
0.0
 11
2889.0306063403140797
 21
147.8177158013031089
 31
0.0
  0
LINE
  5
7054
  8
0
 10
2889.5029909788140685
 20
147.7274520034663965
 30
0.0
 11
2889.0306063403140797
 21
147.7204048624030861
 31
0.0
  0
LINE
  5
7055
  8
0
 10
2889.5029909788140685
 20
147.6007049042032122
 30
0.0
 11
2889.0306087618000674
 21
147.5944153106433987
 31
0.0
  0
LINE
  5
7056
  8
0
 10
2889.502988757184994
 20
147.4482220736680915
 30
0.0
 11
2889.0306063403140797
 21
147.4428502447032088
 31
0.0
  0
LINE
  5
7057
  8
0
 10
2889.5030010005220902
 20
147.2736397085591875
 30
0.0
 11
2889.0305925486040906
 21
147.2692692893054982
 31
0.0
  0
LINE
  5
7058
  8
0
 10
2889.5029895004959144
 20
147.0816227142244941
 30
0.0
 11
2889.0306063403140797
 21
147.0784574107032086
 31
0.0
  0
LINE
  5
7059
  8
0
 10
2889.502989725272073
 20
146.8765334072722908
 30
0.0
 11
2889.0306075391490594
 21
146.8746023811137889
 31
0.0
  0
LINE
  5
705A
  8
0
 10
2889.5032829416381901
 20
146.6635452647389002
 30
0.0
 11
2889.0306075743728798
 21
146.662894614400102
 31
0.0
  0
ARC
  5
705B
  8
0
 10
2889.5270312677239417
 20
145.2331298972196123
 30
0.0
 40
0.0194933696367442
 50
314.766793317964698
 51
0.1745895905523854
  0
LINE
  5
705C
  8
0
 10
2889.5407589440192169
 20
145.2192900141513974
 30
0.0
 11
2889.5071535937140652
 21
145.1856441263531963
 31
0.0
  0
LINE
  5
705D
  8
0
 10
2889.5071535937140652
 20
145.1856441263531963
 30
0.0
 11
2889.0263218717141172
 21
145.1940370165031879
 31
0.0
  0
LINE
  5
705E
  8
0
 10
2889.0263218717141172
 20
145.1940370165031879
 30
0.0
 11
2889.0011092234658463
 21
145.2192485136554865
 31
0.0
  0
ARC
  5
705F
  8
0
 10
2889.0148311489529078
 20
145.2330861302775986
 30
0.0
 40
0.0194877108155094
 50
179.7601356663840875
 51
225.240518324022986
  0
ARC
  5
7060
  8
0
 10
2889.3717531596039407
 20
145.2527695957531932
 30
0.0
 40
0.1354012771304536
 50
345.7546700969281801
 51
14.2453299030718501
  0
ARC
  5
7061
  8
0
 10
2889.2172888179811707
 20
145.3350409724214956
 30
0.0
 40
0.2898656276214637
 50
350.2772744405573917
 51
9.7227255594425959
  0
ARC
  5
7062
  8
0
 10
2889.022546256996975
 20
145.4473671253716134
 30
0.0
 40
0.4846063737861382
 50
352.4857223515184046
 51
7.5142776484815226
  0
ARC
  5
7063
  8
0
 10
2888.8069573002208017
 20
145.5869719492847878
 30
0.0
 40
0.7001957504263469
 50
353.7497406053053055
 51
6.251928959361563
  0
ARC
  5
7064
  8
0
 10
2888.5888857562999874
 20
145.7505787939159916
 30
0.0
 40
0.9182675223670608
 50
354.5411665735891802
 51
5.4507972018056003
  0
ARC
  5
7065
  8
0
 10
2888.3966452513877812
 20
145.9337481077737948
 30
0.0
 40
1.1105079722839271
 50
355.043757522253884
 51
4.9631054427814654
  0
ARC
  5
7066
  8
0
 10
2888.2423713753478296
 20
146.1323689000830086
 30
0.0
 40
1.2647820945791779
 50
355.3494666369227843
 51
4.6504077718744368
  0
ARC
  5
7067
  8
0
 10
2888.0935752454811336
 20
146.3433467567654986
 30
0.0
 40
1.4135795821361901
 50
355.6005637196071234
 51
4.2416805533739437
  0
ARC
  5
7068
  8
0
 10
2887.8765177166910689
 20
146.5603016561659047
 30
0.0
 40
1.6306437865803229
 50
356.0474301929426133
 51
359.8391125787680949
  0
ARC
  5
7069
  8
0
 10
2889.4709062791948782
 20
145.202583774315201
 30
0.0
 40
0.0362481069971042
 50
332.2690283851998174
 51
27.7310748322748601
  0
ARC
  5
706A
  8
0
 10
2891.2184174595399782
 20
146.6066988480920088
 30
0.0
 40
2.1935183716177549
 50
181.3316396194863955
 51
184.1344877511662901
  0
ARC
  5
706B
  8
0
 10
2890.3357530983139441
 20
146.3426968643032069
 30
0.0
 40
1.309431147199829
 50
175.3631631763981034
 51
184.6368177581994132
  0
ARC
  5
706C
  8
0
 10
2890.2407557130550231
 20
146.134908566627189
 30
0.0
 40
1.2144337247869501
 50
175.185160169988194
 51
184.8141659373509071
  0
ARC
  5
706D
  8
0
 10
2890.0926424377398689
 20
145.9375054656937039
 30
0.0
 40
1.066319660689121
 50
174.8626162567248912
 51
185.1291011688994956
  0
ARC
  5
706E
  8
0
 10
2889.9090691340170451
 20
145.7554556101783874
 30
0.0
 40
0.8827466156324895
 50
174.3621918404614917
 51
185.6469129232042121
  0
ARC
  5
706F
  8
0
 10
2889.6985766784368934
 20
145.5928234733684974
 30
0.0
 40
0.6722542283623884
 50
173.5282620736718115
 51
186.4735687029485121
  0
ARC
  5
7070
  8
0
 10
2889.4946625274678809
 20
145.4540265736710865
 30
0.0
 40
0.4683111818022567
 50
172.2683358415935118
 51
187.7294617394350098
  0
ARC
  5
7071
  8
0
 10
2889.3046730884411772
 20
145.3423852473532065
 30
0.0
 40
0.2783521818414679
 50
169.9330832854255959
 51
190.0669167145759104
  0
ARC
  5
7072
  8
0
 10
2889.1564344141352194
 20
145.2606115365531991
 30
0.0
 40
0.1301134968845261
 50
165.2540564956626952
 51
194.7459435043371911
  0
ARC
  5
7073
  8
0
 10
2889.0612596773648875
 20
145.2107277630032058
 30
0.0
 40
0.0349386625713603
 50
151.3239924607694036
 51
208.6760065085809117
  0
LINE
  5
7074
  8
0
 10
2889.5029909788140685
 20
145.2194508224031892
 30
0.0
 11
2889.0306063403140797
 21
145.2274932952032032
 31
0.0
  0
LINE
  5
7075
  8
0
 10
2889.5029909788140685
 20
145.2860883691033109
 30
0.0
 11
2889.0306063403140797
 21
145.2937297779031951
 31
0.0
  0
LINE
  5
7076
  8
0
 10
2889.5029909788140685
 20
145.3839935757399076
 30
0.0
 11
2889.0306063403140797
 21
145.3910407168031895
 31
0.0
  0
LINE
  5
7077
  8
0
 10
2889.5029909788140685
 20
145.5107406750030918
 30
0.0
 11
2889.0306087618000674
 21
145.5170302685629053
 31
0.0
  0
LINE
  5
7078
  8
0
 10
2889.502988757184994
 20
145.6632235055382125
 30
0.0
 11
2889.0306063403140797
 21
145.668595334503209
 31
0.0
  0
LINE
  5
7079
  8
0
 10
2889.5030010005220902
 20
145.8378058706472018
 30
0.0
 11
2889.0305925486040906
 21
145.8421762899008911
 31
0.0
  0
LINE
  5
707A
  8
0
 10
2889.5029895004959144
 20
146.02982286498181
 30
0.0
 11
2889.0306063403140797
 21
146.0329881685032092
 31
0.0
  0
LINE
  5
707B
  8
0
 10
2889.502989725272073
 20
146.2349121719340985
 30
0.0
 11
2889.0306075391490594
 21
146.2368431980926005
 31
0.0
  0
LINE
  5
707C
  8
0
 10
2889.5032829416381901
 20
146.4479003144674039
 30
0.0
 11
2889.0306075743728798
 21
146.448550964806202
 31
0.0
  0
LINE
  5
707D
  8
0
 10
2889.5465245468608373
 20
147.8782562826000913
 30
0.0
 11
2889.5465245468608373
 21
145.2331892966062128
 31
0.0
  0
LINE
  5
707E
  8
0
 10
2888.9953436089140268
 20
147.8782778653782941
 30
0.0
 11
2888.9953436089090246
 21
145.2331677138280099
 31
0.0
  0
LINE
  5
707F
  8
0
 10
2893.4520353109141979
 20
144.5729387674032012
 30
0.0
 11
2893.3339250747139886
 21
144.5817569397032116
 31
0.0
  0
LINE
  5
7080
  8
0
 10
2893.3339250747139886
 20
144.5817569397032116
 30
0.0
 11
2893.3339250747139886
 21
144.5464029538032094
 31
0.0
  0
LINE
  5
7081
  8
0
 10
2893.3339250747139886
 20
144.5464029538032094
 30
0.0
 11
2893.4520353109141979
 21
144.5353712822031866
 31
0.0
  0
ARC
  5
7082
  8
0
 10
2889.7995988716588727
 20
148.0176803952018929
 30
0.0
 40
1.011666272424256
 50
255.5131891793589034
 51
290.8840764509445194
  0
ENDSEC
  0
EOF
