  0
SECTION
  2
HEADER
  9
$ACADVER
  1
AC1009
  9
$INSBASE
 10
2893.439378340462099
 20
148.8763933057516908
 30
0.0
  9
$EXTMIN
 10
2889.8960712538619191
 20
145.7779681089517112
 30
0.0
  9
$EXTMAX
 10
2896.9826854270618242
 20
148.8810509651127063
 30
0.0
  9
$LIMMIN
 10
0.0
 20
0.0
  9
$LIMMAX
 10
11.6929133858000007
 20
8.2677165353999982
  9
$ORTHOMODE
 70
     0
  9
$REGENMODE
 70
     1
  9
$FILLMODE
 70
     1
  9
$QTEXTMODE
 70
     0
  9
$MIRRTEXT
 70
     0
  9
$DRAGMODE
 70
     2
  9
$LTSCALE
 40
0.6431102362
  9
$OSMODE
 70
  2047
  9
$ATTMODE
 70
     1
  9
$TEXTSIZE
 40
0.2
  9
$TRACEWID
 40
0.05
  9
$TEXTSTYLE
  7
STANDARD
  9
$CLAYER
  8
0
  9
$CELTYPE
  6
BYLAYER
  9
$CECOLOR
 62
   256
  9
$DIMSCALE
 40
1.0
  9
$DIMASZ
 40
0.1875
  9
$DIMEXO
 40
0.0625
  9
$DIMDLI
 40
0.4443307087
  9
$DIMRND
 40
0.0
  9
$DIMDLE
 40
0.0
  9
$DIMEXE
 40
0.125
  9
$DIMTP
 40
0.01
  9
$DIMTM
 40
0.01
  9
$DIMTXT
 40
2.0
  9
$DIMCEN
 40
0.1052362205
  9
$DIMTSZ
 40
0.0
  9
$DIMTOL
 70
     1
  9
$DIMLIM
 70
     0
  9
$DIMTIH
 70
     1
  9
$DIMTOH
 70
     1
  9
$DIMSE1
 70
     0
  9
$DIMSE2
 70
     0
  9
$DIMTAD
 70
     0
  9
$DIMZIN
 70
     0
  9
$DIMBLK
  1

  9
$DIMASO
 70
     1
  9
$DIMSHO
 70
     1
  9
$DIMPOST
  1
\X
  9
$DIMAPOST
  1

  9
$DIMALT
 70
     1
  9
$DIMALTD
 70
     2
  9
$DIMALTF
 40
25.3999999999999986
  9
$DIMLFAC
 40
1.0
  9
$DIMTOFL
 70
     0
  9
$DIMTVP
 40
0.0
  9
$DIMTIX
 70
     0
  9
$DIMSOXD
 70
     0
  9
$DIMSAH
 70
     0
  9
$DIMBLK1
  1

  9
$DIMBLK2
  1

  9
$DIMSTYLE
  2
STANDARD
  9
$DIMCLRD
 70
     0
  9
$DIMCLRE
 70
     0
  9
$DIMCLRT
 70
     0
  9
$DIMTFAC
 40
1.0
  9
$DIMGAP
 40
0.09
  9
$LUNITS
 70
     2
  9
$LUPREC
 70
     4
  9
$SKETCHINC
 40
0.1
  9
$FILLETRAD
 40
0.0
  9
$AUNITS
 70
     0
  9
$AUPREC
 70
     0
  9
$MENU
  1
.
  9
$ELEVATION
 40
0.0
  9
$PELEVATION
 40
0.0
  9
$THICKNESS
 40
0.0
  9
$LIMCHECK
 70
     0
  9
$BLIPMODE
 70
     0
  9
$CHAMFERA
 40
0.0
  9
$CHAMFERB
 40
0.0
  9
$SKPOLY
 70
     0
  9
$TDCREATE
 40
2458060.468368056230247
  9
$TDUPDATE
 40
2459016.7991898148320615
  9
$TDINDWG
 40
0.3122871528
  9
$TDUSRTIMER
 40
0.3122871528
  9
$USRTIMER
 70
     1
  9
$ANGBASE
 50
0.0
  9
$ANGDIR
 70
     0
  9
$PDMODE
 70
     0
  9
$PDSIZE
 40
0.3125
  9
$PLINEWID
 40
0.0
  9
$COORDS
 70
     1
  9
$SPLFRAME
 70
     0
  9
$SPLINETYPE
 70
     6
  9
$SPLINESEGS
 70
     8
  9
$ATTDIA
 70
     1
  9
$ATTREQ
 70
     1
  9
$HANDLING
 70
     1
  9
$HANDSEED
  5
6FE7
  9
$SURFTAB1
 70
     6
  9
$SURFTAB2
 70
     6
  9
$SURFTYPE
 70
     6
  9
$SURFU
 70
     6
  9
$SURFV
 70
     6
  9
$UCSNAME
  2

  9
$UCSORG
 10
0.0
 20
0.0
 30
0.0
  9
$UCSXDIR
 10
1.0
 20
0.0
 30
0.0
  9
$UCSYDIR
 10
0.0
 20
1.0
 30
0.0
  9
$PUCSNAME
  2

  9
$PUCSORG
 10
0.0
 20
0.0
 30
0.0
  9
$PUCSXDIR
 10
1.0
 20
0.0
 30
0.0
  9
$PUCSYDIR
 10
0.0
 20
1.0
 30
0.0
  9
$USERI1
 70
     0
  9
$USERI2
 70
     0
  9
$USERI3
 70
     0
  9
$USERI4
 70
     0
  9
$USERI5
 70
     0
  9
$USERR1
 40
0.0
  9
$USERR2
 40
0.0
  9
$USERR3
 40
0.0
  9
$USERR4
 40
0.0
  9
$USERR5
 40
0.0
  9
$WORLDVIEW
 70
     1
  9
$SHADEDGE
 70
     3
  9
$SHADEDIF
 70
    70
  9
$TILEMODE
 70
     1
  9
$MAXACTVP
 70
    64
  9
$PLIMCHECK
 70
     0
  9
$PEXTMIN
 10
1.0000000000000000E+20
 20
1.0000000000000000E+20
 30
1.0000000000000000E+20
  9
$PEXTMAX
 10
-1.0000000000000000E+20
 20
-1.0000000000000000E+20
 30
-1.0000000000000000E+20
  9
$PLIMMIN
 10
0.0
 20
0.0
  9
$PLIMMAX
 10
12.0
 20
9.0
  9
$UNITMODE
 70
     0
  9
$VISRETAIN
 70
     1
  9
$PLINEGEN
 70
     0
  9
$PSLTSCALE
 70
     1
  0
ENDSEC
  0
SECTION
  2
TABLES
  0
TABLE
  2
VPORT
 70
     1
  0
VPORT
  2
*ACTIVE
 70
     0
 10
0.0
 20
0.0
 11
1.0
 21
1.0
 12
30.3875638430167783
 22
-0.2411134401682502
 13
0.0
 23
0.0
 14
1.0
 24
1.0
 15
0.0
 25
0.0
 16
0.0
 26
0.0
 36
30.1241266108570898
 17
2863.1249790072511132
 27
147.6709518432616903
 37
0.0
 40
3.1385361190648631
 41
2.6486111111111108
 42
50.0
 43
0.0
 44
0.0
 50
0.0
 51
0.0
 71
     0
 72
   100
 73
     1
 74
     1
 75
     0
 76
     0
 77
     0
 78
     0
  0
ENDTAB
  0
TABLE
  2
LTYPE
 70
     2
  0
LTYPE
  2
CONTINUOUS
 70
     0
  3
Solid line
 72
    65
 73
     0
 40
0.0
  0
LTYPE
  2
PHANTOM2
 70
     0
  3
___ _ _ ___ _ _ ___ _ _ ___ _ _
 72
    65
 73
     6
 40
1.25
 49
0.625
 49
-0.125
 49
0.125
 49
-0.125
 49
0.125
 49
-0.125
  0
ENDTAB
  0
TABLE
  2
LAYER
 70
     2
  0
LAYER
  2
0
 70
     0
 62
   255
  6
CONTINUOUS
  0
LAYER
  2
DEFPOINTS
 70
     0
 62
     7
  6
CONTINUOUS
  0
ENDTAB
  0
TABLE
  2
STYLE
 70
     1
  0
STYLE
  2
STANDARD
 70
     0
 40
0.0
 41
0.8
 50
0.0
 71
     0
 42
0.2
  3
txt
  4

  0
ENDTAB
  0
TABLE
  2
VIEW
 70
     0
  0
ENDTAB
  0
TABLE
  2
UCS
 70
     0
  0
ENDTAB
  0
TABLE
  2
APPID
 70
     9
  0
APPID
  2
ACAD
 70
     0
  0
APPID
  2
ACAD_MLEADERVER
 70
     0
  0
APPID
  2
ACAD_EXEMPT_FROM_CAD_STANDARDS
 70
     0
  0
APPID
  2
ACAD_NAV_VCDISPLAY
 70
     0
  0
APPID
  2
ACAECLAYERSTANDARD
 70
     0
  0
APPID
  2
ACCMTRANSPARENCY
 70
     0
  0
APPID
  2
ACAD_DSTYLE_DIMJAG
 70
     0
  0
APPID
  2
ACAD_DSTYLE_DIMTALN
 70
     0
  0
APPID
  2
ACDBATTR
 70
     0
  0
ENDTAB
  0
TABLE
  2
DIMSTYLE
 70
     1
  0
DIMSTYLE
  2
STANDARD
 70
     0
  3

  4

  5

  6

  7

 40
1.0
 41
0.1875
 42
0.0625
 43
0.38
 44
0.125
 45
0.0
 46
0.0
 47
0.01
 48
0.01
140
0.15625
141
0.09
142
0.0
143
25.3999999999999986
144
1.0
145
0.0
146
1.0
147
0.09
 71
     1
 72
     0
 73
     1
 74
     1
 75
     0
 76
     0
 77
     0
 78
     4
170
     0
171
     2
172
     0
173
     0
174
     0
175
     0
176
     0
177
     0
178
     0
  0
ENDTAB
  0
ENDSEC
  0
SECTION
  2
BLOCKS
  0
BLOCK
  8
0
  2
$MODEL_SPACE
 70
     0
 10
0.0
 20
0.0
 30
0.0
  3
$MODEL_SPACE
  1

  0
ENDBLK
  5
21
  8
0
  0
BLOCK
 67
     1
  8
0
  2
$PAPER_SPACE
 70
     0
 10
0.0
 20
0.0
 30
0.0
  3
$PAPER_SPACE
  1

  0
ENDBLK
  5
1D
 67
     1
  8
0
  0
BLOCK
  8
0
  2
_FILLED
 70
     0
 10
0.0
 20
0.0
 30
0.0
  3
_FILLED
  1

  0
SOLID
  5
6A5E
  8
0
  6
BYBLOCK
 62
     0
 10
0.0
 20
0.0
 30
0.0
 11
-1.0
 21
0.1666666667
 31
0.0
 12
-1.0
 22
-0.1666666667
 32
0.0
 13
-1.0
 23
-0.1666666667
 33
0.0
  0
ENDBLK
  5
6A5F
  8
0
  6
BYBLOCK
 62
     0
  0
BLOCK
  8
0
  2
A$C59433B02
 70
     0
 10
0.0
 20
0.0
 30
0.0
  3
A$C59433B02
  1

  0
ARC
  5
6AC5
  8
DEFPOINTS
 10
2.5472440946406709
 20
6.998871609200001
 30
0.0
 40
0.0393700786999993
 50
95.000000071388996
 51
180.0000000000005969
  0
LINE
  5
6AC6
  8
DEFPOINTS
 10
2.5438127661406709
 20
7.0380918728601207
 30
0.0
 11
3.0984251969001728
 21
7.0866141732000001
 31
0.0
  0
LINE
  5
6AC7
  8
DEFPOINTS
 10
2.5078740159406698
 20
2.8937007873999971
 30
0.0
 11
1.75984251984067
 21
2.8937007873999989
 31
0.0
  0
ARC
  5
6AC8
  8
DEFPOINTS
 10
1.75984251984067
 20
2.8740157479999979
 30
0.0
 40
0.0196850394000005
 50
90.0000000000002984
 51
179.9999999999986073
  0
LINE
  5
6AC9
  8
DEFPOINTS
 10
1.7401574804406721
 20
2.8051181102
 30
0.0
 11
1.692913385940668
 21
2.8051181102
 31
0.0
  0
ARC
  5
6ACA
  8
DEFPOINTS
 10
1.673228345614532
 20
3.4645668835249221
 30
0.0
 40
0.019685041877313
 50
359.9772542703944964
 51
89.9999970132985538
  0
LINE
  5
6ACB
  8
DEFPOINTS
 10
1.673228346640669
 20
3.4842519254022331
 30
0.0
 11
0.019685039540672
 21
3.4842520115977651
 31
0.0
  0
ARC
  5
6ACC
  8
DEFPOINTS
 10
0.0196850385144121
 20
3.4645669732240258
 30
0.0
 40
0.0196850383737397
 50
89.9999970129413072
 51
180.000000000871097
  0
LINE
  5
6ACD
  8
DEFPOINTS
 10
2.5078740159406729
 20
1.1614173227999971
 30
0.0
 11
1.7598425198406671
 21
1.1614173227999991
 31
0.0
  0
ARC
  5
6ACE
  8
DEFPOINTS
 10
1.7598425198406671
 20
1.181102362200001
 30
0.0
 40
0.0196850394000005
 50
180.0000000000011084
 51
269.9999999999996021
  0
ARC
  5
6ACF
  8
DEFPOINTS
 10
1.673228345614532
 20
1.181102364677312
 30
0.0
 40
0.019685041877313
 50
270.0000029867013041
 51
0.0227457296053557
  0
LINE
  5
6AD0
  8
DEFPOINTS
 10
1.673228346640669
 20
1.1614173227999991
 30
0.0
 11
1.1023622039680161
 21
1.1614173231541001
 31
0.0
  0
LINE
  5
6AD1
  8
DEFPOINTS
 10
0.472440945000173
 20
1.1614173227999991
 30
0.0
 11
0.0196850395406703
 21
1.1614172366044679
 31
0.0
  0
ARC
  5
6AD2
  8
DEFPOINTS
 10
0.0196850385145329
 20
1.1811022749785069
 30
0.0
 40
0.0196850383740386
 50
179.999758074879793
 51
270.0000029867009061
  0
ARC
  5
6AD3
  8
DEFPOINTS
 10
2.5472440946406669
 20
0.0877425640000027
 30
0.0
 40
0.0393700786999993
 50
179.9999999999992042
 51
264.9999999286109755
  0
LINE
  5
6AD4
  8
DEFPOINTS
 10
2.5438127661406682
 20
0.0485223003398829
 30
0.0
 11
3.0984251969001728
 21
0.0
 31
0.0
  0
LINE
  5
6AD5
  8
DEFPOINTS
 10
3.0984251969001728
 20
7.0866141732000001
 30
0.0
 11
3.0984251969001728
 21
0.0
 31
0.0
  0
LINE
  5
6AD6
  8
DEFPOINTS
 10
2.5078740159406721
 20
6.998871609200001
 30
0.0
 11
2.5078740159406721
 21
0.0877425640000027
 31
0.0
  0
LINE
  5
6AD7
  8
DEFPOINTS
 10
1.7401574804406721
 20
2.8740157479999979
 30
0.0
 11
1.7401574804406681
 21
1.181102362200001
 31
0.0
  0
LINE
  5
6AD8
  8
DEFPOINTS
 10
1.692913385940668
 20
3.4645590687995149
 30
0.0
 11
1.69291338594067
 21
1.1811101794000001
 31
0.0
  0
LINE
  5
6AD9
  8
DEFPOINTS
 10
0.0000000001406715
 20
3.4645669732237261
 30
0.0
 11
0.0000000001406697
 21
1.181102358096414
 31
0.0
  0
LINE
  5
6ADA
  8
DEFPOINTS
 10
1.7401574804406701
 20
1.25
 30
0.0
 11
1.692913385940668
 21
1.25
 31
0.0
  0
LINE
  5
6ADB
  8
DEFPOINTS
 10
2.5078740159406698
 20
5.8464566928999959
 30
0.0
 11
1.75984251984067
 21
5.8464566928999986
 31
0.0
  0
ARC
  5
6ADC
  8
DEFPOINTS
 10
1.75984251984067
 20
5.826771653499998
 30
0.0
 40
0.0196850394000005
 50
90.0000000000002984
 51
179.9999999999986073
  0
LINE
  5
6ADD
  8
DEFPOINTS
 10
1.7401574804406721
 20
5.7578740156999988
 30
0.0
 11
1.692913385940668
 21
5.7578740156999979
 31
0.0
  0
ARC
  5
6ADE
  8
DEFPOINTS
 10
1.673228345474036
 20
6.4173227890249223
 30
0.0
 40
0.019685041877313
 50
359.9772542703944964
 51
89.9999970132985538
  0
LINE
  5
6ADF
  8
DEFPOINTS
 10
1.673228346500174
 20
6.4370078309022327
 30
0.0
 11
0.0196850394001764
 21
6.4370079170977661
 31
0.0
  0
ARC
  5
6AE0
  8
DEFPOINTS
 10
0.019685038374039
 20
6.4173228787237271
 30
0.0
 40
0.0196850383740386
 50
89.9999970132991649
 51
180.0002419251198944
  0
LINE
  5
6AE1
  8
DEFPOINTS
 10
2.5078740159406721
 20
4.5078740156999988
 30
0.0
 11
1.7598425198406671
 21
4.5078740156999997
 31
0.0
  0
ARC
  5
6AE2
  8
DEFPOINTS
 10
1.7598425198406671
 20
4.527559055100002
 30
0.0
 40
0.0196850394000005
 50
180.0000000000011084
 51
269.9999999999996021
  0
ARC
  5
6AE3
  8
DEFPOINTS
 10
1.673228345614532
 20
4.5275590575773128
 30
0.0
 40
0.019685041877313
 50
270.0000029867013041
 51
0.0227457296053557
  0
LINE
  5
6AE4
  8
DEFPOINTS
 10
1.673228346640669
 20
4.5078740156999997
 30
0.0
 11
0.0196850395406703
 21
4.507873929504469
 31
0.0
  0
ARC
  5
6AE5
  8
DEFPOINTS
 10
0.0196850385145329
 20
4.527558967878508
 30
0.0
 40
0.0196850383740386
 50
179.999758074879793
 51
270.0000029867009061
  0
LINE
  5
6AE6
  8
DEFPOINTS
 10
1.7401574804406721
 20
5.826771653499998
 30
0.0
 11
1.7401574804406681
 21
4.527559055100002
 31
0.0
  0
LINE
  5
6AE7
  8
DEFPOINTS
 10
1.69291338594067
 20
6.4173153366055491
 30
0.0
 11
1.69291338594067
 21
4.5275668723000013
 31
0.0
  0
LINE
  5
6AE8
  8
DEFPOINTS
 10
0.0000000001406715
 20
6.4173252320729528
 30
0.0
 11
0.0000000001406697
 21
4.5275590509964161
 31
0.0
  0
LINE
  5
6AE9
  8
DEFPOINTS
 10
1.7401574804406681
 20
4.596456692900003
 30
0.0
 11
1.69291338594067
 21
4.5964566929000013
 31
0.0
  0
LINE
  5
6AEA
  8
0
 10
0.5118110237044693
 20
1.17491729026644
 30
0.0
 11
0.5118110235001759
 21
1.140407648999999
 31
0.0
  0
ARC
  5
6AEB
  8
0
 10
0.5314962511843468
 20
1.1404076488834649
 30
0.0
 40
0.019685227684171
 50
179.9999996608119091
 51
269.9995157225965841
  0
LINE
  5
6AEC
  8
0
 10
0.5314960848001729
 20
1.1207224211999991
 30
0.0
 11
1.043307057081891
 21
1.120718095253292
 31
0.0
  0
ARC
  5
6AED
  8
0
 10
1.0433268797674129
 20
1.1403833415841571
 30
0.0
 40
0.0196652563215549
 50
269.9422455322850283
 51
0.056245898836678
  0
LINE
  5
6AEE
  8
0
 10
1.0629921266133799
 20
1.1404026464936881
 30
0.0
 11
1.062984233349638
 21
1.1749199554487739
 31
0.0
  0
ARC
  5
6AEF
  8
0
 10
0.4724171073208919
 20
1.1812346744273881
 30
0.0
 40
0.019817365992016
 50
270.0689190732265956
 51
290.3569733650962803
  0
ARC
  5
6AF0
  8
0
 10
0.7874013984105837
 20
0.3952876090839699
 30
0.0
 40
0.8269053721021153
 50
68.1250024677535748
 51
111.8749744998333995
  0
ARC
  5
6AF1
  8
0
 10
1.102385293140006
 20
1.1812326280689609
 30
0.0
 40
0.0198153183668282
 50
249.6430036024914898
 51
269.933237892910995
  0
ARC
  5
6AF2
  8
0
 10
0.7873930542018801
 20
0.2015471628283371
 30
0.0
 40
0.9784704737101579
 50
73.640508404277341
 51
106.3584515896907021
  0
LINE
  5
6AF3
  8
0
 62
     1
 10
3.0984251969001728
 20
3.5433070866
 30
0.0
 11
12.7091853523932805
 21
11.1200058750597499
 31
0.0
  0
ENDBLK
  5
6AF7
  8
0
  0
ENDSEC
  0
SECTION
  2
ENTITIES
  0
ATTDEF
  5
3930
  8
DEFPOINTS
 10
2893.4296501337789778
 20
148.8800509651125878
 30
0.0
 40
0.001
  1
K-78024T-8
  3

  2
MODELNUMBER
 70
     0
1001
ACDBATTR
1070
     0
1070
     1
  0
ATTDEF
  5
3931
  8
DEFPOINTS
 10
2893.4296501337789778
 20
148.8783842984458943
 30
0.0
 40
0.001
  1
MODULA
  3

  2
TRADENAME
 70
     0
1001
ACDBATTR
1070
     0
1070
     1
  0
ATTDEF
  5
3932
  8
DEFPOINTS
 10
2893.4296501337789778
 20
148.876717631779286
 30
0.0
 40
0.001
  1
VALVE TRIM
  3

  2
PRODUCT
 70
     0
1001
ACDBATTR
1070
     0
1070
     1
  0
ARC
  5
6E7C
  8
0
 10
2889.9838138178620284
 20
148.3252122034922138
 30
0.0
 40
0.0393700786999993
 50
185.0000000713878023
 51
270.0
  0
LINE
  5
6E7D
  8
0
 10
2889.9445935542012194
 20
148.3217808749922142
 30
0.0
 11
2889.8960712538619191
 21
148.8763933057516908
 31
0.0
  0
LINE
  5
6E7E
  8
0
 10
2892.5732366081620057
 20
148.2858421247921967
 30
0.0
 11
2892.5732366081620057
 21
147.5378106286921991
 31
0.0
  0
ARC
  5
6E7F
  8
0
 10
2892.5929216475619796
 20
147.5378106286921991
 30
0.0
 40
0.0196850394000005
 50
180.0
 51
270.0
  0
LINE
  5
6E80
  8
0
 10
2892.6618192853620712
 20
147.5181255892921968
 30
0.0
 11
2892.6618192853620712
 21
147.4708814947921951
 31
0.0
  0
LINE
  5
6E81
  8
0
 10
2892.5732366081620057
 20
147.4708814947518078
 30
0.0
 11
2892.5732366081620057
 21
145.8173381876516999
 31
0.0
  0
LINE
  5
6E82
  8
0
 10
2893.4235744645611703
 20
145.8173381876516999
 30
0.0
 11
2893.4235744655611597
 21
147.4708814947921951
 31
0.0
  0
LINE
  5
6E83
  8
0
 10
2894.305520072760828
 20
148.2858421247921967
 30
0.0
 11
2894.305520072760828
 21
147.5378106286921991
 31
0.0
  0
ARC
  5
6E84
  8
0
 10
2894.2858350333608541
 20
147.5378106286921991
 30
0.0
 40
0.0196850394000005
 50
270.0
 51
0.0
  0
LINE
  5
6E85
  8
0
 10
2894.3055201589568242
 20
147.4708814947518078
 30
0.0
 11
2894.3055201589568242
 21
145.8173381876516999
 31
0.0
  0
LINE
  5
6E86
  8
0
 10
2893.4551814449609992
 20
145.8173381461517124
 30
0.0
 11
2893.4551814449619087
 21
147.4708814947921951
 31
0.0
  0
ARC
  5
6E87
  8
0
 10
2896.8949428630608054
 20
148.3252122034922138
 30
0.0
 40
0.0393700786999993
 50
270.0
 51
354.9999999286122261
  0
LINE
  5
6E88
  8
0
 10
2896.9341631267220691
 20
148.3217808749922142
 30
0.0
 11
2896.9826854270618242
 21
148.8763933057516908
 31
0.0
  0
LINE
  5
6E89
  8
0
 10
2889.8960712538619191
 20
148.8763933057516908
 30
0.0
 11
2896.9826854270618242
 21
148.8763933057516908
 31
0.0
  0
LINE
  5
6E8A
  8
0
 10
2889.9838138178620284
 20
148.2858421247921967
 30
0.0
 11
2896.8949428630608054
 21
148.2858421247921967
 31
0.0
  0
LINE
  5
6E8B
  8
0
 10
2892.5929216475619796
 20
147.5181255892921968
 30
0.0
 11
2894.2858350333608541
 21
147.5181255892921968
 31
0.0
  0
LINE
  5
6E8C
  8
0
 10
2892.5732366081620057
 20
147.4708814947518078
 30
0.0
 11
2894.3055196165619236
 21
147.4708814947518078
 31
0.0
  0
LINE
  5
6E8D
  8
0
 10
2892.6126066869210263
 20
145.7779681089922121
 30
0.0
 11
2894.2661499940018075
 21
145.7779681089922121
 31
0.0
  0
LINE
  5
6E8E
  8
0
 10
2894.2169373955621268
 20
147.5181255892921968
 30
0.0
 11
2894.2169373955621268
 21
147.4708814947921951
 31
0.0
  0
LINE
  5
6E8F
  8
0
 10
2893.4235744645611703
 20
145.8173381876516999
 30
0.0
 11
2893.439378340462099
 21
145.7897788537667054
 31
0.0
  0
LINE
  5
6E90
  8
0
 10
2893.439378340462099
 20
145.7897788537667054
 30
0.0
 11
2893.4551814449609992
 21
145.8173381461517124
 31
0.0
  0
LINE
  5
6E92
  8
0
 10
2892.6126066869619535
 20
145.7779681089517112
 30
0.0
 11
2892.5732366081620057
 21
145.8173381876516999
 31
0.0
  0
LINE
  5
6E93
  8
0
 10
2894.3055201589568242
 20
145.8173381876516999
 30
0.0
 11
2894.2661499940018075
 21
145.7779681089922121
 31
0.0
  0
ENDSEC
  0
EOF
