  0
SECTION
  2
HEADER
  9
$ACADVER
  1
AC1009
  9
$INSBASE
 10
252.9481278191827869
 20
106.1468689513543069
 30
0.0
  9
$EXTMIN
 10
243.5519406615869968
 20
94.7320886487078724
 30
-0.0015258207003583
  9
$EXTMAX
 10
262.3458255777957788
 20
114.8586683579006973
 30
0.0000000349246037
  9
$LIMMIN
 10
0.0
 20
0.0
  9
$LIMMAX
 10
11.6929133858000007
 20
8.2677165353999982
  9
$ORTHOMODE
 70
     0
  9
$REGENMODE
 70
     1
  9
$FILLMODE
 70
     1
  9
$QTEXTMODE
 70
     0
  9
$MIRRTEXT
 70
     0
  9
$DRAGMODE
 70
     2
  9
$LTSCALE
 40
0.6431102362
  9
$OSMODE
 70
  2039
  9
$ATTMODE
 70
     1
  9
$TEXTSIZE
 40
0.2
  9
$TRACEWID
 40
0.05
  9
$TEXTSTYLE
  7
STANDARD
  9
$CLAYER
  8
0
  9
$CELTYPE
  6
BYLAYER
  9
$CECOLOR
 62
   256
  9
$DIMSCALE
 40
1.0
  9
$DIMASZ
 40
0.1875
  9
$DIMEXO
 40
0.0625
  9
$DIMDLI
 40
0.4443307087
  9
$DIMRND
 40
0.0
  9
$DIMDLE
 40
0.0
  9
$DIMEXE
 40
0.125
  9
$DIMTP
 40
0.01
  9
$DIMTM
 40
0.01
  9
$DIMTXT
 40
1.0
  9
$DIMCEN
 40
0.1052362205
  9
$DIMTSZ
 40
0.0
  9
$DIMTOL
 70
     1
  9
$DIMLIM
 70
     0
  9
$DIMTIH
 70
     0
  9
$DIMTOH
 70
     1
  9
$DIMSE1
 70
     0
  9
$DIMSE2
 70
     0
  9
$DIMTAD
 70
     0
  9
$DIMZIN
 70
     0
  9
$DIMBLK
  1

  9
$DIMASO
 70
     1
  9
$DIMSHO
 70
     1
  9
$DIMPOST
  1
\X
  9
$DIMAPOST
  1

  9
$DIMALT
 70
     1
  9
$DIMALTD
 70
     2
  9
$DIMALTF
 40
25.3999999999999986
  9
$DIMLFAC
 40
1.0
  9
$DIMTOFL
 70
     0
  9
$DIMTVP
 40
0.0
  9
$DIMTIX
 70
     0
  9
$DIMSOXD
 70
     0
  9
$DIMSAH
 70
     0
  9
$DIMBLK1
  1

  9
$DIMBLK2
  1

  9
$DIMSTYLE
  2
STANDARD
  9
$DIMCLRD
 70
     0
  9
$DIMCLRE
 70
     0
  9
$DIMCLRT
 70
     0
  9
$DIMTFAC
 40
1.0
  9
$DIMGAP
 40
0.09
  9
$LUNITS
 70
     2
  9
$LUPREC
 70
     4
  9
$SKETCHINC
 40
0.1
  9
$FILLETRAD
 40
0.0
  9
$AUNITS
 70
     0
  9
$AUPREC
 70
     0
  9
$MENU
  1
.
  9
$ELEVATION
 40
0.0
  9
$PELEVATION
 40
0.0
  9
$THICKNESS
 40
0.0
  9
$LIMCHECK
 70
     0
  9
$BLIPMODE
 70
     0
  9
$CHAMFERA
 40
0.0
  9
$CHAMFERB
 40
0.0
  9
$SKPOLY
 70
     0
  9
$TDCREATE
 40
2458172.5207638889551163
  9
$TDUPDATE
 40
2459150.7341319448314607
  9
$TDINDWG
 40
0.2900550694
  9
$TDUSRTIMER
 40
0.2900550694
  9
$USRTIMER
 70
     1
  9
$ANGBASE
 50
0.0
  9
$ANGDIR
 70
     0
  9
$PDMODE
 70
     0
  9
$PDSIZE
 40
0.3125
  9
$PLINEWID
 40
0.0
  9
$COORDS
 70
     1
  9
$SPLFRAME
 70
     0
  9
$SPLINETYPE
 70
     6
  9
$SPLINESEGS
 70
     8
  9
$ATTDIA
 70
     1
  9
$ATTREQ
 70
     1
  9
$HANDLING
 70
     1
  9
$HANDSEED
  5
1F097
  9
$SURFTAB1
 70
     6
  9
$SURFTAB2
 70
     6
  9
$SURFTYPE
 70
     6
  9
$SURFU
 70
     6
  9
$SURFV
 70
     6
  9
$UCSNAME
  2

  9
$UCSORG
 10
0.0
 20
0.0
 30
0.0
  9
$UCSXDIR
 10
1.0
 20
0.0
 30
0.0
  9
$UCSYDIR
 10
0.0
 20
1.0
 30
0.0
  9
$PUCSNAME
  2

  9
$PUCSORG
 10
0.0
 20
0.0
 30
0.0
  9
$PUCSXDIR
 10
1.0
 20
0.0
 30
0.0
  9
$PUCSYDIR
 10
0.0
 20
1.0
 30
0.0
  9
$USERI1
 70
     0
  9
$USERI2
 70
     0
  9
$USERI3
 70
     0
  9
$USERI4
 70
     0
  9
$USERI5
 70
     0
  9
$USERR1
 40
0.0
  9
$USERR2
 40
0.0
  9
$USERR3
 40
0.0
  9
$USERR4
 40
0.0
  9
$USERR5
 40
0.0
  9
$WORLDVIEW
 70
     1
  9
$SHADEDGE
 70
     3
  9
$SHADEDIF
 70
    70
  9
$TILEMODE
 70
     1
  9
$MAXACTVP
 70
    64
  9
$PLIMCHECK
 70
     0
  9
$PEXTMIN
 10
1.0000000000000000E+20
 20
1.0000000000000000E+20
 30
1.0000000000000000E+20
  9
$PEXTMAX
 10
-1.0000000000000000E+20
 20
-1.0000000000000000E+20
 30
-1.0000000000000000E+20
  9
$PLIMMIN
 10
0.0
 20
0.0
  9
$PLIMMAX
 10
12.0
 20
9.0
  9
$UNITMODE
 70
     0
  9
$VISRETAIN
 70
     1
  9
$PLINEGEN
 70
     0
  9
$PSLTSCALE
 70
     1
  0
ENDSEC
  0
SECTION
  2
TABLES
  0
TABLE
  2
VPORT
 70
     1
  0
VPORT
  2
*ACTIVE
 70
     0
 10
0.0
 20
0.0
 11
1.0
 21
1.0
 12
-176.6804059883623097
 22
35.092836991085619
 13
0.0
 23
0.0
 14
1.0
 24
1.0
 15
0.0
 25
0.0
 16
0.0
 26
0.0
 36
14.6338572656650907
 17
429.6292891080536833
 27
69.7025415122186871
 37
0.0
 40
20.2940685833331713
 41
2.6486111111111108
 42
50.0
 43
0.0
 44
0.0
 50
0.0
 51
0.0
 71
     0
 72
   100
 73
     1
 74
     1
 75
     0
 76
     0
 77
     0
 78
     0
  0
ENDTAB
  0
TABLE
  2
LTYPE
 70
     2
  0
LTYPE
  2
CONTINUOUS
 70
     0
  3
Solid line
 72
    65
 73
     0
 40
0.0
  0
LTYPE
  2
PHANTOM2
 70
     0
  3
___ _ _ ___ _ _ ___ _ _ ___ _ _
 72
    65
 73
     6
 40
1.25
 49
0.625
 49
-0.125
 49
0.125
 49
-0.125
 49
0.125
 49
-0.125
  0
ENDTAB
  0
TABLE
  2
LAYER
 70
     2
  0
LAYER
  2
0
 70
     0
 62
   255
  6
CONTINUOUS
  0
LAYER
  2
DEFPOINTS
 70
     0
 62
     7
  6
CONTINUOUS
  0
ENDTAB
  0
TABLE
  2
STYLE
 70
     1
  0
STYLE
  2
STANDARD
 70
     0
 40
0.0
 41
0.8
 50
0.0
 71
     0
 42
0.2
  3
txt
  4

  0
ENDTAB
  0
TABLE
  2
VIEW
 70
     0
  0
ENDTAB
  0
TABLE
  2
UCS
 70
     0
  0
ENDTAB
  0
TABLE
  2
APPID
 70
    10
  0
APPID
  2
ACAD
 70
     0
  0
APPID
  2
ACAD_MLEADERVER
 70
     0
  0
APPID
  2
ACAD_EXEMPT_FROM_CAD_STANDARDS
 70
     0
  0
APPID
  2
ACAD_DSTYLE_DIMJAG
 70
     0
  0
APPID
  2
ACAD_DSTYLE_DIMTALN
 70
     0
  0
APPID
  2
ACAD_NAV_VCDISPLAY
 70
     0
  0
APPID
  2
ACAECLAYERSTANDARD
 70
     0
  0
APPID
  2
ACCMTRANSPARENCY
 70
     0
  0
APPID
  2
DCO15
 70
     0
  0
APPID
  2
ACDBATTR
 70
     0
  0
ENDTAB
  0
TABLE
  2
DIMSTYLE
 70
     1
  0
DIMSTYLE
  2
STANDARD
 70
     0
  3

  4

  5

  6

  7

 40
1.0
 41
0.1875
 42
0.0625
 43
0.38
 44
0.125
 45
0.0
 46
0.0
 47
0.01
 48
0.01
140
0.15625
141
0.09
142
0.0
143
25.3999999999999986
144
1.0
145
0.0
146
1.0
147
0.09
 71
     1
 72
     0
 73
     1
 74
     1
 75
     0
 76
     0
 77
     0
 78
     4
170
     0
171
     2
172
     0
173
     0
174
     0
175
     0
176
     0
177
     0
178
     0
  0
ENDTAB
  0
ENDSEC
  0
SECTION
  2
BLOCKS
  0
BLOCK
  8
0
  2
$MODEL_SPACE
 70
     0
 10
0.0
 20
0.0
 30
0.0
  3
$MODEL_SPACE
  1

  0
ENDBLK
  5
21
  8
0
  0
BLOCK
 67
     1
  8
0
  2
$PAPER_SPACE
 70
     0
 10
0.0
 20
0.0
 30
0.0
  3
$PAPER_SPACE
  1

  0
ENDBLK
  5
1D
 67
     1
  8
0
  0
BLOCK
  8
0
  2
_FILLED
 70
     0
 10
0.0
 20
0.0
 30
0.0
  3
_FILLED
  1

  0
SOLID
  5
87E2
  8
0
  6
BYBLOCK
 62
     0
 10
0.0
 20
0.0
 30
0.0
 11
-1.0
 21
0.1666666667
 31
0.0
 12
-1.0
 22
-0.1666666667
 32
0.0
 13
-1.0
 23
-0.1666666667
 33
0.0
  0
ENDBLK
  5
87E3
  8
0
  6
BYBLOCK
 62
     0
  0
ENDSEC
  0
SECTION
  2
ENTITIES
  0
ATTDEF
  5
1DAED
  8
DEFPOINTS
 10
252.9484669148843068
 20
106.1508369609119029
 30
0.0
 40
0.001
  1
K-78073T-PNE
  3

  2
MODELNUMBER
 70
     0
1001
ACDBATTR
1070
     0
1070
     1
  0
ATTDEF
  5
1DAEE
  8
DEFPOINTS
 10
252.9484669148843068
 20
106.1491702942452946
 30
0.0
 40
0.001
  1
HYDRO-TOWER 200
  3

  2
TRADENAME
 70
     0
1001
ACDBATTR
1070
     0
1070
     1
  0
ATTDEF
  5
1DAEF
  8
DEFPOINTS
 10
252.9484669148843068
 20
106.147503627578601
 30
0.0
 40
0.001
  1
IN-WALL TANK AND CARRIER SYSTEM
  3

  2
PRODUCT
 70
     0
1001
ACDBATTR
1070
     0
1070
     1
  0
LINE
  5
1EB97
  8
0
 10
245.9188169406131976
 20
114.7553459203543014
 30
0.0
 11
259.9774386977524046
 21
114.7553459203543014
 31
0.0
  0
LINE
  5
1EB98
  8
0
 10
248.4889532856032019
 20
114.8537711166543005
 30
0.0
 11
257.4073023527623718
 21
114.8537711166543005
 31
0.0
  0
LINE
  5
1EB99
  8
0
 10
248.5645305541029018
 20
114.7356608804543043
 30
0.0
 11
257.3317250842625867
 21
114.7356608804543043
 31
0.0
  0
LINE
  5
1EB9A
  8
0
 10
248.9753068190188117
 20
111.0742435576542988
 30
0.0
 11
256.9209488193467905
 21
111.0742435576542988
 31
0.0
  0
LINE
  5
1EB9B
  8
0
 10
248.6057536736028055
 20
110.916763242654298
 30
0.0
 11
257.2905019647627114
 21
110.916763242654298
 31
0.0
  0
LINE
  5
1EB9C
  8
0
 10
245.1737223217027974
 20
110.8257935576542934
 30
0.0
 11
260.7225333166628047
 21
110.8257935576542934
 31
0.0
  0
LINE
  5
1EB9D
  8
0
 10
245.6024638484024081
 20
99.1722502505543275
 30
0.0
 11
260.2937917899632225
 21
99.1722502505543275
 31
0.0
  0
LINE
  5
1EB9E
  8
0
 10
246.8482337885097877
 20
109.3069504989794041
 30
0.0
 11
259.0480218498557861
 21
109.3069504989794041
 31
0.0
  0
LINE
  5
1EB9F
  8
0
 10
259.0479502195415762
 20
100.2658560830873
 30
0.0
 11
246.8481956676043012
 21
100.2658560825542935
 31
0.0
  0
LINE
  5
1EBA0
  8
0
 10
255.2302343921627141
 20
98.6998093056543269
 30
0.0
 11
250.6660212462028881
 21
98.6998093056543269
 31
0.0
  0
LINE
  5
1EBA1
  8
0
 10
255.2302343921627141
 20
98.6998093056543269
 30
0.0
 11
255.2302358584190927
 21
98.8180027230910554
 31
0.0
  0
ARC
  5
1EBA2
  8
0
 10
255.5848149531950924
 20
98.8179983243355764
 30
0.0
 40
0.354579094802984
 50
92.4615023979853561
 51
179.9992892132403028
  0
ARC
  5
1EBA3
  8
0
 10
254.6245027091163138
 20
98.6804571644745181
 30
0.0
 40
0.0193587926217073
 50
331.530715115115413
 51
88.4980038021849822
  0
LINE
  5
1EBA4
  8
0
 10
254.6415204967944987
 20
98.6712290685543252
 30
0.0
 11
254.5572104733039112
 21
98.5032740216741161
 31
0.0
  0
LINE
  5
1EBA5
  8
0
 10
254.8300566036126042
 20
98.5029589119543232
 30
0.0
 11
251.0661990347529979
 21
98.5029589119543232
 31
0.0
  0
LINE
  5
1EBA6
  8
0
 10
251.296530634756607
 20
97.8730385987543343
 30
0.0
 11
254.599702763512596
 21
97.8730385971839212
 31
0.0
  0
ARC
  5
1EBA7
  8
0
 10
254.5997027635874872
 20
98.0305189118223694
 30
0.0
 40
0.1574803146384509
 50
269.9999999727593831
 51
351.4414673562852727
  0
LINE
  5
1EBA8
  8
0
 10
254.8300566036126042
 20
98.5029589119543232
 30
0.0
 11
254.7554294320995041
 21
98.0070827386543044
 31
0.0
  0
CIRCLE
  5
1EBA9
  8
0
 10
252.9481278179125923
 20
96.5883659539543231
 30
0.0
 40
1.2512006757999989
  0
CIRCLE
  5
1EBAA
  8
0
 10
252.9481278179125923
 20
96.5883659539543231
 30
0.0
 40
1.1712598425
  0
CIRCLE
  5
1EBAB
  8
0
 10
252.9481278179125923
 20
96.5883659539543231
 30
0.0
 40
0.8700787401999514
  0
ARC
  5
1EBAC
  8
0
 10
254.2748994714125956
 20
97.7942984412543268
 30
0.0
 40
0.078740157500001
 50
90.003588353484048
 51
179.9999999999992042
  0
LINE
  5
1EBAD
  8
0
 10
254.1961593139126023
 20
97.7942984412543268
 30
0.0
 11
254.1961593139126023
 21
97.7300982374543139
 31
0.0
  0
ARC
  5
1EBAE
  8
0
 10
248.4839435998003125
 20
97.7318996579704873
 30
0.0
 40
5.712215998162792
 50
352.2133237445131044
 51
359.9819310413944891
  0
LINE
  5
1EBAF
  8
0
 10
252.4363167942719883
 20
95.4466336704472269
 30
0.0
 11
252.436316794312603
 21
94.9348226468543146
 31
0.0
  0
LINE
  5
1EBB0
  8
0
 10
252.436316794312603
 20
94.9348226468543146
 30
0.0
 11
252.5544270305126133
 21
94.7379722531543251
 31
0.0
  0
LINE
  5
1EBB1
  8
0
 10
252.5544270305126133
 20
94.7379722531543251
 30
0.0
 11
253.3418286053125996
 21
94.7379722531543251
 31
0.0
  0
LINE
  5
1EBB2
  8
0
 10
253.3418286053125996
 20
94.7379722531543251
 30
0.0
 11
253.4599388416125976
 21
94.9348226468543146
 31
0.0
  0
LINE
  5
1EBB3
  8
0
 10
253.4599388416125976
 20
94.9348226468543146
 30
0.0
 11
253.4599388415531962
 21
95.4466336704472269
 31
0.0
  0
ARC
  5
1EBB4
  8
0
 10
257.4073023527623718
 20
114.7947159985542953
 30
0.0
 40
0.0590551181000016
 50
0.5000000150812852
 51
90.0
  0
LINE
  5
1EBB5
  8
0
 10
257.4663552222244221
 20
114.7952313451543063
 30
0.0
 11
257.4667032970684772
 21
114.7553459198544061
 31
0.0
  0
ARC
  5
1EBB6
  8
0
 10
257.3384047149626781
 20
114.7947159985542953
 30
0.0
 40
0.0590551180999874
 50
0.500000859093608
 51
90.0
  0
LINE
  5
1EBB7
  8
0
 10
257.3974575844169976
 20
114.7952313460241953
 30
0.0
 11
257.397805659855976
 21
114.7553459198543067
 31
0.0
  0
ARC
  5
1EBB8
  8
0
 10
257.3317250842625867
 20
114.617550644254294
 30
0.0
 40
0.1181102361999997
 50
357.0000000000001137
 51
90.0
  0
LINE
  5
1EBB9
  8
0
 10
257.4496734544889023
 20
114.6113692321006994
 30
0.0
 11
257.2784217549145183
 21
111.343692144519494
 31
0.0
  0
ARC
  5
1EBBA
  8
0
 10
257.1604011978934068
 20
111.3498935320840957
 30
0.0
 40
0.118183370603943
 50
282.4548883972074123
 51
356.9921606839404262
  0
LINE
  5
1EBBB
  8
0
 10
257.1858899075626255
 20
111.2344914750542983
 30
0.0
 11
257.1596640522432153
 21
111.226245797906401
 31
0.0
  0
LINE
  5
1EBBC
  8
0
 10
257.1596640522432153
 20
111.226245797906401
 30
0.0
 11
257.1352630135626782
 21
111.2135772325543002
 31
0.0
  0
ARC
  5
1EBBD
  8
0
 10
257.2201957206983138
 20
111.0802153516815025
 30
0.0
 40
0.1581105815918507
 50
122.4913871132898038
 51
147.4300779460272111
  0
ARC
  5
1EBBE
  8
0
 10
256.9201822877677728
 20
111.2718601117289978
 30
0.0
 40
0.1978891009813455
 50
298.8368399708634229
 51
327.4300779460272111
  0
ARC
  5
1EBBF
  8
0
 10
256.9212415214872181
 20
111.2699363038475013
 30
0.0
 40
0.1956929650936854
 50
269.9143014536030023
 51
298.8368399708634229
  0
LINE
  5
1EBC0
  8
0
 10
257.3815327246526863
 20
114.7246451205542996
 30
0.0
 11
257.5155106586032048
 21
114.7246451205542996
 31
0.0
  0
LINE
  5
1EBC1
  8
0
 10
257.5155106586032048
 20
114.7246451205542996
 30
0.0
 11
257.3409514749625941
 21
111.3415883083543036
 31
0.0
  0
ARC
  5
1EBC2
  8
0
 10
257.1644179012334916
 20
111.3506970990799942
 30
0.0
 40
0.1767684155104673
 50
317.5136998150665022
 51
357.0462681134991954
  0
ARC
  5
1EBC3
  8
0
 10
257.291780379524198
 20
111.2157521025941946
 30
0.0
 40
0.015833950783101
 50
1.1429552367283899
 51
79.1058635466185507
  0
ARC
  5
1EBC4
  8
0
 10
257.2902196157962749
 20
111.207646429529305
 30
0.0
 40
0.0240885203614321
 50
79.1041879523628069
 51
88.2779206064417536
  0
LINE
  5
1EBC5
  8
0
 10
257.2909435102886277
 20
111.2317240704013983
 30
0.0
 11
257.2183287027099254
 21
111.2317171725731981
 31
0.0
  0
ARC
  5
1EBC6
  8
0
 10
257.1894846203715019
 20
50.5372002563616078
 30
0.0
 40
60.6945237700518021
 50
89.9727711144153943
 51
90.004290327687869
  0
ARC
  5
1EBC7
  8
0
 10
257.1811194947384251
 20
162.250436800150311
 30
0.0
 40
51.0187130869286207
 50
269.9954718035165797
 51
270.0042903276878974
  0
LINE
  5
1EBC8
  8
0
 10
257.3076111799625778
 20
111.2160679425543037
 30
0.0
 11
257.3076101187627955
 21
110.9326102867542971
 31
0.0
  0
ARC
  5
1EBC9
  8
0
 10
257.2901991262359047
 20
110.9342485147594033
 30
0.0
 40
0.0174878944348198
 50
270.9922427688265998
 51
354.6247743128042202
  0
ARC
  5
1EBCA
  8
0
 10
259.9774407048263924
 20
114.4403852893895959
 30
0.0
 40
0.3149606309710543
 50
1.001208443390903
 51
90.000365115070025
  0
LINE
  5
1EBCB
  8
0
 10
260.2923532497626979
 20
114.4458887522543051
 30
0.0
 11
260.3556186194098814
 21
110.8257935576542934
 31
0.0
  0
LINE
  5
1EBCC
  8
0
 10
260.7225333166628047
 20
110.8257935576542934
 30
0.0
 11
260.6087682730587858
 21
99.4872108804543416
 31
0.0
  0
ARC
  5
1EBCD
  8
0
 10
260.2906156365031052
 20
99.4904030473768444
 30
0.0
 40
0.3181686503676801
 50
270.5719709050451911
 51
359.4251452476560758
  0
LINE
  5
1EBCE
  8
0
 10
258.7625711822627181
 20
106.4974588079543025
 30
0.0
 11
257.6602089777591118
 21
106.4974651492992024
 31
0.0
  0
ARC
  5
1EBCF
  8
0
 10
257.6602086330265138
 20
106.441229580075202
 30
0.0
 40
0.0562355692251246
 50
89.9996487682618493
 51
180.0597682917857014
  0
LINE
  5
1EBD0
  8
0
 10
257.6039730943983272
 20
106.4411709177560965
 30
0.0
 11
257.6039491702625241
 21
105.3388505349543038
 31
0.0
  0
ARC
  5
1EBD1
  8
0
 10
257.6602017238627127
 20
105.3388505349543038
 30
0.0
 40
0.0562525536000007
 50
180.0
 51
269.9996412916976283
  0
LINE
  5
1EBD2
  8
0
 10
257.6602013716853889
 20
105.2825979813553943
 30
0.0
 11
258.7625635761654053
 21
105.2825910798615041
 31
0.0
  0
ARC
  5
1EBD3
  8
0
 10
258.7625639283448891
 20
105.3388440499832939
 30
0.0
 40
0.0562529701229224
 50
269.9996412916976283
 51
359.9992169185422881
  0
LINE
  5
1EBD4
  8
0
 10
258.8188168984627282
 20
105.338843281154297
 30
0.0
 11
258.8188319648323272
 21
106.4412054789605975
 31
0.0
  0
ARC
  5
1EBD5
  8
0
 10
258.7625794040666278
 20
106.4412062477840948
 30
0.0
 40
0.056252560771069
 50
359.9992169185438797
 51
90.0083742794589767
  0
LINE
  5
1EBD6
  8
0
 10
258.7625490677945095
 20
104.3911808586034056
 30
0.0
 11
257.6601868632913011
 21
104.3911871999483054
 31
0.0
  0
ARC
  5
1EBD7
  8
0
 10
257.660186518558703
 20
104.334951630724305
 30
0.0
 40
0.0562355692251246
 50
89.9996487682618493
 51
180.0597682917857014
  0
LINE
  5
1EBD8
  8
0
 10
257.6039509799305165
 20
104.3348929684051996
 30
0.0
 11
257.6039270557945997
 21
103.2325725856034069
 31
0.0
  0
ARC
  5
1EBD9
  8
0
 10
257.6601796093949019
 20
103.2325725856034069
 30
0.0
 40
0.0562525536000007
 50
180.0
 51
269.9996412916976283
  0
LINE
  5
1EBDA
  8
0
 10
257.6601792572175782
 20
103.1763200320044973
 30
0.0
 11
258.7625414616974808
 21
103.1763131305105929
 31
0.0
  0
ARC
  5
1EBDB
  8
0
 10
258.7625418138770783
 20
103.2325661006323969
 30
0.0
 40
0.0562529701229224
 50
269.9996412916976283
 51
359.9992169185422881
  0
LINE
  5
1EBDC
  8
0
 10
258.8187947839945195
 20
103.2325653318034
 30
0.0
 11
258.8188098503644028
 21
104.3349275296097005
 31
0.0
  0
ARC
  5
1EBDD
  8
0
 10
258.7625572895984192
 20
104.3349282984331978
 30
0.0
 40
0.056252560771069
 50
359.9992169185438797
 51
90.0083742794589767
  0
LINE
  5
1EBDE
  8
0
 10
258.7625358809448244
 20
102.2848816460033987
 30
0.0
 11
257.660173676441218
 21
102.284887987348398
 31
0.0
  0
ARC
  5
1EBDF
  8
0
 10
257.66017333170862
 20
102.2286524181242982
 30
0.0
 40
0.0562355692251246
 50
89.9996487682618493
 51
180.0597682917857014
  0
LINE
  5
1EBE0
  8
0
 10
257.6039377930803767
 20
102.2285937558052069
 30
0.0
 11
257.6039138689445736
 21
101.1262733730034
 31
0.0
  0
ARC
  5
1EBE1
  8
0
 10
257.6601664225448189
 20
101.1262733730034
 30
0.0
 40
0.0562525536000007
 50
180.0
 51
269.9996412916976283
  0
LINE
  5
1EBE2
  8
0
 10
257.6601660703674952
 20
101.0700208194045047
 30
0.0
 11
258.7625282748473978
 21
101.0700139179106003
 31
0.0
  0
ARC
  5
1EBE3
  8
0
 10
258.7625286270269953
 20
101.1262668880324043
 30
0.0
 40
0.0562529701229224
 50
269.9996412916976283
 51
359.9992169185422881
  0
LINE
  5
1EBE4
  8
0
 10
258.8187815971447776
 20
101.1262661192033931
 30
0.0
 11
258.8187966635143766
 21
102.2286283170097931
 31
0.0
  0
ARC
  5
1EBE5
  8
0
 10
258.7625441027486772
 20
102.2286290858332052
 30
0.0
 40
0.056252560771069
 50
359.9992169185438797
 51
90.0083742794589767
  0
LINE
  5
1EBE6
  8
0
 10
256.6562719697124066
 20
106.4974719948542941
 30
0.0
 11
255.5539097652093119
 21
106.4974783361991939
 31
0.0
  0
ARC
  5
1EBE7
  8
0
 10
255.5539094204767139
 20
106.4412427669751935
 30
0.0
 40
0.0562355692251246
 50
89.9996487682618493
 51
180.0597682917857014
  0
LINE
  5
1EBE8
  8
0
 10
255.4976738818484137
 20
106.4411841046561022
 30
0.0
 11
255.4976499577126106
 21
105.3388637218542954
 31
0.0
  0
ARC
  5
1EBE9
  8
0
 10
255.5539025113127991
 20
105.3388637218542954
 30
0.0
 40
0.0562525536000007
 50
180.0
 51
269.9996412916976283
  0
LINE
  5
1EBEA
  8
0
 10
255.553902159135589
 20
105.2826111682554
 30
0.0
 11
256.6562643636154917
 21
105.2826042667614956
 31
0.0
  0
ARC
  5
1EBEB
  8
0
 10
256.6562647157950892
 20
105.3388572368832996
 30
0.0
 40
0.0562529701229224
 50
269.9996412916976283
 51
359.9992169185422881
  0
LINE
  5
1EBEC
  8
0
 10
256.7125176859124167
 20
105.3388564680543027
 30
0.0
 11
256.7125327522824136
 21
106.4412186658606032
 31
0.0
  0
ARC
  5
1EBED
  8
0
 10
256.6562801915163163
 20
106.4412194346841005
 30
0.0
 40
0.056252560771069
 50
359.9992169185438797
 51
90.0083742794589767
  0
LINE
  5
1EBEE
  8
0
 10
256.6562498552445959
 20
104.3911940455033971
 30
0.0
 11
255.5538876507415011
 21
104.3912003868482969
 31
0.0
  0
ARC
  5
1EBEF
  8
0
 10
255.5538873060089031
 20
104.3349648176242965
 30
0.0
 40
0.0562355692251246
 50
89.9996487682618493
 51
180.0597682917857014
  0
LINE
  5
1EBF0
  8
0
 10
255.4976517673806029
 20
104.3349061553052053
 30
0.0
 11
255.4976278432447998
 21
103.2325857725033984
 31
0.0
  0
ARC
  5
1EBF1
  8
0
 10
255.5538803968445052
 20
103.2325857725033984
 30
0.0
 40
0.0562525536000007
 50
180.0
 51
269.9996412916976283
  0
LINE
  5
1EBF2
  8
0
 10
255.5538800446678067
 20
103.176333218904503
 30
0.0
 11
256.6562422491472262
 21
103.1763263174105987
 31
0.0
  0
ARC
  5
1EBF3
  8
0
 10
256.6562426013268237
 20
103.2325792875324026
 30
0.0
 40
0.0562529701229224
 50
269.9996412916976283
 51
359.9992169185422881
  0
LINE
  5
1EBF4
  8
0
 10
256.712495571444606
 20
103.2325785187034057
 30
0.0
 11
256.712510637814205
 21
104.3349407165098057
 31
0.0
  0
ARC
  5
1EBF5
  8
0
 10
256.6562580770485056
 20
104.3349414853332036
 30
0.0
 40
0.056252560771069
 50
359.9992169185438797
 51
90.0083742794589767
  0
LINE
  5
1EBF6
  8
0
 10
256.6562366683945129
 20
102.2848948329034044
 30
0.0
 11
255.5538744638913897
 21
102.2849011742483043
 31
0.0
  0
ARC
  5
1EBF7
  8
0
 10
255.5538741191587917
 20
102.2286656050243039
 30
0.0
 40
0.0562355692251246
 50
89.9996487682618493
 51
180.0597682917857014
  0
LINE
  5
1EBF8
  8
0
 10
255.4976385805304915
 20
102.2286069427051984
 30
0.0
 11
255.4976146563948021
 21
101.1262865599034058
 31
0.0
  0
ARC
  5
1EBF9
  8
0
 10
255.5538672099945074
 20
101.1262865599034058
 30
0.0
 40
0.0562525536000007
 50
180.0
 51
269.9996412916976283
  0
LINE
  5
1EBFA
  8
0
 10
255.5538668578176953
 20
101.0700340063044962
 30
0.0
 11
256.6562290622972
 21
101.070027104810606
 31
0.0
  0
ARC
  5
1EBFB
  8
0
 10
256.6562294144770817
 20
101.1262800749323958
 30
0.0
 40
0.0562529701229224
 50
269.9996412916976283
 51
359.9992169185422881
  0
LINE
  5
1EBFC
  8
0
 10
256.712482384594523
 20
101.1262793061033989
 30
0.0
 11
256.7124974509645199
 21
102.2286415039097989
 31
0.0
  0
ARC
  5
1EBFD
  8
0
 10
256.6562448901984226
 20
102.2286422727331967
 30
0.0
 40
0.056252560771069
 50
359.9992169185438797
 51
90.0083742794589767
  0
LINE
  5
1EBFE
  8
0
 10
254.5499727571626067
 20
106.4974851815435954
 30
0.0
 11
253.4476105526590004
 21
106.4974915228884953
 31
0.0
  0
ARC
  5
1EBFF
  8
0
 10
253.4476102079268003
 20
106.4412559536644949
 30
0.0
 40
0.0562355692251246
 50
89.9996487682618493
 51
180.0597682917857014
  0
LINE
  5
1EC00
  8
0
 10
253.3913746692986138
 20
106.4411972913454036
 30
0.0
 11
253.3913507451628107
 21
105.3388769085435968
 31
0.0
  0
ARC
  5
1EC01
  8
0
 10
253.4476032987624876
 20
105.3388769085435968
 30
0.0
 40
0.0562525536000007
 50
180.0
 51
269.9996412916976283
  0
LINE
  5
1EC02
  8
0
 10
253.4476029465857039
 20
105.2826243549447014
 30
0.0
 11
254.5499651510652086
 21
105.282617453450797
 31
0.0
  0
ARC
  5
1EC03
  8
0
 10
254.5499655032446924
 20
105.338870423572601
 30
0.0
 40
0.0562529701229224
 50
269.9996412916976283
 51
359.9992169185422881
  0
LINE
  5
1EC04
  8
0
 10
254.6062184733625884
 20
105.3388696547436041
 30
0.0
 11
254.6062335397321021
 21
106.4412318525499046
 31
0.0
  0
ARC
  5
1EC05
  8
0
 10
254.549980978966488
 20
106.4412326213734019
 30
0.0
 40
0.056252560771069
 50
359.9992169185438797
 51
90.0083742794589767
  0
LINE
  5
1EC06
  8
0
 10
254.549950642694796
 20
104.3912072321926985
 30
0.0
 11
253.4475884381911897
 21
104.3912135735375983
 31
0.0
  0
ARC
  5
1EC07
  8
0
 10
253.4475880934585916
 20
104.3349780043135979
 30
0.0
 40
0.0562355692251246
 50
89.9996487682618493
 51
180.0597682917857014
  0
LINE
  5
1EC08
  8
0
 10
253.3913525548302914
 20
104.3349193419945067
 30
0.0
 11
253.3913286306944883
 21
103.2325989591926998
 31
0.0
  0
ARC
  5
1EC09
  8
0
 10
253.4475811842947053
 20
103.2325989591926998
 30
0.0
 40
0.0562525536000007
 50
180.0
 51
269.9996412916976283
  0
LINE
  5
1EC0A
  8
0
 10
253.44758083211741
 20
103.1763464055938044
 30
0.0
 11
254.5499430365973978
 21
103.1763395040999001
 31
0.0
  0
ARC
  5
1EC0B
  8
0
 10
254.5499433887769101
 20
103.232592474221704
 30
0.0
 40
0.0562529701229224
 50
269.9996412916976283
 51
359.9992169185422881
  0
LINE
  5
1EC0C
  8
0
 10
254.6061963588948061
 20
103.2325917053926929
 30
0.0
 11
254.6062114252642914
 21
104.3349539031990929
 31
0.0
  0
ARC
  5
1EC0D
  8
0
 10
254.5499588644987057
 20
104.334954672022505
 30
0.0
 40
0.056252560771069
 50
359.9992169185438797
 51
90.0083742794589767
  0
LINE
  5
1EC0E
  8
0
 10
254.549937455844713
 20
102.2849080195927058
 30
0.0
 11
253.4475752513411067
 21
102.2849143609376057
 31
0.0
  0
ARC
  5
1EC0F
  8
0
 10
253.4475749066089065
 20
102.2286787917136053
 30
0.0
 40
0.0562355692251246
 50
89.9996487682618493
 51
180.0597682917857014
  0
LINE
  5
1EC10
  8
0
 10
253.3913393679806916
 20
102.2286201293944998
 30
0.0
 11
253.3913154438448885
 21
101.1262997465926929
 31
0.0
  0
ARC
  5
1EC11
  8
0
 10
253.4475679974445939
 20
101.1262997465926929
 30
0.0
 40
0.0562525536000007
 50
180.0
 51
269.9996412916976283
  0
LINE
  5
1EC12
  8
0
 10
253.4475676452678101
 20
101.0700471929937976
 30
0.0
 11
254.5499298497472864
 21
101.0700402914998932
 31
0.0
  0
ARC
  5
1EC13
  8
0
 10
254.5499302019269123
 20
101.1262932616216972
 30
0.0
 40
0.0562529701229224
 50
269.9996412916976283
 51
359.9992169185422881
  0
LINE
  5
1EC14
  8
0
 10
254.6061831720446946
 20
101.1262924927927003
 30
0.0
 11
254.6061982384142084
 21
102.2286546905991003
 31
0.0
  0
ARC
  5
1EC15
  8
0
 10
254.5499456776485943
 20
102.2286554594224981
 30
0.0
 40
0.056252560771069
 50
359.9992169185438797
 51
90.0083742794589767
  0
ARC
  5
1EC16
  8
0
 10
259.0479525116081732
 20
100.8494077373156017
 30
0.0
 40
0.5835516542327409
 50
269.9997749543808823
 51
359.9980371564462871
  0
LINE
  5
1EC17
  8
0
 10
259.6315041654981997
 20
100.8493877459547008
 30
0.0
 11
259.6317739141816219
 21
108.7234035048618068
 31
0.0
  0
ARC
  5
1EC18
  8
0
 10
259.0482412639448739
 20
108.7234178898163037
 30
0.0
 40
0.583532650413993
 50
359.9985875731530882
 51
90.0215437843247059
  0
LINE
  5
1EC19
  8
0
 10
260.3413170969300268
 20
111.6440790454543048
 30
0.0
 11
260.4003051438332932
 21
111.7041648174542985
 31
0.0
  0
LINE
  5
1EC1A
  8
0
 10
260.4003051438332932
 20
111.7041648174542985
 30
0.0
 11
261.542616006912624
 21
111.7041648174542985
 31
0.0
  0
LINE
  5
1EC1B
  8
0
 10
260.3497026211628054
 20
114.0073144237542948
 30
0.0
 11
260.3103325423624028
 21
114.0073087337543001
 31
0.0
  0
LINE
  5
1EC1C
  8
0
 10
260.3103325423624028
 20
114.0073087337543001
 30
0.0
 11
260.3103325423624028
 21
113.4158557684796023
 31
0.0
  0
LINE
  5
1EC1D
  8
0
 10
260.4402538022624753
 20
114.0762120615543012
 30
0.0
 11
260.3693876605627793
 21
114.0762120615543012
 31
0.0
  0
ARC
  5
1EC1E
  8
0
 10
260.3693876605627793
 20
114.0565270221542988
 30
0.0
 40
0.0196850393999988
 50
90.0
 51
180.0000000000098055
  0
LINE
  5
1EC1F
  8
0
 10
260.3497026211628054
 20
114.0565270221542988
 30
0.0
 11
260.3497026211628054
 21
113.2996563089542974
 31
0.0
  0
LINE
  5
1EC20
  8
0
 10
260.3117329101672226
 20
113.336992431254302
 30
0.0
 11
260.375977042862587
 21
113.2738365066543054
 31
0.0
  0
ARC
  5
1EC21
  8
0
 10
260.3539106276837174
 20
113.2539355394170997
 30
0.0
 40
0.0297148982186374
 50
3.9938995479902322
 51
42.0462512765726117
  0
ARC
  5
1EC22
  8
0
 10
260.3252004728449265
 20
113.2519310015988054
 30
0.0
 40
0.0584949462159516
 50
348.3147773728911716
 51
3.9938995479918571
  0
LINE
  5
1EC23
  8
0
 10
260.3824831159624864
 20
113.2400837432543028
 30
0.0
 11
261.542616006912624
 21
113.2395978883542966
 31
0.0
  0
ARC
  5
1EC24
  8
0
 10
260.4402538022624753
 20
114.0565270221542988
 30
0.0
 40
0.0196850393999917
 50
359.9999999999902229
 51
90.0000000000260485
  0
LINE
  5
1EC25
  8
0
 10
260.4599388416625061
 20
114.0565270221542988
 30
0.0
 11
260.4599388416625061
 21
113.2789679670542995
 31
0.0
  0
LINE
  5
1EC26
  8
0
 10
260.370755230821203
 20
113.2789679670542995
 30
0.0
 11
261.542616006912624
 21
113.2789679670542995
 31
0.0
  0
LINE
  5
1EC27
  8
0
 10
260.4599388416625061
 20
113.8163695418543
 30
0.0
 11
260.7434034085624717
 21
113.8163695418543
 31
0.0
  0
ARC
  5
1EC28
  8
0
 10
260.0084039592077261
 20
112.9337523764491067
 30
0.0
 40
0.7655621457584362
 50
26.8055601354767994
 51
28.4906503850498716
  0
ARC
  5
1EC29
  8
0
 10
260.7170036332778977
 20
113.3183409031603048
 30
0.0
 40
0.0406771691909152
 50
151.0619860594657098
 51
208.4906503850484967
  0
ARC
  5
1EC2A
  8
0
 10
260.221433767996416
 20
113.5997711419987013
 30
0.0
 40
0.5292313516403362
 50
330.3578396104354056
 51
350.4976248272615749
  0
ARC
  5
1EC2B
  8
0
 10
260.2214651928782132
 20
113.5349476183210982
 30
0.0
 40
0.5291985135095205
 50
9.501743810594764
 51
29.6427917724473389
  0
ARC
  5
1EC2C
  8
0
 10
260.721664736556022
 20
113.819594853619293
 30
0.0
 40
0.0463218006917078
 50
195.0345152219530007
 51
209.6427917724473957
  0
ARC
  5
1EC2D
  8
0
 10
260.6895624202791168
 20
113.8109723335299037
 30
0.0
 40
0.0130816658692556
 50
174.2191942124943012
 51
195.0345152219564966
  0
ARC
  5
1EC2E
  8
0
 10
260.6815903689328024
 20
113.8117794068574966
 30
0.0
 40
0.0050688654833014
 50
149.4157055998907992
 51
174.219194212486201
  0
ARC
  5
1EC2F
  8
0
 10
260.6804998307786718
 20
113.812423945904996
 30
0.0
 40
0.0038020963451485
 50
119.8474142813550998
 51
149.4157055998622923
  0
ARC
  5
1EC30
  8
0
 10
260.68088727173091
 20
113.8117487321433998
 30
0.0
 40
0.004580571852311
 50
97.5990960369258715
 51
119.8474142813550998
  0
ARC
  5
1EC31
  8
0
 10
260.6792360037259186
 20
113.8241258997875036
 30
0.0
 40
0.0079062598080922
 50
277.5990960368995957
 51
281.1749142962577253
  0
LINE
  5
1EC32
  8
0
 10
261.523715561749782
 20
113.1636065599676044
 30
0.0
 11
260.3745413763855936
 21
113.1694328003928973
 31
0.0
  0
ARC
  5
1EC33
  8
0
 10
260.3737149169261897
 20
113.1113191580863031
 30
0.0
 40
0.0581195187297157
 50
89.1852266506359825
 51
177.8145747402651864
  0
LINE
  5
1EC34
  8
0
 10
260.8131367856918814
 20
112.5496114155112934
 30
0.0
 11
260.3835043937626779
 21
112.5485779047542962
 31
0.0
  0
ARC
  5
1EC35
  8
0
 10
260.3833523071637046
 20
112.6074878522575062
 30
0.0
 40
0.0589101438222646
 50
183.3207041778385076
 51
270.1479190059400253
  0
LINE
  5
1EC36
  8
0
 10
253.1252931723626887
 20
113.5535367030543057
 30
0.0
 11
253.7345447365626114
 21
113.5535367030543057
 31
0.0
  0
ARC
  5
1EC37
  8
0
 10
253.7345447365626114
 20
113.2779836559061977
 30
0.0
 40
0.2755530471481293
 50
359.9991138288315824
 51
90.0
  0
LINE
  5
1EC38
  8
0
 10
254.010097783677594
 20
113.2779793940361941
 30
0.0
 11
254.010087462315596
 21
112.6106472615866068
 31
0.0
  0
ARC
  5
1EC39
  8
0
 10
253.7345438315749959
 20
112.6106515233110059
 30
0.0
 40
0.2755436307734635
 50
269.9993672860109086
 51
359.9991138288315824
  0
LINE
  5
1EC3A
  8
0
 10
253.7345407887625868
 20
112.335107892554305
 30
0.0
 11
253.1252931723996085
 21
112.3351146204406064
 31
0.0
  0
LINE
  5
1EC3B
  8
0
 10
253.1252931723996085
 20
112.3351146204406064
 30
0.0
 11
253.1252931723626887
 21
113.5535367030543057
 31
0.0
  0
LINE
  5
1EC3C
  8
0
 10
253.1646632510625921
 20
113.4944905793543057
 30
0.0
 11
253.1646632510625921
 21
112.3941540161543031
 31
0.0
  0
LINE
  5
1EC3D
  8
0
 10
253.1646632510625921
 20
112.3941540161543031
 30
0.0
 11
253.7345495499623951
 21
112.3941540161543031
 31
0.0
  0
ARC
  5
1EC3E
  8
0
 10
253.7345495499623951
 20
112.6106532084226046
 30
0.0
 40
0.2164991922683193
 50
270.0
 51
0.0008633250142264
  0
LINE
  5
1EC3F
  8
0
 10
253.9510487422064955
 20
112.6106564706030042
 30
0.0
 11
253.9510386869436047
 21
113.277988124186507
 31
0.0
  0
ARC
  5
1EC40
  8
0
 10
253.7345362191707068
 20
113.2779848619567957
 30
0.0
 40
0.2165024677976792
 50
0.0008633250142264
 51
89.9847188491988135
  0
LINE
  5
1EC41
  8
0
 10
253.734593961762414
 20
113.4944873220542974
 30
0.0
 11
253.1646632510625921
 21
113.4944905793543057
 31
0.0
  0
LINE
  5
1EC42
  8
0
 10
253.1252931723626887
 20
113.5535367030543057
 30
0.0
 11
253.1646632510625921
 21
113.4941289855542976
 31
0.0
  0
LINE
  5
1EC43
  8
0
 10
253.1252931723626887
 20
112.3351078924543032
 30
0.0
 11
253.1646632510625921
 21
112.394515609954297
 31
0.0
  0
LINE
  5
1EC44
  8
0
 10
253.1646632510625921
 20
113.4941289855542976
 30
0.0
 11
253.1843482904625944
 21
113.4896621382543032
 31
0.0
  0
LINE
  5
1EC45
  8
0
 10
253.1843482904625944
 20
113.4896621382543032
 30
0.0
 11
253.2434034085625001
 21
113.4896621382543032
 31
0.0
  0
ARC
  5
1EC46
  8
0
 10
253.2434034085625001
 20
113.4306070194692069
 30
0.0
 40
0.0590551187850572
 50
359.9912728622064719
 51
90.0
  0
LINE
  5
1EC47
  8
0
 10
253.3024585266628037
 20
113.4305980243536993
 30
0.0
 11
253.3023103902625905
 21
112.4580465824371061
 31
0.0
  0
ARC
  5
1EC48
  8
0
 10
253.2432370335808116
 20
112.4580555803306936
 30
0.0
 40
0.0590733573671804
 50
270.1613688015215189
 51
359.9912728622064719
  0
LINE
  5
1EC49
  8
0
 10
253.2434034085625001
 20
112.3989824572543057
 30
0.0
 11
253.1843485246810985
 21
112.3989824572543057
 31
0.0
  0
LINE
  5
1EC4A
  8
0
 10
253.1843485246810985
 20
112.3988161336417022
 30
0.0
 11
253.1843482904625944
 21
112.394515609954297
 31
0.0
  0
LINE
  5
1EC4B
  8
0
 10
253.1843482904625944
 20
112.394515609954297
 30
0.0
 11
253.1646632510625921
 21
112.394515609954297
 31
0.0
  0
LINE
  5
1EC4C
  8
0
 10
256.6686302401715238
 20
114.7553459203543014
 30
0.0
 11
256.6686302401715238
 21
114.7356608804543043
 31
0.0
  0
LINE
  5
1EC4D
  8
0
 10
256.8841040427889766
 20
114.7553459203543014
 30
0.0
 11
256.8830723936624167
 21
114.7356608804543043
 31
0.0
  0
LINE
  5
1EC4E
  8
0
 10
260.7434034085624717
 20
113.8163695418543
 30
0.0
 11
260.74340340851262
 21
113.2789679670542995
 31
0.0
  0
ARC
  5
1EC4F
  8
0
 10
261.542616006912624
 20
112.491566392254299
 30
0.0
 40
0.7874015747999988
 50
270.0
 51
90.0000000151005537
  0
ARC
  5
1EC50
  8
0
 10
261.5237176219438879
 20
113.134085330048805
 30
0.0
 40
0.0295212299255722
 50
359.9964445985705197
 51
90.0019624991996352
  0
LINE
  5
1EC51
  8
0
 10
261.5532388518125799
 20
113.1340834981542969
 30
0.0
 11
261.5532226302972276
 21
112.872671562417807
 31
0.0
  0
ARC
  5
1EC52
  8
0
 10
261.5236975021176136
 20
112.872673394554198
 30
0.0
 40
0.0295251282364415
 50
270.035046106361392
 51
359.9964445985713155
  0
LINE
  5
1EC53
  8
0
 10
261.523715561750123
 20
112.8431482718410024
 30
0.0
 11
261.4520648253870831
 21
112.843148271754302
 31
0.0
  0
ARC
  5
1EC54
  8
0
 10
261.452064825812613
 20
112.491566392254299
 30
0.0
 40
0.351581879500003
 50
90.0000000693521542
 51
166.9812557432126141
  0
ARC
  5
1EC55
  8
0
 10
261.0807278602759993
 20
112.5774242530040965
 30
0.0
 40
0.0295515803621011
 50
270.0439960336271952
 51
346.9812557432134099
  0
LINE
  5
1EC56
  8
0
 10
261.080750552212578
 20
112.5478726813543062
 30
0.0
 11
260.9864733153070802
 21
112.5478002881459929
 31
0.0
  0
ARC
  5
1EC57
  8
0
 10
260.9864506348085911
 20
112.5773369640508008
 30
0.0
 40
0.0295366846126545
 50
179.9563307082131018
 51
270.0439960336271952
  0
ARC
  5
1EC58
  8
0
 10
2275.8086611371732033
 20
107.7369736971834016
 30
0.0
 40
2014.8575613284260726
 50
179.8465632308387114
 51
179.8623555588087868
  0
ARC
  5
1EC59
  8
0
 10
261.0009275491988774
 20
113.1235501060980937
 30
0.0
 40
0.0435763092114845
 50
101.1771213802700942
 51
167.8669527018909093
  0
LINE
  5
1EC5A
  8
0
 10
262.1383397152126236
 20
112.5478871067543025
 30
0.0
 11
262.1793743993126213
 21
112.5478727221542954
 31
0.0
  0
ARC
  5
1EC5B
  8
0
 10
262.1793847454445086
 20
112.577386942542006
 30
0.0
 40
0.0295142222010689
 50
269.9799151168264189
 51
7.6974202244397398
  0
ARC
  5
1EC5C
  8
0
 10
261.5422956436577806
 20
112.491278325954994
 30
0.0
 40
0.6723961845128859
 50
7.6974202244405472
 51
76.2254781714604803
  0
ARC
  5
1EC5D
  8
0
 10
261.6953666292449157
 20
113.115670215806702
 30
0.0
 40
0.0295152011721866
 50
76.2254781714604803
 51
180.0196734924930126
  0
LINE
  5
1EC5E
  8
0
 10
261.6658514298126192
 20
113.1156600812543047
 30
0.0
 11
261.6658514298126192
 21
112.8726713336542957
 31
0.0
  0
ARC
  5
1EC5F
  8
0
 10
261.6953726296736136
 20
112.8726694717173018
 30
0.0
 40
0.029521199933791
 50
179.9963863148294081
 51
270.0039686953563205
  0
LINE
  5
1EC60
  8
0
 10
261.6953746745126068
 20
112.8431482718543037
 30
0.0
 11
261.7670254558125862
 21
112.843148271754302
 31
0.0
  0
ARC
  5
1EC61
  8
0
 10
261.7670602477397779
 20
112.4916660066306946
 30
0.0
 40
0.3514822668455871
 50
13.0007917663045198
 51
90.0056714969131093
  0
ARC
  5
1EC62
  8
0
 10
262.1382598081049196
 20
112.5773695806835946
 30
0.0
 40
0.029482582216257
 50
193.0007917663045021
 51
270.1552898452313229
  0
ARC
  5
1EC63
  8
0
 10
260.8130613552128239
 20
112.579148322157593
 30
0.0
 40
0.0295396377179784
 50
270.0333853855266852
 51
359.9683106149718128
  0
LINE
  5
1EC64
  8
0
 10
260.8426009884125847
 20
112.5791319842543032
 30
0.0
 11
260.8429071630317821
 21
113.1327088892053041
 31
0.0
  0
ARC
  5
1EC65
  8
0
 10
260.8137538063019178
 20
113.1327250134653042
 30
0.0
 40
0.0291533611889128
 50
359.9683106149718128
 51
91.3273629381905181
  0
LINE
  5
1EC66
  8
0
 10
260.8130784750625821
 20
113.1618705516543031
 30
0.0
 11
260.4339237597126271
 21
113.1618705488542957
 31
0.0
  0
ARC
  5
1EC67
  8
0
 10
260.4245629632388273
 20
114.319351234345703
 30
0.0
 40
1.1575185362646809
 50
267.5381464598365255
 51
270.4633532510554232
  0
ARC
  5
1EC68
  8
0
 10
260.3724076454350893
 20
113.1062651083021962
 30
0.0
 40
0.0566882527027525
 50
87.5381464598381456
 51
183.5019008697202025
  0
ARC
  5
1EC69
  8
0
 10
261.5426160069441153
 20
112.491566392304307
 30
0.0
 40
0.7480314960499986
 50
269.9999999899329737
 51
90.0000000024068356
  0
LINE
  5
1EC6A
  8
0
 10
261.5426160068126933
 20
111.7435348962543031
 30
0.0
 11
260.4116304049545079
 21
111.7435348964529993
 31
0.0
  0
LINE
  5
1EC6B
  8
0
 10
260.4116304049545079
 20
111.7435348964529993
 30
0.0
 11
260.3408306283212141
 21
111.6719742687846946
 31
0.0
  0
LINE
  5
1EC6C
  8
0
 10
260.8130785675126049
 20
112.4335240950542953
 30
0.0
 11
260.3835043937626779
 21
112.4345548797543017
 31
0.0
  0
ARC
  5
1EC6D
  8
0
 10
260.3833523071637046
 20
112.375644932251106
 30
0.0
 40
0.0589101438222646
 50
89.8520809940599747
 51
159.5005160844860939
  0
ARC
  5
1EC6E
  8
0
 10
261.5237176219438879
 20
111.849047454459793
 30
0.0
 40
0.0295212299255722
 50
269.9980375008004216
 51
0.0035554014295391
  0
LINE
  5
1EC6F
  8
0
 10
261.5532388518125799
 20
111.8490492863543011
 30
0.0
 11
261.5532226302972276
 21
112.1104612220908052
 31
0.0
  0
ARC
  5
1EC70
  8
0
 10
261.5236975021176136
 20
112.1104593899544
 30
0.0
 40
0.0295251282364415
 50
0.0035554014287249
 51
89.9649538936385937
  0
LINE
  5
1EC71
  8
0
 10
261.523715561750123
 20
112.1399845126675956
 30
0.0
 11
261.4520648253870831
 21
112.139984512754296
 31
0.0
  0
ARC
  5
1EC72
  8
0
 10
261.452064825812613
 20
112.491566392254299
 30
0.0
 40
0.351581879500003
 50
193.0187442567865901
 51
269.9999999306477889
  0
ARC
  5
1EC73
  8
0
 10
261.0807278602759993
 20
112.4057085315045015
 30
0.0
 40
0.0295515803621011
 50
13.0187442567874196
 51
89.956003966372748
  0
LINE
  5
1EC74
  8
0
 10
261.080750552212578
 20
112.435260103154306
 30
0.0
 11
260.9864733153070802
 21
112.4353324963626051
 31
0.0
  0
ARC
  5
1EC75
  8
0
 10
260.9864506348085911
 20
112.4057958204577972
 30
0.0
 40
0.0295366846126545
 50
89.956003966372748
 51
180.0436692917868982
  0
ARC
  5
1EC76
  8
0
 10
2275.8086611371732033
 20
117.2461590873251964
 30
0.0
 40
2014.8575613284260726
 50
180.1376444411910995
 51
180.1534367691612886
  0
ARC
  5
1EC77
  8
0
 10
261.0128621705524097
 20
111.8769149267165943
 30
0.0
 40
0.0606310750596889
 50
205.9078410330180873
 51
261.8729105848959193
  0
LINE
  5
1EC78
  8
0
 10
262.1383397152126236
 20
112.4352456777542955
 30
0.0
 11
262.1793743993126213
 21
112.4352600623543026
 31
0.0
  0
ARC
  5
1EC79
  8
0
 10
262.1793847454445086
 20
112.4057458419666062
 30
0.0
 40
0.0295142222010689
 50
352.3025797755594226
 51
90.0200848831736664
  0
ARC
  5
1EC7A
  8
0
 10
261.5422956436577806
 20
112.491854458553604
 30
0.0
 40
0.6723961845128859
 50
283.7745218285394913
 51
352.3025797755594226
  0
ARC
  5
1EC7B
  8
0
 10
261.6953666292449157
 20
111.867462568701896
 30
0.0
 40
0.0295152011721866
 50
179.9803265075069874
 51
283.7745218285394913
  0
LINE
  5
1EC7C
  8
0
 10
261.6658514298126192
 20
111.8674727032542933
 30
0.0
 11
261.6658514298126192
 21
112.1104614508543023
 31
0.0
  0
ARC
  5
1EC7D
  8
0
 10
261.6953726296736136
 20
112.1104633127912962
 30
0.0
 40
0.029521199933791
 50
89.9960313046436937
 51
180.0036136851705066
  0
LINE
  5
1EC7E
  8
0
 10
261.6953746745126068
 20
112.1399845126542942
 30
0.0
 11
261.7670254555566771
 21
112.1399795496339067
 31
0.0
  0
ARC
  5
1EC7F
  8
0
 10
261.7670602477397779
 20
112.4914667778779034
 30
0.0
 40
0.3514822668455871
 50
269.9943285030868765
 51
346.9992082336954127
  0
ARC
  5
1EC80
  8
0
 10
262.1382598081049196
 20
112.4057632038250034
 30
0.0
 40
0.029482582216257
 50
89.8447101547687055
 51
166.9992082336954979
  0
ARC
  5
1EC81
  8
0
 10
260.8130613552128239
 20
112.4039844623510049
 30
0.0
 40
0.0295396377179784
 50
0.0316893850281846
 51
89.9666146144733574
  0
LINE
  5
1EC82
  8
0
 10
260.8426009884125847
 20
112.4040008002542947
 30
0.0
 11
260.8429071630317821
 21
111.8504238953031944
 31
0.0
  0
ARC
  5
1EC83
  8
0
 10
260.8137538063019178
 20
111.8504077710432938
 30
0.0
 40
0.0291533611889128
 50
268.6726370618094961
 51
0.0316893850281846
  0
LINE
  5
1EC84
  8
0
 10
260.8130784750625821
 20
111.8212622328542949
 30
0.0
 11
260.4552638475125832
 21
111.8212622329542967
 31
0.0
  0
ARC
  5
1EC85
  8
0
 10
260.4445936669112029
 20
110.7408127644166029
 30
0.0
 40
1.0805021549342431
 50
89.4341832181530663
 51
92.566088309351187
  0
ARC
  5
1EC86
  8
0
 10
260.3989093341567127
 20
111.8819670896702974
 30
0.0
 40
0.0617942981770256
 50
183.4220872423277058
 51
267.5035485144982204
  0
LINE
  5
1EC87
  8
0
 10
260.6087682730587858
 20
99.4872108804543274
 30
0.0
 11
260.7626868731126137
 21
99.4872108804543274
 31
0.0
  0
LINE
  5
1EC88
  8
0
 10
260.7626868731126137
 20
99.4872108804543274
 30
0.0
 11
260.7626868731126137
 21
99.2473526127543266
 31
0.0
  0
ARC
  5
1EC89
  8
0
 10
261.1566868731126192
 20
99.2473526127543266
 30
0.0
 40
0.3939999999999992
 50
180.0
 51
270.0
  0
LINE
  5
1EC8A
  8
0
 10
261.1566868731126192
 20
98.8533526127543212
 30
0.0
 11
261.9434900227125809
 21
98.8533526127543212
 31
0.0
  0
ARC
  5
1EC8B
  8
0
 10
261.9434900227125809
 20
99.2473526127543266
 30
0.0
 40
0.394000000000001
 50
270.0
 51
359.9999999999992042
  0
LINE
  5
1EC8C
  8
0
 10
262.3374900227125863
 20
99.2473526127543266
 30
0.0
 11
262.3374900227125863
 21
100.7864234789543048
 31
0.0
  0
LINE
  5
1EC8D
  8
0
 10
262.3374900227125863
 20
100.7864234789543048
 30
0.0
 11
260.6218038509762209
 21
100.7864234789543048
 31
0.0
  0
ARC
  5
1EC8E
  8
0
 10
261.7075687628126275
 20
99.802171510454329
 30
0.0
 40
0.2362204724000001
 50
270.0
 51
90.0
  0
LINE
  5
1EC8F
  8
0
 10
261.7075687628126275
 20
99.5659510380543367
 30
0.0
 11
261.392608132912585
 21
99.5659510380543367
 31
0.0
  0
ARC
  5
1EC90
  8
0
 10
261.392608132912585
 20
99.802171510454329
 30
0.0
 40
0.2362204724000001
 50
90.0
 51
270.0
  0
LINE
  5
1EC91
  8
0
 10
261.392608132912585
 20
100.0383919828542929
 30
0.0
 11
261.7075687628126275
 21
100.0383919828542929
 31
0.0
  0
LINE
  5
1EC92
  8
0
 10
261.523716610780582
 20
111.8195262245515949
 30
0.0
 11
261.004290797982776
 21
111.8168927738465044
 31
0.0
  0
LINE
  5
1EC93
  8
0
 10
261.452064825806815
 20
112.7277868646543055
 30
0.0
 11
261.7670254557183966
 21
112.7277868646543055
 31
0.0
  0
ARC
  5
1EC94
  8
0
 10
261.7670254557183966
 20
112.491566392254299
 30
0.0
 40
0.2362204723999994
 50
270.0
 51
90.0
  0
LINE
  5
1EC95
  8
0
 10
261.7670254557183966
 20
112.2553459198543067
 30
0.0
 11
261.4520648258699111
 21
112.2553459198543067
 31
0.0
  0
ARC
  5
1EC96
  8
0
 10
261.4520648258699111
 20
112.491566392254299
 30
0.0
 40
0.2362204724000012
 50
90.0
 51
270.0
  0
CIRCLE
  5
1EC97
  8
0
 10
252.9481278179125923
 20
96.5883659539543231
 30
0.0
 40
1.1028681104
  0
LINE
  5
1EC99
  8
0
 10
250.6660212462028881
 20
98.6998093056543269
 30
0.0
 11
250.6660197799465095
 21
98.8180027230910554
 31
0.0
  0
ARC
  5
1EC9A
  8
0
 10
250.3114406851705098
 20
98.8179983243355764
 30
0.0
 40
0.354579094802984
 50
0.000710786759742
 51
87.5384976020146297
  0
ARC
  5
1EC9B
  8
0
 10
251.2717529292492031
 20
98.6804571644745181
 30
0.0
 40
0.0193587926217073
 50
91.5019961978150462
 51
208.469284884884587
  0
LINE
  5
1EC9C
  8
0
 10
251.2547351415711034
 20
98.6712290685543252
 30
0.0
 11
251.339045165061691
 21
98.5032740216741161
 31
0.0
  0
ARC
  5
1EC9D
  8
0
 10
251.2965528747780866
 20
98.0305189118223694
 30
0.0
 40
0.1574803146384509
 50
188.5585326437146136
 51
270.0000000272406169
  0
LINE
  5
1EC9E
  8
0
 10
251.0661990347529979
 20
98.5029589119543232
 30
0.0
 11
251.1408262062660128
 21
98.0070827386543044
 31
0.0
  0
ARC
  5
1EC9F
  8
0
 10
251.6213561669530066
 20
97.7942984412543268
 30
0.0
 40
0.078740157500001
 50
0.0000000000008142
 51
89.9964116465159663
  0
ARC
  5
1ECA0
  8
0
 10
257.4713697555504837
 20
97.7379448929188044
 30
0.0
 40
5.7715485564016742
 50
179.4405536478170973
 51
187.7667030523392953
  0
ARC
  5
1ECA1
  8
0
 10
248.4889532856032019
 20
114.7947159985542953
 30
0.0
 40
0.0590551181000016
 50
90.0
 51
179.499999984918702
  0
LINE
  5
1ECA2
  8
0
 10
248.4299004161412086
 20
114.7952313451543063
 30
0.0
 11
248.4295523412970113
 21
114.7553459198544061
 31
0.0
  0
ARC
  5
1ECA3
  8
0
 10
248.5578509234028104
 20
114.7947159985542953
 30
0.0
 40
0.0590551180999874
 50
90.0
 51
179.4999991409063966
  0
LINE
  5
1ECA4
  8
0
 10
248.4987980539484909
 20
114.7952313460241953
 30
0.0
 11
248.4984499785095977
 21
114.7553459198543067
 31
0.0
  0
ARC
  5
1ECA5
  8
0
 10
248.5645305541029018
 20
114.617550644254294
 30
0.0
 40
0.1181102361999997
 50
90.0
 51
182.9999999999998863
  0
LINE
  5
1ECA6
  8
0
 10
248.4465821838765862
 20
114.6113692321006994
 30
0.0
 11
248.6178338834511123
 21
111.343692144519494
 31
0.0
  0
ARC
  5
1ECA7
  8
0
 10
248.7358544404723091
 20
111.3498935320840957
 30
0.0
 40
0.118183370603943
 50
183.0078393160594885
 51
257.5451116027925877
  0
LINE
  5
1ECA8
  8
0
 10
248.7103657308030051
 20
111.2344914750542983
 30
0.0
 11
248.7365915861223016
 21
111.226245797906401
 31
0.0
  0
LINE
  5
1ECA9
  8
0
 10
248.7365915861223016
 20
111.226245797906401
 30
0.0
 11
248.7609926248028103
 21
111.2135772325543002
 31
0.0
  0
ARC
  5
1ECAA
  8
0
 10
248.6760599176672883
 20
111.0802153516815025
 30
0.0
 40
0.1581105815918507
 50
32.5699220539728387
 51
57.5086128867101678
  0
ARC
  5
1ECAB
  8
0
 10
248.9760733505976873
 20
111.2718601117289978
 30
0.0
 40
0.1978891009813455
 50
212.5699220539727889
 51
241.1631600291366055
  0
ARC
  5
1ECAC
  8
0
 10
248.9750141168782989
 20
111.2699363038475013
 30
0.0
 40
0.1956929650936854
 50
241.1631600291366055
 51
270.085698546396884
  0
LINE
  5
1ECAD
  8
0
 10
248.5147229137128022
 20
114.7246451205542996
 30
0.0
 11
248.3807449797623121
 21
114.7246451205542996
 31
0.0
  0
LINE
  5
1ECAE
  8
0
 10
248.3807449797623121
 20
114.7246451205542996
 30
0.0
 11
248.5553041634028943
 21
111.3415883083543036
 31
0.0
  0
ARC
  5
1ECAF
  8
0
 10
248.7318377371319968
 20
111.3506970990799942
 30
0.0
 40
0.1767684155104673
 50
182.9537318865008046
 51
222.4863001849334978
  0
ARC
  5
1ECB0
  8
0
 10
248.6044752588412905
 20
111.2157521025941946
 30
0.0
 40
0.015833950783101
 50
100.8941364533814067
 51
178.8570447632716025
  0
ARC
  5
1ECB1
  8
0
 10
248.6060360225692136
 20
111.207646429529305
 30
0.0
 40
0.0240885203614321
 50
91.7220793935582321
 51
100.8958120476371931
  0
LINE
  5
1ECB2
  8
0
 10
248.6053121280770029
 20
111.2317240704013983
 30
0.0
 11
248.6779269356557052
 21
111.2317171725731981
 31
0.0
  0
ARC
  5
1ECB3
  8
0
 10
248.7067710179939866
 20
50.5372002563616078
 30
0.0
 40
60.6945237700518021
 50
89.9957096723121168
 51
90.027228885584563
  0
ARC
  5
1ECB4
  8
0
 10
248.7151361436272055
 20
162.250436800150311
 30
0.0
 40
51.0187130869286207
 50
269.9957096723121026
 51
270.0045281964833066
  0
LINE
  5
1ECB5
  8
0
 10
248.588644458402996
 20
111.2160679425543037
 30
0.0
 11
248.588645519602693
 21
110.9326102867542971
 31
0.0
  0
ARC
  5
1ECB6
  8
0
 10
248.6060565121296975
 20
110.9342485147594033
 30
0.0
 40
0.0174878944348198
 50
185.3752256871948987
 51
269.0077572311734002
  0
ARC
  5
1ECB7
  8
0
 10
245.918814933539096
 20
114.4403852893895959
 30
0.0
 40
0.3149606309710543
 50
89.999634884929975
 51
178.9987915566090919
  0
LINE
  5
1ECB8
  8
0
 10
245.6039023886027906
 20
114.4458887522543051
 30
0.0
 11
245.5406370189556924
 21
110.8257935576542934
 31
0.0
  0
LINE
  5
1ECB9
  8
0
 10
245.1737223217027974
 20
110.8257935576542934
 30
0.0
 11
245.287487365306788
 21
99.4872108804543416
 31
0.0
  0
ARC
  5
1ECBA
  8
0
 10
245.6056400018624117
 20
99.4904030473768444
 30
0.0
 40
0.3181686503676801
 50
180.5748547523438106
 51
269.4280290949548089
  0
LINE
  5
1ECBB
  8
0
 10
247.1336844561027988
 20
106.4974588079543025
 30
0.0
 11
248.2360466606064051
 21
106.4974651492992024
 31
0.0
  0
ARC
  5
1ECBC
  8
0
 10
248.2360470053390031
 20
106.441229580075202
 30
0.0
 40
0.0562355692251246
 50
359.9402317082141849
 51
90.0003512317381364
  0
LINE
  5
1ECBD
  8
0
 10
248.2922825439673034
 20
106.4411709177560965
 30
0.0
 11
248.2923064681031065
 21
105.3388505349543038
 31
0.0
  0
ARC
  5
1ECBE
  8
0
 10
248.2360539145028895
 20
105.3388505349543038
 30
0.0
 40
0.0562525536000007
 50
270.0003587083023149
 51
0.0
  0
LINE
  5
1ECBF
  8
0
 10
248.2360542666802132
 20
105.2825979813553943
 30
0.0
 11
247.1336920622001969
 21
105.2825910798615041
 31
0.0
  0
ARC
  5
1ECC0
  8
0
 10
247.1336917100205994
 20
105.3388440499832939
 30
0.0
 40
0.0562529701229224
 50
180.0007830814577119
 51
270.0003587083023149
  0
LINE
  5
1ECC1
  8
0
 10
247.0774387399027887
 20
105.338843281154297
 30
0.0
 11
247.0774236735333034
 21
106.4412054789605975
 31
0.0
  0
ARC
  5
1ECC2
  8
0
 10
247.1336762342988891
 20
106.4412062477840948
 30
0.0
 40
0.056252560771069
 50
89.9916257205410091
 51
180.0007830814560918
  0
LINE
  5
1ECC3
  8
0
 10
247.1337065705710927
 20
104.3911808586034056
 30
0.0
 11
248.2360687750741874
 21
104.3911871999483054
 31
0.0
  0
ARC
  5
1ECC4
  8
0
 10
248.2360691198068139
 20
104.334951630724305
 30
0.0
 40
0.0562355692251246
 50
359.9402317082141849
 51
90.0003512317381364
  0
LINE
  5
1ECC5
  8
0
 10
248.2923046584351141
 20
104.3348929684051996
 30
0.0
 11
248.2923285825708888
 21
103.2325725856034069
 31
0.0
  0
ARC
  5
1ECC6
  8
0
 10
248.2360760289707002
 20
103.2325725856034069
 30
0.0
 40
0.0562525536000007
 50
270.0003587083023149
 51
0.0
  0
LINE
  5
1ECC7
  8
0
 10
248.2360763811479956
 20
103.1763200320044973
 30
0.0
 11
247.1337141766680077
 21
103.1763131305105929
 31
0.0
  0
ARC
  5
1ECC8
  8
0
 10
247.1337138244884102
 20
103.2325661006323969
 30
0.0
 40
0.0562529701229224
 50
180.0007830814577119
 51
270.0003587083023149
  0
LINE
  5
1ECC9
  8
0
 10
247.0774608543711111
 20
103.2325653318034
 30
0.0
 11
247.0774457880011141
 21
104.3349275296097005
 31
0.0
  0
ARC
  5
1ECCA
  8
0
 10
247.1336983487672114
 20
104.3349282984331978
 30
0.0
 40
0.056252560771069
 50
89.9916257205410091
 51
180.0007830814560918
  0
LINE
  5
1ECCB
  8
0
 10
247.1337197574206925
 20
102.2848816460033987
 30
0.0
 11
248.2360819619242989
 21
102.284887987348398
 31
0.0
  0
ARC
  5
1ECCC
  8
0
 10
248.2360823066568969
 20
102.2286524181242982
 30
0.0
 40
0.0562355692251246
 50
359.9402317082141849
 51
90.0003512317381364
  0
LINE
  5
1ECCD
  8
0
 10
248.2923178452851971
 20
102.2285937558052069
 30
0.0
 11
248.2923417694210002
 21
101.1262733730034
 31
0.0
  0
ARC
  5
1ECCE
  8
0
 10
248.2360892158208117
 20
101.1262733730034
 30
0.0
 40
0.0562525536000007
 50
270.0003587083023149
 51
0.0
  0
LINE
  5
1ECCF
  8
0
 10
248.236089567998107
 20
101.0700208194045047
 30
0.0
 11
247.1337273635180907
 21
101.0700139179106003
 31
0.0
  0
ARC
  5
1ECD0
  8
0
 10
247.1337270113384932
 20
101.1262668880324043
 30
0.0
 40
0.0562529701229224
 50
180.0007830814577119
 51
270.0003587083023149
  0
LINE
  5
1ECD1
  8
0
 10
247.0774740412207109
 20
101.1262661192033931
 30
0.0
 11
247.0774589748511971
 21
102.2286283170097931
 31
0.0
  0
ARC
  5
1ECD2
  8
0
 10
247.1337115356168113
 20
102.2286290858332052
 30
0.0
 40
0.056252560771069
 50
89.9916257205410091
 51
180.0007830814560918
  0
LINE
  5
1ECD3
  8
0
 10
249.2399836686531103
 20
106.4974719948542941
 30
0.0
 11
250.3423458731562903
 21
106.4974783361991939
 31
0.0
  0
ARC
  5
1ECD4
  8
0
 10
250.3423462178888883
 20
106.4412427669751935
 30
0.0
 40
0.0562355692251246
 50
359.9402317082141849
 51
90.0003512317381364
  0
LINE
  5
1ECD5
  8
0
 10
250.3985817565171033
 20
106.4411841046561022
 30
0.0
 11
250.3986056806529064
 21
105.3388637218542954
 31
0.0
  0
ARC
  5
1ECD6
  8
0
 10
250.3423531270526894
 20
105.3388637218542954
 30
0.0
 40
0.0562525536000007
 50
270.0003587083023149
 51
0.0
  0
LINE
  5
1ECD7
  8
0
 10
250.3423534792300131
 20
105.2826111682554
 30
0.0
 11
249.2399912747499968
 21
105.2826042667614956
 31
0.0
  0
ARC
  5
1ECD8
  8
0
 10
249.239990922570513
 20
105.3388572368832996
 30
0.0
 40
0.0562529701229224
 50
180.0007830814577119
 51
270.0003587083023149
  0
LINE
  5
1ECD9
  8
0
 10
249.1837379524531002
 20
105.3388564680543027
 30
0.0
 11
249.1837228860831033
 21
106.4412186658606032
 31
0.0
  0
ARC
  5
1ECDA
  8
0
 10
249.2399754468492006
 20
106.4412194346841005
 30
0.0
 40
0.056252560771069
 50
89.9916257205410091
 51
180.0007830814560918
  0
LINE
  5
1ECDB
  8
0
 10
249.2400057831208926
 20
104.3911940455033971
 30
0.0
 11
250.342367987624101
 21
104.3912003868482969
 31
0.0
  0
ARC
  5
1ECDC
  8
0
 10
250.3423683323566991
 20
104.3349648176242965
 30
0.0
 40
0.0562355692251246
 50
359.9402317082141849
 51
90.0003512317381364
  0
LINE
  5
1ECDD
  8
0
 10
250.398603870984914
 20
104.3349061553052053
 30
0.0
 11
250.3986277951208024
 21
103.2325857725033984
 31
0.0
  0
ARC
  5
1ECDE
  8
0
 10
250.3423752415210117
 20
103.2325857725033984
 30
0.0
 40
0.0562525536000007
 50
270.0003587083023149
 51
0.0
  0
LINE
  5
1ECDF
  8
0
 10
250.3423755936977955
 20
103.176333218904503
 30
0.0
 11
249.2400133892182907
 21
103.1763263174105987
 31
0.0
  0
ARC
  5
1ECE0
  8
0
 10
249.2400130370388069
 20
103.2325792875324026
 30
0.0
 40
0.0562529701229224
 50
180.0007830814577119
 51
270.0003587083023149
  0
LINE
  5
1ECE1
  8
0
 10
249.183760066920911
 20
103.2325785187034057
 30
0.0
 11
249.1837450005513972
 21
104.3349407165098057
 31
0.0
  0
ARC
  5
1ECE2
  8
0
 10
249.2399975613170113
 20
104.3349414853332036
 30
0.0
 40
0.056252560771069
 50
89.9916257205410091
 51
180.0007830814560918
  0
LINE
  5
1ECE3
  8
0
 10
249.240018969971004
 20
102.2848948329034044
 30
0.0
 11
250.3423811744742125
 21
102.2849011742483043
 31
0.0
  0
ARC
  5
1ECE4
  8
0
 10
250.3423815192068105
 20
102.2286656050243039
 30
0.0
 40
0.0562355692251246
 50
359.9402317082141849
 51
90.0003512317381364
  0
LINE
  5
1ECE5
  8
0
 10
250.398617057834997
 20
102.2286069427051984
 30
0.0
 11
250.3986409819708001
 21
101.1262865599034058
 31
0.0
  0
ARC
  5
1ECE6
  8
0
 10
250.3423884283710947
 20
101.1262865599034058
 30
0.0
 40
0.0562525536000007
 50
270.0003587083023149
 51
0.0
  0
LINE
  5
1ECE7
  8
0
 10
250.3423887805479069
 20
101.0700340063044962
 30
0.0
 11
249.2400265760684022
 21
101.070027104810606
 31
0.0
  0
ARC
  5
1ECE8
  8
0
 10
249.2400262238884068
 20
101.1262800749323958
 30
0.0
 40
0.0562529701229224
 50
180.0007830814577119
 51
270.0003587083023149
  0
LINE
  5
1ECE9
  8
0
 10
249.183773253770994
 20
101.1262793061033989
 30
0.0
 11
249.183758187400997
 21
102.2286415039097989
 31
0.0
  0
ARC
  5
1ECEA
  8
0
 10
249.2400107481670943
 20
102.2286422727331967
 30
0.0
 40
0.056252560771069
 50
89.9916257205410091
 51
180.0007830814560918
  0
LINE
  5
1ECEB
  8
0
 10
251.3462828812029954
 20
106.4974851815435954
 30
0.0
 11
252.4486450857066018
 21
106.4974915228884953
 31
0.0
  0
ARC
  5
1ECEC
  8
0
 10
252.4486454304386882
 20
106.4412559536644949
 30
0.0
 40
0.0562355692251246
 50
359.9402317082141849
 51
90.0003512317381364
  0
LINE
  5
1ECED
  8
0
 10
252.5048809690669884
 20
106.4411972913454036
 30
0.0
 11
252.5049048932027915
 21
105.3388769085435968
 31
0.0
  0
ARC
  5
1ECEE
  8
0
 10
252.4486523396030009
 20
105.3388769085435968
 30
0.0
 40
0.0562525536000007
 50
270.0003587083023149
 51
0.0
  0
LINE
  5
1ECEF
  8
0
 10
252.4486526917798983
 20
105.2826243549447014
 30
0.0
 11
251.3462904873003936
 21
105.282617453450797
 31
0.0
  0
ARC
  5
1ECF0
  8
0
 10
251.3462901351207961
 20
105.338870423572601
 30
0.0
 40
0.0562529701229224
 50
180.0007830814577119
 51
270.0003587083023149
  0
LINE
  5
1ECF1
  8
0
 10
251.2900371650030138
 20
105.3388696547436041
 30
0.0
 11
251.2900220986335
 21
106.4412318525499046
 31
0.0
  0
ARC
  5
1ECF2
  8
0
 10
251.3462746593991142
 20
106.4412326213734019
 30
0.0
 40
0.056252560771069
 50
89.9916257205410091
 51
180.0007830814560918
  0
LINE
  5
1ECF3
  8
0
 10
251.3463049956708062
 20
104.3912072321926985
 30
0.0
 11
252.4486672001744125
 21
104.3912135735375983
 31
0.0
  0
ARC
  5
1ECF4
  8
0
 10
252.4486675449070106
 20
104.3349780043135979
 30
0.0
 40
0.0562355692251246
 50
359.9402317082141849
 51
90.0003512317381364
  0
LINE
  5
1ECF5
  8
0
 10
252.5049030835353108
 20
104.3349193419945067
 30
0.0
 11
252.5049270076710002
 21
103.2325989591926998
 31
0.0
  0
ARC
  5
1ECF6
  8
0
 10
252.4486744540708969
 20
103.2325989591926998
 30
0.0
 40
0.0562525536000007
 50
270.0003587083023149
 51
0.0
  0
LINE
  5
1ECF7
  8
0
 10
252.448674806248107
 20
103.1763464055938044
 30
0.0
 11
251.3463126017682043
 21
103.1763395040999001
 31
0.0
  0
ARC
  5
1ECF8
  8
0
 10
251.3463122495886068
 20
103.232592474221704
 30
0.0
 40
0.0562529701229224
 50
180.0007830814577119
 51
270.0003587083023149
  0
LINE
  5
1ECF9
  8
0
 10
251.2900592794707961
 20
103.2325917053926929
 30
0.0
 11
251.2900442131011971
 21
104.3349539031990929
 31
0.0
  0
ARC
  5
1ECFA
  8
0
 10
251.3462967738668965
 20
104.334954672022505
 30
0.0
 40
0.056252560771069
 50
89.9916257205410091
 51
180.0007830814560918
  0
LINE
  5
1ECFB
  8
0
 10
251.3463181825208892
 20
102.2849080195927058
 30
0.0
 11
252.4486803870244955
 21
102.2849143609376057
 31
0.0
  0
ARC
  5
1ECFC
  8
0
 10
252.4486807317566956
 20
102.2286787917136053
 30
0.0
 40
0.0562355692251246
 50
359.9402317082141849
 51
90.0003512317381364
  0
LINE
  5
1ECFD
  8
0
 10
252.5049162703849106
 20
102.2286201293944998
 30
0.0
 11
252.5049401945207137
 21
101.1262997465926929
 31
0.0
  0
ARC
  5
1ECFE
  8
0
 10
252.4486876409210083
 20
101.1262997465926929
 30
0.0
 40
0.0562525536000007
 50
270.0003587083023149
 51
0.0
  0
LINE
  5
1ECFF
  8
0
 10
252.4486879930977921
 20
101.0700471929937976
 30
0.0
 11
251.3463257886182873
 21
101.0700402914998932
 31
0.0
  0
ARC
  5
1ED00
  8
0
 10
251.3463254364386898
 20
101.1262932616216972
 30
0.0
 40
0.0562529701229224
 50
180.0007830814577119
 51
270.0003587083023149
  0
LINE
  5
1ED01
  8
0
 10
251.2900724663209076
 20
101.1262924927927003
 30
0.0
 11
251.2900573999513085
 21
102.2286546905991003
 31
0.0
  0
ARC
  5
1ED02
  8
0
 10
251.3463099607170079
 20
102.2286554594224981
 30
0.0
 40
0.056252560771069
 50
89.9916257205410091
 51
180.0007830814560918
  0
ARC
  5
1ED03
  8
0
 10
246.8483031320436112
 20
100.849407732177994
 30
0.0
 40
0.583551659518744
 50
180.0019623391000039
 51
269.9894486483594847
  0
LINE
  5
1ED04
  8
0
 10
246.2647514728672888
 20
100.8493877459547008
 30
0.0
 11
246.264481724183895
 21
108.7234035048618068
 31
0.0
  0
ARC
  5
1ED05
  8
0
 10
246.8480143744206998
 20
108.7234178898163037
 30
0.0
 40
0.583532650413993
 50
89.9784562156753083
 51
180.0014124268467981
  0
LINE
  5
1ED06
  8
0
 10
245.5549385414356038
 20
111.6440790454543048
 30
0.0
 11
245.495950494532309
 21
111.7041648174542985
 31
0.0
  0
LINE
  5
1ED07
  8
0
 10
245.495950494532309
 20
111.7041648174542985
 30
0.0
 11
244.3536396314530066
 21
111.7041648174542985
 31
0.0
  0
LINE
  5
1ED08
  8
0
 10
245.5465530172027115
 20
114.0073144237542948
 30
0.0
 11
245.5859230960031141
 21
114.0073087337543001
 31
0.0
  0
LINE
  5
1ED09
  8
0
 10
245.5859230960031141
 20
114.0073087337543001
 30
0.0
 11
245.5859230960031141
 21
113.4158557684796023
 31
0.0
  0
LINE
  5
1ED0A
  8
0
 10
245.4560018361030131
 20
114.0762120615543012
 30
0.0
 11
245.5268679778027945
 21
114.0762120615543012
 31
0.0
  0
ARC
  5
1ED0B
  8
0
 10
245.5268679778027945
 20
114.0565270221542988
 30
0.0
 40
0.0196850393999988
 50
359.9999999999902229
 51
90.0
  0
LINE
  5
1ED0C
  8
0
 10
245.5465530172027115
 20
114.0565270221542988
 30
0.0
 11
245.5465530172027115
 21
113.2996563089542974
 31
0.0
  0
LINE
  5
1ED0D
  8
0
 10
245.584522728198408
 20
113.336992431254302
 30
0.0
 11
245.5202785955029867
 21
113.2738365066543054
 31
0.0
  0
ARC
  5
1ED0E
  8
0
 10
245.5423450106817995
 20
113.2539355394170997
 30
0.0
 40
0.0297148982186374
 50
137.9537487234273101
 51
176.0061004520096901
  0
ARC
  5
1ED0F
  8
0
 10
245.5710551655205904
 20
113.2519310015988054
 30
0.0
 40
0.0584949462159516
 50
176.0061004520080985
 51
191.6852226271088
  0
LINE
  5
1ED10
  8
0
 10
245.5137725224030874
 20
113.2400837432543028
 30
0.0
 11
244.3536396314530066
 21
113.2395978883542966
 31
0.0
  0
ARC
  5
1ED11
  8
0
 10
245.4560018361030131
 20
114.0565270221542988
 30
0.0
 40
0.0196850393999917
 50
89.9999999999739515
 51
180.0000000000098055
  0
LINE
  5
1ED12
  8
0
 10
245.4363167967030108
 20
114.0565270221542988
 30
0.0
 11
245.4363167967030108
 21
113.2789679670542995
 31
0.0
  0
LINE
  5
1ED13
  8
0
 10
245.5255004075443139
 20
113.2789679670542995
 30
0.0
 11
244.3536396314530066
 21
113.2789679670542995
 31
0.0
  0
LINE
  5
1ED14
  8
0
 10
245.4363167967030108
 20
113.8163695418543
 30
0.0
 11
245.1528522298031021
 21
113.8163695418543
 31
0.0
  0
ARC
  5
1ED15
  8
0
 10
245.8878516791577908
 20
112.9337523764491067
 30
0.0
 40
0.7655621457584362
 50
151.5093496149501107
 51
153.19443986452319
  0
ARC
  5
1ED16
  8
0
 10
245.1792520050875908
 20
113.3183409031603048
 30
0.0
 40
0.0406771691909152
 50
331.5093496149515886
 51
28.9380139405342796
  0
ARC
  5
1ED17
  8
0
 10
245.6748218703691862
 20
113.5997711419987013
 30
0.0
 40
0.5292313516403362
 50
189.5023751727383967
 51
209.6421603895645944
  0
ARC
  5
1ED18
  8
0
 10
245.6747904454873037
 20
113.5349476183210982
 30
0.0
 40
0.5291985135095205
 50
150.3572082275526043
 51
170.4982561894051969
  0
ARC
  5
1ED19
  8
0
 10
245.1745909018094949
 20
113.819594853619293
 30
0.0
 40
0.0463218006917078
 50
330.3572082275526896
 51
344.9654847780470277
  0
ARC
  5
1ED1A
  8
0
 10
245.2066932180864001
 20
113.8109723335299037
 30
0.0
 40
0.0130816658692556
 50
344.9654847780433897
 51
5.7808057875056624
  0
ARC
  5
1ED1B
  8
0
 10
245.214665269432686
 20
113.8117794068574966
 30
0.0
 40
0.0050688654833014
 50
5.7808057875137626
 51
30.5842944001092008
  0
ARC
  5
1ED1C
  8
0
 10
245.2157558075869019
 20
113.812423945904996
 30
0.0
 40
0.0038020963451485
 50
30.58429440013769
 51
60.1525857186434365
  0
ARC
  5
1ED1D
  8
0
 10
245.2153683666346922
 20
113.8117487321433998
 30
0.0
 40
0.004580571852311
 50
60.1525857186434365
 51
82.4009039630741285
  0
ARC
  5
1ED1E
  8
0
 10
245.2170196346395983
 20
113.8241258997875036
 30
0.0
 40
0.0079062598080922
 50
258.8250857037422747
 51
262.4009039631004043
  0
LINE
  5
1ED1F
  8
0
 10
244.3725400766157918
 20
113.1636065599676044
 30
0.0
 11
245.5217142619798949
 21
113.1694328003928973
 31
0.0
  0
ARC
  5
1ED20
  8
0
 10
245.5225407214392987
 20
113.1113191580863031
 30
0.0
 40
0.0581195187297157
 50
2.185425259734771
 51
90.8147733493640317
  0
LINE
  5
1ED21
  8
0
 10
245.0831188526736071
 20
112.5496114155112934
 30
0.0
 11
245.5127512446028959
 21
112.5485779047542962
 31
0.0
  0
ARC
  5
1ED22
  8
0
 10
245.5129033312018123
 20
112.6074878522575062
 30
0.0
 40
0.0589101438222646
 50
269.8520809940599747
 51
356.6792958221615208
  0
LINE
  5
1ED23
  8
0
 10
252.7709624660027998
 20
113.5535367030543057
 30
0.0
 11
252.1617109018029055
 21
113.5535367030543057
 31
0.0
  0
ARC
  5
1ED24
  8
0
 10
252.1617109018029055
 20
113.2779836559061977
 30
0.0
 40
0.2755530471481293
 50
90.0
 51
180.0008861711683039
  0
LINE
  5
1ED25
  8
0
 10
251.8861578546880082
 20
113.2779793940361941
 30
0.0
 11
251.8861681760498925
 21
112.6106472615866068
 31
0.0
  0
ARC
  5
1ED26
  8
0
 10
252.1617118067906915
 20
112.6106515233110059
 30
0.0
 40
0.2755436307734635
 50
180.0008861711683039
 51
270.0006327139890914
  0
LINE
  5
1ED27
  8
0
 10
252.1617148496029017
 20
112.335107892554305
 30
0.0
 11
252.7709624659659937
 21
112.3351146204406064
 31
0.0
  0
LINE
  5
1ED28
  8
0
 10
252.7709624659659937
 20
112.3351146204406064
 30
0.0
 11
252.7709624660027998
 21
113.5535367030543057
 31
0.0
  0
LINE
  5
1ED29
  8
0
 10
252.7315923873028964
 20
113.4944905793543057
 30
0.0
 11
252.7315923873028964
 21
112.3941540161543031
 31
0.0
  0
LINE
  5
1ED2A
  8
0
 10
252.7315923873028964
 20
112.3941540161543031
 30
0.0
 11
252.1617060884032071
 21
112.3941540161543031
 31
0.0
  0
ARC
  5
1ED2B
  8
0
 10
252.1617060884032071
 20
112.6106532084226046
 30
0.0
 40
0.2164991922683193
 50
179.9991366749856923
 51
270.0
  0
LINE
  5
1ED2C
  8
0
 10
251.9452068961591067
 20
112.6106564706030042
 30
0.0
 11
251.9452169514219975
 21
113.277988124186507
 31
0.0
  0
ARC
  5
1ED2D
  8
0
 10
252.1617194191948954
 20
113.2779848619567957
 30
0.0
 40
0.2165024677976792
 50
90.0152811508011865
 51
179.9991366749856923
  0
LINE
  5
1ED2E
  8
0
 10
252.1616616766031882
 20
113.4944873220542974
 30
0.0
 11
252.7315923873028964
 21
113.4944905793543057
 31
0.0
  0
LINE
  5
1ED2F
  8
0
 10
252.7709624660027998
 20
113.5535367030543057
 30
0.0
 11
252.7315923873028964
 21
113.4941289855542976
 31
0.0
  0
LINE
  5
1ED30
  8
0
 10
252.7709624660027998
 20
112.3351078924543032
 30
0.0
 11
252.7315923873028964
 21
112.394515609954297
 31
0.0
  0
LINE
  5
1ED31
  8
0
 10
252.7315923873028964
 20
113.4941289855542976
 30
0.0
 11
252.7119073479028941
 21
113.4896621382543032
 31
0.0
  0
LINE
  5
1ED32
  8
0
 10
252.7119073479028941
 20
113.4896621382543032
 30
0.0
 11
252.6528522298031021
 21
113.4896621382543032
 31
0.0
  0
ARC
  5
1ED33
  8
0
 10
252.6528522298031021
 20
113.4306070194692069
 30
0.0
 40
0.0590551187850572
 50
90.0
 51
180.0087271377934997
  0
LINE
  5
1ED34
  8
0
 10
252.5937971117027985
 20
113.4305980243536993
 30
0.0
 11
252.5939452481028979
 21
112.4580465824371061
 31
0.0
  0
ARC
  5
1ED35
  8
0
 10
252.6530186047847906
 20
112.4580555803306936
 30
0.0
 40
0.0590733573671804
 50
180.0087271377934997
 51
269.8386311984784811
  0
LINE
  5
1ED36
  8
0
 10
252.6528522298031021
 20
112.3989824572543057
 30
0.0
 11
252.71190711368439
 21
112.3989824572543057
 31
0.0
  0
LINE
  5
1ED37
  8
0
 10
252.71190711368439
 20
112.3988161336417022
 30
0.0
 11
252.7119073479028941
 21
112.394515609954297
 31
0.0
  0
LINE
  5
1ED38
  8
0
 10
252.7119073479028941
 20
112.394515609954297
 30
0.0
 11
252.7315923873028964
 21
112.394515609954297
 31
0.0
  0
LINE
  5
1ED39
  8
0
 10
249.2276253981939931
 20
114.7553459203543014
 30
0.0
 11
249.2276253981939931
 21
114.7356608804543043
 31
0.0
  0
LINE
  5
1ED3A
  8
0
 10
249.0121515955765972
 20
114.7553459203543014
 30
0.0
 11
249.0131832447032139
 21
114.7356608804543043
 31
0.0
  0
LINE
  5
1ED3B
  8
0
 10
245.1528522298031021
 20
113.8163695418543
 30
0.0
 11
245.1528522298528969
 21
113.2789679670542995
 31
0.0
  0
ARC
  5
1ED3C
  8
0
 10
244.3536396314530066
 20
112.491566392254299
 30
0.0
 40
0.7874015747999988
 50
89.9999999848994321
 51
270.0
  0
ARC
  5
1ED3D
  8
0
 10
244.3725380164216858
 20
113.134085330048805
 30
0.0
 40
0.0295212299255722
 50
89.9980375008003364
 51
180.0035554014295087
  0
LINE
  5
1ED3E
  8
0
 10
244.3430167865529938
 20
113.1340834981542969
 30
0.0
 11
244.343033008068403
 21
112.872671562417807
 31
0.0
  0
ARC
  5
1ED3F
  8
0
 10
244.3725581362479886
 20
112.872673394554198
 30
0.0
 40
0.0295251282364415
 50
180.0035554014287129
 51
269.964953893638608
  0
LINE
  5
1ED40
  8
0
 10
244.3725400766155076
 20
112.8431482718410024
 30
0.0
 11
244.4441908129784906
 21
112.843148271754302
 31
0.0
  0
ARC
  5
1ED41
  8
0
 10
244.4441908125529892
 20
112.491566392254299
 30
0.0
 40
0.351581879500003
 50
13.0187442567874196
 51
89.9999999306478315
  0
ARC
  5
1ED42
  8
0
 10
244.8155277780894892
 20
112.5774242530040965
 30
0.0
 40
0.0295515803621011
 50
193.0187442567865901
 51
269.9560039663726911
  0
LINE
  5
1ED43
  8
0
 10
244.8155050861529105
 20
112.5478726813543062
 30
0.0
 11
244.9097823230584936
 21
112.5478002881459929
 31
0.0
  0
ARC
  5
1ED44
  8
0
 10
244.9098050035570111
 20
112.5773369640508008
 30
0.0
 40
0.0295366846126545
 50
269.9560039663726911
 51
0.0436692917868815
  0
ARC
  5
1ED45
  8
0
 10
-1769.9124054988080843
 20
107.7369736971834016
 30
0.0
 40
2014.8575613284260726
 50
0.1376444411911136
 51
0.1534367691612874
  0
ARC
  5
1ED46
  8
0
 10
244.8953280891666111
 20
113.1235501060980937
 30
0.0
 40
0.0435763092114845
 50
12.1330472981090995
 51
78.8228786197298348
  0
LINE
  5
1ED47
  8
0
 10
243.757915923153007
 20
112.5478871067543025
 30
0.0
 11
243.7168812390530093
 21
112.5478727221542954
 31
0.0
  0
ARC
  5
1ED48
  8
0
 10
243.7168708929210936
 20
112.577386942542006
 30
0.0
 40
0.0295142222010689
 50
172.30257977556019
 51
270.0200848831736948
  0
ARC
  5
1ED49
  8
0
 10
244.3539599947077079
 20
112.491278325954994
 30
0.0
 40
0.6723961845128859
 50
103.7745218285395055
 51
172.3025797755593942
  0
ARC
  5
1ED4A
  8
0
 10
244.2008890091206865
 20
113.115670215806702
 30
0.0
 40
0.0295152011721866
 50
359.9803265075069021
 51
103.7745218285395055
  0
LINE
  5
1ED4B
  8
0
 10
244.2304042085530114
 20
113.1156600812543047
 30
0.0
 11
244.2304042085530114
 21
112.8726713336542957
 31
0.0
  0
ARC
  5
1ED4C
  8
0
 10
244.2008830086919886
 20
112.8726694717173018
 30
0.0
 40
0.029521199933791
 50
269.9960313046437932
 51
0.0036136851705243
  0
LINE
  5
1ED4D
  8
0
 10
244.2008809638529101
 20
112.8431482718543037
 30
0.0
 11
244.1292301825529876
 21
112.843148271754302
 31
0.0
  0
ARC
  5
1ED4E
  8
0
 10
244.1291953906257959
 20
112.4916660066306946
 30
0.0
 40
0.3514822668455871
 50
89.9943285030868765
 51
166.9992082336954979
  0
ARC
  5
1ED4F
  8
0
 10
243.7579958302605974
 20
112.5773695806835946
 30
0.0
 40
0.029482582216257
 50
269.8447101547686771
 51
346.9992082336954127
  0
ARC
  5
1ED50
  8
0
 10
245.0831942831528067
 20
112.579148322157593
 30
0.0
 40
0.0295396377179784
 50
180.0316893850281872
 51
269.9666146144733148
  0
LINE
  5
1ED51
  8
0
 10
245.0536546499529891
 20
112.5791319842543032
 30
0.0
 11
245.0533484753337916
 21
113.1327088892053041
 31
0.0
  0
ARC
  5
1ED52
  8
0
 10
245.0825018320637128
 20
113.1327250134653042
 30
0.0
 40
0.0291533611889128
 50
88.6726370618094677
 51
180.0316893850281872
  0
LINE
  5
1ED53
  8
0
 10
245.0831771633029064
 20
113.1618705516543031
 30
0.0
 11
245.4623318786530035
 21
113.1618705488542957
 31
0.0
  0
ARC
  5
1ED54
  8
0
 10
245.4716926751268034
 20
114.319351234345703
 30
0.0
 40
1.1575185362646809
 50
269.5366467489445768
 51
272.4618535401634745
  0
ARC
  5
1ED55
  8
0
 10
245.5238479929305129
 20
113.1062651083021962
 30
0.0
 40
0.0566882527027525
 50
356.4980991302797975
 51
92.4618535401618686
  0
ARC
  5
1ED56
  8
0
 10
244.3536396314216006
 20
112.491566392304307
 30
0.0
 40
0.7480314960499986
 50
89.9999999975931644
 51
270.0000000100670263
  0
LINE
  5
1ED57
  8
0
 10
244.3536396315529942
 20
111.7435348962543031
 30
0.0
 11
245.4846252334110943
 21
111.7435348964529993
 31
0.0
  0
LINE
  5
1ED58
  8
0
 10
245.4846252334110943
 20
111.7435348964529993
 30
0.0
 11
245.555425010044388
 21
111.6719742687846946
 31
0.0
  0
LINE
  5
1ED59
  8
0
 10
245.0831770708529973
 20
112.4335240950542953
 30
0.0
 11
245.5127512446028959
 21
112.4345548797543017
 31
0.0
  0
ARC
  5
1ED5A
  8
0
 10
245.5129033312018123
 20
112.375644932251106
 30
0.0
 40
0.0589101438222646
 50
20.4994839155138493
 51
90.1479190059400253
  0
ARC
  5
1ED5B
  8
0
 10
244.3725380164216858
 20
111.849047454459793
 30
0.0
 40
0.0295212299255722
 50
179.9964445985704913
 51
270.001962499199692
  0
LINE
  5
1ED5C
  8
0
 10
244.3430167865529938
 20
111.8490492863543011
 30
0.0
 11
244.343033008068403
 21
112.1104612220908052
 31
0.0
  0
ARC
  5
1ED5D
  8
0
 10
244.3725581362479886
 20
112.1104593899544
 30
0.0
 40
0.0295251282364415
 50
90.0350461063614063
 51
179.9964445985712871
  0
LINE
  5
1ED5E
  8
0
 10
244.3725400766155076
 20
112.1399845126675956
 30
0.0
 11
244.4441908129784906
 21
112.139984512754296
 31
0.0
  0
ARC
  5
1ED5F
  8
0
 10
244.4441908125529892
 20
112.491566392254299
 30
0.0
 40
0.351581879500003
 50
270.0000000693520974
 51
346.9812557432125004
  0
ARC
  5
1ED60
  8
0
 10
244.8155277780894892
 20
112.4057085315045015
 30
0.0
 40
0.0295515803621011
 50
90.0439960336272662
 51
166.9812557432126141
  0
LINE
  5
1ED61
  8
0
 10
244.8155050861529105
 20
112.435260103154306
 30
0.0
 11
244.9097823230584936
 21
112.4353324963626051
 31
0.0
  0
ARC
  5
1ED62
  8
0
 10
244.9098050035570111
 20
112.4057958204577972
 30
0.0
 40
0.0295366846126545
 50
359.9563307082132155
 51
90.0439960336272662
  0
ARC
  5
1ED63
  8
0
 10
-1769.9124054988080843
 20
117.2461590873251964
 30
0.0
 40
2014.8575613284260726
 50
359.846563230838683
 51
359.8623555588080762
  0
ARC
  5
1ED64
  8
0
 10
244.8833934678131925
 20
111.8769149267165943
 30
0.0
 40
0.0606310750596889
 50
278.1270894151040807
 51
334.0921589669811738
  0
LINE
  5
1ED65
  8
0
 10
243.757915923153007
 20
112.4352456777542955
 30
0.0
 11
243.7168812390530093
 21
112.4352600623543026
 31
0.0
  0
ARC
  5
1ED66
  8
0
 10
243.7168708929210936
 20
112.4057458419666062
 30
0.0
 40
0.0295142222010689
 50
89.9799151168263336
 51
187.6974202244396963
  0
ARC
  5
1ED67
  8
0
 10
244.3539599947077079
 20
112.491854458553604
 30
0.0
 40
0.6723961845128859
 50
187.6974202244396963
 51
256.2254781714603951
  0
ARC
  5
1ED68
  8
0
 10
244.2008890091206865
 20
111.867462568701896
 30
0.0
 40
0.0295152011721866
 50
256.2254781714603951
 51
0.0196734924930033
  0
LINE
  5
1ED69
  8
0
 10
244.2304042085530114
 20
111.8674727032542933
 30
0.0
 11
244.2304042085530114
 21
112.1104614508543023
 31
0.0
  0
ARC
  5
1ED6A
  8
0
 10
244.2008830086919886
 20
112.1104633127912962
 30
0.0
 40
0.029521199933791
 50
359.9963863148295218
 51
90.0039686953563347
  0
LINE
  5
1ED6B
  8
0
 10
244.2008809638529101
 20
112.1399845126542942
 30
0.0
 11
244.1292301828088966
 21
112.1399795496339067
 31
0.0
  0
ARC
  5
1ED6C
  8
0
 10
244.1291953906257959
 20
112.4914667778779034
 30
0.0
 40
0.3514822668455871
 50
193.0007917663045021
 51
270.0056714969131235
  0
ARC
  5
1ED6D
  8
0
 10
243.7579958302605974
 20
112.4057632038250034
 30
0.0
 40
0.029482582216257
 50
13.0007917663045198
 51
90.1552898452312945
  0
ARC
  5
1ED6E
  8
0
 10
245.0831942831528067
 20
112.4039844623510049
 30
0.0
 40
0.0295396377179784
 50
90.0333853855266426
 51
179.9683106149718128
  0
LINE
  5
1ED6F
  8
0
 10
245.0536546499529891
 20
112.4040008002542947
 30
0.0
 11
245.0533484753337916
 21
111.8504238953031944
 31
0.0
  0
ARC
  5
1ED70
  8
0
 10
245.0825018320637128
 20
111.8504077710432938
 30
0.0
 40
0.0291533611889128
 50
179.9683106149718128
 51
271.3273629381905039
  0
LINE
  5
1ED71
  8
0
 10
245.0831771633029064
 20
111.8212622328542949
 30
0.0
 11
245.4409917908529906
 21
111.8212622329542967
 31
0.0
  0
ARC
  5
1ED72
  8
0
 10
245.4516619714543992
 20
110.7408127644166029
 30
0.0
 40
1.0805021549342431
 50
87.433911690648813
 51
90.5658167818469337
  0
ARC
  5
1ED73
  8
0
 10
245.4973463042088042
 20
111.8819670896702974
 30
0.0
 40
0.0617942981770256
 50
272.4964514855018933
 51
356.5779127576715268
  0
LINE
  5
1ED74
  8
0
 10
245.287487365306788
 20
99.4872108804543274
 30
0.0
 11
245.1335687652529884
 21
99.4872108804543274
 31
0.0
  0
LINE
  5
1ED75
  8
0
 10
245.1335687652529884
 20
99.4872108804543274
 30
0.0
 11
245.1335687652529884
 21
99.2473526127543266
 31
0.0
  0
ARC
  5
1ED76
  8
0
 10
244.7395687652530114
 20
99.2473526127543266
 30
0.0
 40
0.3939999999999992
 50
270.0
 51
0.0
  0
LINE
  5
1ED77
  8
0
 10
244.7395687652530114
 20
98.8533526127543212
 30
0.0
 11
243.9527656156529076
 21
98.8533526127543212
 31
0.0
  0
ARC
  5
1ED78
  8
0
 10
243.9527656156529076
 20
99.2473526127543266
 30
0.0
 40
0.394000000000001
 50
180.0
 51
270.0
  0
LINE
  5
1ED79
  8
0
 10
243.5587656156529022
 20
99.2473526127543266
 30
0.0
 11
243.5587656156529022
 21
100.7864234789543048
 31
0.0
  0
LINE
  5
1ED7A
  8
0
 10
243.5587656156529022
 20
100.7864234789543048
 30
0.0
 11
245.2744517873894097
 21
100.7864234789543048
 31
0.0
  0
ARC
  5
1ED7B
  8
0
 10
244.1886868755528894
 20
99.802171510454329
 30
0.0
 40
0.2362204724000001
 50
90.0
 51
270.0
  0
LINE
  5
1ED7C
  8
0
 10
244.1886868755528894
 20
99.5659510380543367
 30
0.0
 11
244.5036475054529035
 21
99.5659510380543367
 31
0.0
  0
ARC
  5
1ED7D
  8
0
 10
244.5036475054529035
 20
99.802171510454329
 30
0.0
 40
0.2362204724000001
 50
270.0
 51
90.0
  0
LINE
  5
1ED7E
  8
0
 10
244.5036475054529035
 20
100.0383919828542929
 30
0.0
 11
244.1886868755528894
 21
100.0383919828542929
 31
0.0
  0
LINE
  5
1ED7F
  8
0
 10
244.3725390275849918
 20
111.8195262245515949
 30
0.0
 11
244.8919648403827978
 21
111.8168927738465044
 31
0.0
  0
LINE
  5
1ED80
  8
0
 10
244.444190812558702
 20
112.7277868646543055
 30
0.0
 11
244.1292301826472055
 21
112.7277868646543055
 31
0.0
  0
ARC
  5
1ED81
  8
0
 10
244.1292301826472055
 20
112.491566392254299
 30
0.0
 40
0.2362204723999994
 50
90.0
 51
270.0
  0
LINE
  5
1ED82
  8
0
 10
244.1292301826472055
 20
112.2553459198543067
 30
0.0
 11
244.444190812495691
 21
112.2553459198543067
 31
0.0
  0
ARC
  5
1ED83
  8
0
 10
244.444190812495691
 20
112.491566392254299
 30
0.0
 40
0.2362204724000012
 50
270.0
 51
90.0
  0
ENDSEC
  0
EOF
