  0
SECTION
  2
HEADER
  9
$ACADVER
  1
AC1009
  9
$INSBASE
 10
225.1626885603608912
 20
106.1466876086297049
 30
0.0
  9
$EXTMIN
 10
215.7490855148261915
 20
83.9829822223421161
 30
-0.0000000000112498
  9
$EXTMAX
 10
234.5774194367259042
 20
117.679968406337693
 30
0.0000000000002956
  9
$LIMMIN
 10
0.0
 20
0.0
  9
$LIMMAX
 10
11.6929133858000007
 20
8.2677165353999982
  9
$ORTHOMODE
 70
     0
  9
$REGENMODE
 70
     1
  9
$FILLMODE
 70
     1
  9
$QTEXTMODE
 70
     0
  9
$MIRRTEXT
 70
     0
  9
$DRAGMODE
 70
     2
  9
$LTSCALE
 40
0.6431102362
  9
$OSMODE
 70
  2039
  9
$ATTMODE
 70
     1
  9
$TEXTSIZE
 40
0.2
  9
$TRACEWID
 40
0.05
  9
$TEXTSTYLE
  7
STANDARD
  9
$CLAYER
  8
0
  9
$CELTYPE
  6
BYLAYER
  9
$CECOLOR
 62
   256
  9
$DIMSCALE
 40
1.0
  9
$DIMASZ
 40
0.1875
  9
$DIMEXO
 40
0.0625
  9
$DIMDLI
 40
0.4443307087
  9
$DIMRND
 40
0.0
  9
$DIMDLE
 40
0.0
  9
$DIMEXE
 40
0.125
  9
$DIMTP
 40
0.01
  9
$DIMTM
 40
0.01
  9
$DIMTXT
 40
1.0
  9
$DIMCEN
 40
0.1052362205
  9
$DIMTSZ
 40
0.0
  9
$DIMTOL
 70
     1
  9
$DIMLIM
 70
     0
  9
$DIMTIH
 70
     0
  9
$DIMTOH
 70
     1
  9
$DIMSE1
 70
     0
  9
$DIMSE2
 70
     0
  9
$DIMTAD
 70
     0
  9
$DIMZIN
 70
     0
  9
$DIMBLK
  1

  9
$DIMASO
 70
     1
  9
$DIMSHO
 70
     1
  9
$DIMPOST
  1
\X
  9
$DIMAPOST
  1

  9
$DIMALT
 70
     1
  9
$DIMALTD
 70
     2
  9
$DIMALTF
 40
25.3999999999999986
  9
$DIMLFAC
 40
1.0
  9
$DIMTOFL
 70
     0
  9
$DIMTVP
 40
0.0
  9
$DIMTIX
 70
     0
  9
$DIMSOXD
 70
     0
  9
$DIMSAH
 70
     0
  9
$DIMBLK1
  1

  9
$DIMBLK2
  1

  9
$DIMSTYLE
  2
STANDARD
  9
$DIMCLRD
 70
     0
  9
$DIMCLRE
 70
     0
  9
$DIMCLRT
 70
     0
  9
$DIMTFAC
 40
1.0
  9
$DIMGAP
 40
0.09
  9
$LUNITS
 70
     2
  9
$LUPREC
 70
     4
  9
$SKETCHINC
 40
0.1
  9
$FILLETRAD
 40
0.0
  9
$AUNITS
 70
     0
  9
$AUPREC
 70
     0
  9
$MENU
  1
.
  9
$ELEVATION
 40
0.0
  9
$PELEVATION
 40
0.0
  9
$THICKNESS
 40
0.0
  9
$LIMCHECK
 70
     0
  9
$BLIPMODE
 70
     0
  9
$CHAMFERA
 40
0.0
  9
$CHAMFERB
 40
0.0
  9
$SKPOLY
 70
     0
  9
$TDCREATE
 40
2458172.5207638889551163
  9
$TDUPDATE
 40
2459154.4700462957844138
  9
$TDINDWG
 40
0.2921152546
  9
$TDUSRTIMER
 40
0.2921152546
  9
$USRTIMER
 70
     1
  9
$ANGBASE
 50
0.0
  9
$ANGDIR
 70
     0
  9
$PDMODE
 70
     0
  9
$PDSIZE
 40
0.3125
  9
$PLINEWID
 40
0.0
  9
$COORDS
 70
     1
  9
$SPLFRAME
 70
     0
  9
$SPLINETYPE
 70
     6
  9
$SPLINESEGS
 70
     8
  9
$ATTDIA
 70
     1
  9
$ATTREQ
 70
     1
  9
$HANDLING
 70
     1
  9
$HANDSEED
  5
20456
  9
$SURFTAB1
 70
     6
  9
$SURFTAB2
 70
     6
  9
$SURFTYPE
 70
     6
  9
$SURFU
 70
     6
  9
$SURFV
 70
     6
  9
$UCSNAME
  2

  9
$UCSORG
 10
0.0
 20
0.0
 30
0.0
  9
$UCSXDIR
 10
1.0
 20
0.0
 30
0.0
  9
$UCSYDIR
 10
0.0
 20
1.0
 30
0.0
  9
$PUCSNAME
  2

  9
$PUCSORG
 10
0.0
 20
0.0
 30
0.0
  9
$PUCSXDIR
 10
1.0
 20
0.0
 30
0.0
  9
$PUCSYDIR
 10
0.0
 20
1.0
 30
0.0
  9
$USERI1
 70
     0
  9
$USERI2
 70
     0
  9
$USERI3
 70
     0
  9
$USERI4
 70
     0
  9
$USERI5
 70
     0
  9
$USERR1
 40
0.0
  9
$USERR2
 40
0.0
  9
$USERR3
 40
0.0
  9
$USERR4
 40
0.0
  9
$USERR5
 40
0.0
  9
$WORLDVIEW
 70
     1
  9
$SHADEDGE
 70
     3
  9
$SHADEDIF
 70
    70
  9
$TILEMODE
 70
     1
  9
$MAXACTVP
 70
    64
  9
$PLIMCHECK
 70
     0
  9
$PEXTMIN
 10
1.0000000000000000E+20
 20
1.0000000000000000E+20
 30
1.0000000000000000E+20
  9
$PEXTMAX
 10
-1.0000000000000000E+20
 20
-1.0000000000000000E+20
 30
-1.0000000000000000E+20
  9
$PLIMMIN
 10
0.0
 20
0.0
  9
$PLIMMAX
 10
12.0
 20
9.0
  9
$UNITMODE
 70
     0
  9
$VISRETAIN
 70
     1
  9
$PLINEGEN
 70
     0
  9
$PSLTSCALE
 70
     1
  0
ENDSEC
  0
SECTION
  2
TABLES
  0
TABLE
  2
VPORT
 70
     1
  0
VPORT
  2
*ACTIVE
 70
     0
 10
0.0
 20
0.0
 11
1.0
 21
1.0
 12
-204.4660366322777065
 22
31.1289338021212316
 13
0.0
 23
0.0
 14
1.0
 24
1.0
 15
0.0
 25
0.0
 16
0.0
 26
0.0
 36
14.6338572656650907
 17
429.6292891080536833
 27
69.7025415122186871
 37
0.0
 40
33.9774049317126128
 41
2.6486111111111108
 42
50.0
 43
0.0
 44
0.0
 50
0.0
 51
0.0
 71
     0
 72
   100
 73
     1
 74
     1
 75
     0
 76
     0
 77
     0
 78
     0
  0
ENDTAB
  0
TABLE
  2
LTYPE
 70
     2
  0
LTYPE
  2
CONTINUOUS
 70
     0
  3
Solid line
 72
    65
 73
     0
 40
0.0
  0
LTYPE
  2
PHANTOM2
 70
     0
  3
___ _ _ ___ _ _ ___ _ _ ___ _ _
 72
    65
 73
     6
 40
1.25
 49
0.625
 49
-0.125
 49
0.125
 49
-0.125
 49
0.125
 49
-0.125
  0
ENDTAB
  0
TABLE
  2
LAYER
 70
     2
  0
LAYER
  2
0
 70
     0
 62
   255
  6
CONTINUOUS
  0
LAYER
  2
DEFPOINTS
 70
     0
 62
     7
  6
CONTINUOUS
  0
ENDTAB
  0
TABLE
  2
STYLE
 70
     1
  0
STYLE
  2
STANDARD
 70
     0
 40
0.0
 41
0.8
 50
0.0
 71
     0
 42
0.2
  3
txt
  4

  0
ENDTAB
  0
TABLE
  2
VIEW
 70
     0
  0
ENDTAB
  0
TABLE
  2
UCS
 70
     0
  0
ENDTAB
  0
TABLE
  2
APPID
 70
    10
  0
APPID
  2
ACAD
 70
     0
  0
APPID
  2
ACAD_MLEADERVER
 70
     0
  0
APPID
  2
ACAD_EXEMPT_FROM_CAD_STANDARDS
 70
     0
  0
APPID
  2
ACAD_DSTYLE_DIMJAG
 70
     0
  0
APPID
  2
ACAD_DSTYLE_DIMTALN
 70
     0
  0
APPID
  2
ACAD_NAV_VCDISPLAY
 70
     0
  0
APPID
  2
ACAECLAYERSTANDARD
 70
     0
  0
APPID
  2
ACCMTRANSPARENCY
 70
     0
  0
APPID
  2
DCO15
 70
     0
  0
APPID
  2
ACDBATTR
 70
     0
  0
ENDTAB
  0
TABLE
  2
DIMSTYLE
 70
     1
  0
DIMSTYLE
  2
STANDARD
 70
     0
  3

  4

  5

  6

  7

 40
1.0
 41
0.1875
 42
0.0625
 43
0.38
 44
0.125
 45
0.0
 46
0.0
 47
0.01
 48
0.01
140
0.15625
141
0.09
142
0.0
143
25.3999999999999986
144
1.0
145
0.0
146
1.0
147
0.09
 71
     1
 72
     0
 73
     1
 74
     1
 75
     0
 76
     0
 77
     0
 78
     4
170
     0
171
     2
172
     0
173
     0
174
     0
175
     0
176
     0
177
     0
178
     0
  0
ENDTAB
  0
ENDSEC
  0
SECTION
  2
BLOCKS
  0
BLOCK
  8
0
  2
$MODEL_SPACE
 70
     0
 10
0.0
 20
0.0
 30
0.0
  3
$MODEL_SPACE
  1

  0
ENDBLK
  5
21
  8
0
  0
BLOCK
 67
     1
  8
0
  2
$PAPER_SPACE
 70
     0
 10
0.0
 20
0.0
 30
0.0
  3
$PAPER_SPACE
  1

  0
ENDBLK
  5
1D
 67
     1
  8
0
  0
BLOCK
  8
0
  2
_FILLED
 70
     0
 10
0.0
 20
0.0
 30
0.0
  3
_FILLED
  1

  0
SOLID
  5
87E2
  8
0
  6
BYBLOCK
 62
     0
 10
0.0
 20
0.0
 30
0.0
 11
-1.0
 21
0.1666666667
 31
0.0
 12
-1.0
 22
-0.1666666667
 32
0.0
 13
-1.0
 23
-0.1666666667
 33
0.0
  0
ENDBLK
  5
87E3
  8
0
  6
BYBLOCK
 62
     0
  0
ENDSEC
  0
SECTION
  2
ENTITIES
  0
CIRCLE
  5
1F764
  8
0
 10
225.1626885603608912
 20
85.7193447150912533
 30
0.0
 40
1.1712598425
  0
CIRCLE
  5
1F765
  8
0
 10
225.1626885603608912
 20
85.7193447150912533
 30
0.0
 40
1.1028681104
  0
CIRCLE
  5
1F766
  8
0
 10
225.1626885603608912
 20
85.7193447150912533
 30
0.0
 40
0.8700787402000003
  0
LINE
  5
1F767
  8
0
 10
224.1390665130606976
 20
86.4388591592851867
 30
0.0
 11
224.1390665130606976
 21
87.1002020401912631
 31
0.0
  0
LINE
  5
1F768
  8
0
 10
223.8754968672606083
 20
88.611970657291252
 30
0.0
 11
224.1354602414498913
 21
87.1413207120528028
 31
0.0
  0
LINE
  5
1F769
  8
0
 10
223.8634759619608019
 20
88.7490328968912507
 30
0.0
 11
223.8634759619608019
 21
90.2350927465912633
 31
0.0
  0
LINE
  5
1F76A
  8
0
 10
223.8634759619608019
 20
90.2350927465912633
 30
0.0
 11
223.9028460406607053
 21
90.274462825391268
 31
0.0
  0
LINE
  5
1F76B
  8
0
 10
223.9028460406607053
 20
90.274462825391268
 30
0.0
 11
223.9028460406607053
 21
90.2941478646912543
 31
0.0
  0
LINE
  5
1F76C
  8
0
 10
223.9028460406607053
 20
90.2941478646912543
 30
0.0
 11
223.8634759618607859
 21
90.333517943491259
 31
0.0
  0
LINE
  5
1F76D
  8
0
 10
223.8634759618607859
 20
90.333517943491259
 30
0.0
 11
226.461901158760611
 21
90.333517943491259
 31
0.0
  0
LINE
  5
1F76E
  8
0
 10
226.461901158760611
 20
90.333517943491259
 30
0.0
 11
226.4225310799606063
 21
90.2941478646912543
 31
0.0
  0
LINE
  5
1F76F
  8
0
 10
226.4225310799606063
 20
90.2941478646912543
 30
0.0
 11
226.4225310799606063
 21
90.274462825391268
 31
0.0
  0
LINE
  5
1F770
  8
0
 10
226.4225310799606063
 20
90.274462825391268
 30
0.0
 11
226.461901158760611
 21
90.2350927465912633
 31
0.0
  0
LINE
  5
1F771
  8
0
 10
226.461901158760611
 20
90.2350927465912633
 30
0.0
 11
223.8634759619608019
 21
90.2350927466912509
 31
0.0
  0
LINE
  5
1F772
  8
0
 10
223.9028460406607053
 20
90.2941478646912543
 30
0.0
 11
226.4225310799606063
 21
90.2941478646912543
 31
0.0
  0
LINE
  5
1F773
  8
0
 10
226.4225310799606063
 20
90.274462825391268
 30
0.0
 11
223.9028460406607053
 21
90.274462825391268
 31
0.0
  0
LINE
  5
1F774
  8
0
 10
223.8634759619108081
 20
90.6287935339412485
 30
0.0
 11
223.9028460406107115
 21
90.6681636127412531
 31
0.0
  0
LINE
  5
1F775
  8
0
 10
223.9028460406107115
 20
90.6681636127412531
 30
0.0
 11
223.9028460406107115
 21
90.6878486520412679
 31
0.0
  0
LINE
  5
1F776
  8
0
 10
223.9028460406107115
 20
90.6878486520412679
 30
0.0
 11
223.8634759618107068
 21
90.7272187308412441
 31
0.0
  0
LINE
  5
1F777
  8
0
 10
223.8634759618107068
 20
90.7272187308412441
 30
0.0
 11
226.4619011587105888
 21
90.7272187308412441
 31
0.0
  0
LINE
  5
1F778
  8
0
 10
226.4619011587105888
 20
90.7272187308412441
 30
0.0
 11
226.4225310799106126
 21
90.6878486520412679
 31
0.0
  0
LINE
  5
1F779
  8
0
 10
226.4225310799106126
 20
90.6878486520412679
 30
0.0
 11
226.4225310799106126
 21
90.6681636127412531
 31
0.0
  0
LINE
  5
1F77A
  8
0
 10
226.4225310799106126
 20
90.6681636127412531
 30
0.0
 11
226.4619011587105888
 21
90.6287935339412485
 31
0.0
  0
LINE
  5
1F77B
  8
0
 10
226.4619011587105888
 20
90.6287935339412485
 30
0.0
 11
223.8634759619108081
 21
90.6287935340412645
 31
0.0
  0
LINE
  5
1F77C
  8
0
 10
223.9028460406107115
 20
90.6878486520412679
 30
0.0
 11
226.4225310799106126
 21
90.6878486520412679
 31
0.0
  0
LINE
  5
1F77D
  8
0
 10
226.4225310799106126
 20
90.6681636127412531
 30
0.0
 11
223.9028460406107115
 21
90.6681636127412531
 31
0.0
  0
LINE
  5
1F77E
  8
0
 10
223.8634759619108081
 20
91.1209195183412675
 30
0.0
 11
223.9028460406107115
 21
91.0815494395412628
 31
0.0
  0
LINE
  5
1F77F
  8
0
 10
223.9028460406107115
 20
91.0815494395412628
 30
0.0
 11
223.9028460406107115
 21
91.0618644002412339
 31
0.0
  0
LINE
  5
1F780
  8
0
 10
223.9028460406107115
 20
91.0618644002412339
 30
0.0
 11
223.8634759618107068
 21
91.0224943214412434
 31
0.0
  0
LINE
  5
1F781
  8
0
 10
223.8634759618107068
 20
91.0224943214412434
 30
0.0
 11
226.4619011587105888
 21
91.0224943214412434
 31
0.0
  0
LINE
  5
1F782
  8
0
 10
226.4619011587105888
 20
91.0224943214412434
 30
0.0
 11
226.4225310799106126
 21
91.0618644002412339
 31
0.0
  0
LINE
  5
1F783
  8
0
 10
226.4225310799106126
 20
91.0618644002412339
 30
0.0
 11
226.4225310799106126
 21
91.0815494395412628
 31
0.0
  0
LINE
  5
1F784
  8
0
 10
226.4225310799106126
 20
91.0815494395412628
 30
0.0
 11
226.4619011587105888
 21
91.1209195183412675
 31
0.0
  0
LINE
  5
1F785
  8
0
 10
226.4619011587105888
 20
91.1209195183412675
 30
0.0
 11
223.8634759619108081
 21
91.1209195182412373
 31
0.0
  0
LINE
  5
1F786
  8
0
 10
223.9028460406107115
 20
91.0618644002412339
 30
0.0
 11
226.4225310799106126
 21
91.0618644002412339
 31
0.0
  0
LINE
  5
1F787
  8
0
 10
226.4225310799106126
 20
91.0815494395412628
 30
0.0
 11
223.9028460406107115
 21
91.0815494395412628
 31
0.0
  0
LINE
  5
1F788
  8
0
 10
223.8634759618607859
 20
90.333517943491259
 30
0.0
 11
223.8634759618607859
 21
90.6287935338912547
 31
0.0
  0
LINE
  5
1F789
  8
0
 10
226.461901158760611
 20
90.333517943491259
 30
0.0
 11
226.461901158760611
 21
90.6287935338912547
 31
0.0
  0
LINE
  5
1F78A
  8
0
 10
226.461901158760611
 20
90.7272187308912663
 30
0.0
 11
226.461901158760611
 21
91.0224943213912354
 31
0.0
  0
LINE
  5
1F78B
  8
0
 10
223.8634759619108081
 20
90.7272187308412441
 30
0.0
 11
223.8634759619108081
 21
91.0224943213912354
 31
0.0
  0
LINE
  5
1F78C
  8
0
 10
223.8634759619108081
 20
91.4161951087412632
 30
0.0
 11
223.9028460406107115
 21
91.4555651875412536
 31
0.0
  0
LINE
  5
1F78D
  8
0
 10
223.9028460406107115
 20
91.4555651875412536
 30
0.0
 11
223.9028460406107115
 21
91.4752502268412542
 31
0.0
  0
LINE
  5
1F78E
  8
0
 10
223.9028460406107115
 20
91.4752502268412542
 30
0.0
 11
223.8634759618107068
 21
91.5146203056412446
 31
0.0
  0
LINE
  5
1F78F
  8
0
 10
223.8634759618107068
 20
91.5146203056412446
 30
0.0
 11
226.4619011587105888
 21
91.5146203056412446
 31
0.0
  0
LINE
  5
1F790
  8
0
 10
226.4619011587105888
 20
91.5146203056412446
 30
0.0
 11
226.4225310799106126
 21
91.4752502268412542
 31
0.0
  0
LINE
  5
1F791
  8
0
 10
226.4225310799106126
 20
91.4752502268412542
 30
0.0
 11
226.4225310799106126
 21
91.4555651875412536
 31
0.0
  0
LINE
  5
1F792
  8
0
 10
226.4225310799106126
 20
91.4555651875412536
 30
0.0
 11
226.4619011587105888
 21
91.4161951087412632
 31
0.0
  0
LINE
  5
1F793
  8
0
 10
226.4619011587105888
 20
91.4161951087412632
 30
0.0
 11
223.8634759619108081
 21
91.4161951088412366
 31
0.0
  0
LINE
  5
1F794
  8
0
 10
223.9028460406107115
 20
91.4752502268412542
 30
0.0
 11
226.4225310799106126
 21
91.4752502268412542
 31
0.0
  0
LINE
  5
1F795
  8
0
 10
226.4225310799106126
 20
91.4555651875412536
 30
0.0
 11
223.9028460406107115
 21
91.4555651875412536
 31
0.0
  0
LINE
  5
1F796
  8
0
 10
226.461901158760611
 20
91.8098958961912643
 30
0.0
 11
226.461901158760611
 21
91.5146203056912668
 31
0.0
  0
LINE
  5
1F797
  8
0
 10
223.8634759619108081
 20
91.8098958962412439
 30
0.0
 11
223.8634759619108081
 21
91.5146203056912668
 31
0.0
  0
LINE
  5
1F798
  8
0
 10
223.8634759619108081
 20
92.6957226679412543
 30
0.0
 11
223.9028460406107115
 21
92.6563525891412638
 31
0.0
  0
LINE
  5
1F799
  8
0
 10
223.9028460406107115
 20
92.6563525891412638
 30
0.0
 11
223.9028460406107115
 21
92.6366675498412633
 31
0.0
  0
LINE
  5
1F79A
  8
0
 10
223.9028460406107115
 20
92.6366675498412633
 30
0.0
 11
223.8634759618107068
 21
92.5972974710412728
 31
0.0
  0
LINE
  5
1F79B
  8
0
 10
223.8634759618107068
 20
92.5972974710412728
 30
0.0
 11
226.4619011587105888
 21
92.5972974710412728
 31
0.0
  0
LINE
  5
1F79C
  8
0
 10
226.4619011587105888
 20
92.5972974710412728
 30
0.0
 11
226.4225310799106126
 21
92.6366675498412633
 31
0.0
  0
LINE
  5
1F79D
  8
0
 10
226.4225310799106126
 20
92.6366675498412633
 30
0.0
 11
226.4225310799106126
 21
92.6563525891412638
 31
0.0
  0
LINE
  5
1F79E
  8
0
 10
226.4225310799106126
 20
92.6563525891412638
 30
0.0
 11
226.4619011587105888
 21
92.6957226679412543
 31
0.0
  0
LINE
  5
1F79F
  8
0
 10
226.4619011587105888
 20
92.6957226679412543
 30
0.0
 11
223.8634759619108081
 21
92.6957226678412525
 31
0.0
  0
LINE
  5
1F7A0
  8
0
 10
223.9028460406107115
 20
92.6366675498412633
 30
0.0
 11
226.4225310799106126
 21
92.6366675498412633
 31
0.0
  0
LINE
  5
1F7A1
  8
0
 10
226.4225310799106126
 20
92.6563525891412638
 30
0.0
 11
223.9028460406107115
 21
92.6563525891412638
 31
0.0
  0
LINE
  5
1F7A2
  8
0
 10
226.461901158760611
 20
92.3020218804912531
 30
0.0
 11
226.461901158760611
 21
92.5972974709912506
 31
0.0
  0
LINE
  5
1F7A3
  8
0
 10
223.8634759619108081
 20
92.3020218804412735
 30
0.0
 11
223.8634759619108081
 21
92.5972974709912506
 31
0.0
  0
LINE
  5
1F7A4
  8
0
 10
223.8634759619108081
 20
91.908321093191276
 30
0.0
 11
223.9028460406107115
 21
91.8689510143912713
 31
0.0
  0
LINE
  5
1F7A5
  8
0
 10
223.9028460406107115
 20
91.8689510143912713
 30
0.0
 11
223.9028460406107115
 21
91.8492659750912566
 31
0.0
  0
LINE
  5
1F7A6
  8
0
 10
223.9028460406107115
 20
91.8492659750912566
 30
0.0
 11
223.8634759618107068
 21
91.8098958962912661
 31
0.0
  0
LINE
  5
1F7A7
  8
0
 10
223.8634759618107068
 20
91.8098958962912661
 30
0.0
 11
226.4619011587105888
 21
91.8098958962912661
 31
0.0
  0
LINE
  5
1F7A8
  8
0
 10
226.4619011587105888
 20
91.8098958962912661
 30
0.0
 11
226.4225310799106126
 21
91.8492659750912566
 31
0.0
  0
LINE
  5
1F7A9
  8
0
 10
226.4225310799106126
 20
91.8492659750912566
 30
0.0
 11
226.4225310799106126
 21
91.8689510143912713
 31
0.0
  0
LINE
  5
1F7AA
  8
0
 10
226.4225310799106126
 20
91.8689510143912713
 30
0.0
 11
226.4619011587105888
 21
91.908321093191276
 31
0.0
  0
LINE
  5
1F7AB
  8
0
 10
226.4619011587105888
 20
91.908321093191276
 30
0.0
 11
223.8634759619108081
 21
91.9083210930912458
 31
0.0
  0
LINE
  5
1F7AC
  8
0
 10
223.9028460406107115
 20
91.8492659750912566
 30
0.0
 11
226.4225310799106126
 21
91.8492659750912566
 31
0.0
  0
LINE
  5
1F7AD
  8
0
 10
226.4225310799106126
 20
91.8689510143912713
 30
0.0
 11
223.9028460406107115
 21
91.8689510143912713
 31
0.0
  0
LINE
  5
1F7AE
  8
0
 10
223.8634759619108081
 20
92.2035966834912557
 30
0.0
 11
223.9028460406107115
 21
92.2429667622912604
 31
0.0
  0
LINE
  5
1F7AF
  8
0
 10
223.9028460406107115
 20
92.2429667622912604
 30
0.0
 11
223.9028460406107115
 21
92.2626518015912467
 31
0.0
  0
LINE
  5
1F7B0
  8
0
 10
223.9028460406107115
 20
92.2626518015912467
 30
0.0
 11
223.8634759618107068
 21
92.3020218803912513
 31
0.0
  0
LINE
  5
1F7B1
  8
0
 10
223.8634759618107068
 20
92.3020218803912513
 30
0.0
 11
226.4619011587105888
 21
92.3020218803912513
 31
0.0
  0
LINE
  5
1F7B2
  8
0
 10
226.4619011587105888
 20
92.3020218803912513
 30
0.0
 11
226.4225310799106126
 21
92.2626518015912467
 31
0.0
  0
LINE
  5
1F7B3
  8
0
 10
226.4225310799106126
 20
92.2626518015912467
 30
0.0
 11
226.4225310799106126
 21
92.2429667622912604
 31
0.0
  0
LINE
  5
1F7B4
  8
0
 10
226.4225310799106126
 20
92.2429667622912604
 30
0.0
 11
226.4619011587105888
 21
92.2035966834912557
 31
0.0
  0
LINE
  5
1F7B5
  8
0
 10
226.4619011587105888
 20
92.2035966834912557
 30
0.0
 11
223.8634759619108081
 21
92.2035966835912859
 31
0.0
  0
LINE
  5
1F7B6
  8
0
 10
223.9028460406107115
 20
92.2626518015912467
 30
0.0
 11
226.4225310799106126
 21
92.2626518015912467
 31
0.0
  0
LINE
  5
1F7B7
  8
0
 10
226.4225310799106126
 20
92.2429667622912604
 30
0.0
 11
223.9028460406107115
 21
92.2429667622912604
 31
0.0
  0
LINE
  5
1F7B8
  8
0
 10
223.8634759618607859
 20
92.2035966835912859
 30
0.0
 11
223.8634759618607859
 21
91.9083210932412555
 31
0.0
  0
LINE
  5
1F7B9
  8
0
 10
223.8634759618607859
 20
91.1209195183912612
 30
0.0
 11
223.8634759618607859
 21
91.4161951086912552
 31
0.0
  0
LINE
  5
1F7BA
  8
0
 10
226.4619011588106048
 20
91.1209195183412675
 30
0.0
 11
226.461901158660595
 21
91.416195108791257
 31
0.0
  0
LINE
  5
1F7BB
  8
0
 10
226.461901158760611
 20
92.2035966834412619
 30
0.0
 11
226.4619011588605986
 21
91.908321093191276
 31
0.0
  0
LINE
  5
1F7BC
  8
0
 10
223.8634759619108081
 20
92.9909982583412642
 30
0.0
 11
223.9028460406107115
 21
93.0303683371412689
 31
0.0
  0
LINE
  5
1F7BD
  8
0
 10
223.9028460406107115
 20
93.0303683371412689
 30
0.0
 11
223.9028460406107115
 21
93.0500533764412552
 31
0.0
  0
LINE
  5
1F7BE
  8
0
 10
223.9028460406107115
 20
93.0500533764412552
 30
0.0
 11
223.8634759618107068
 21
93.0894234552412598
 31
0.0
  0
LINE
  5
1F7BF
  8
0
 10
223.8634759618107068
 20
93.0894234552412598
 30
0.0
 11
226.4619011587105888
 21
93.0894234552412598
 31
0.0
  0
LINE
  5
1F7C0
  8
0
 10
226.4619011587105888
 20
93.0894234552412598
 30
0.0
 11
226.4225310799106126
 21
93.0500533764412552
 31
0.0
  0
LINE
  5
1F7C1
  8
0
 10
226.4225310799106126
 20
93.0500533764412552
 30
0.0
 11
226.4225310799106126
 21
93.0303683371412689
 31
0.0
  0
LINE
  5
1F7C2
  8
0
 10
226.4225310799106126
 20
93.0303683371412689
 30
0.0
 11
226.4619011587105888
 21
92.9909982583412642
 31
0.0
  0
LINE
  5
1F7C3
  8
0
 10
226.4619011587105888
 20
92.9909982583412642
 30
0.0
 11
223.8634759619108081
 21
92.9909982584412518
 31
0.0
  0
LINE
  5
1F7C4
  8
0
 10
223.9028460406107115
 20
93.0500533764412552
 30
0.0
 11
226.4225310799106126
 21
93.0500533764412552
 31
0.0
  0
LINE
  5
1F7C5
  8
0
 10
226.4225310799106126
 20
93.0303683371412689
 30
0.0
 11
223.9028460406107115
 21
93.0303683371412689
 31
0.0
  0
LINE
  5
1F7C6
  8
0
 10
223.8634759619108081
 20
93.4831242427412548
 30
0.0
 11
223.9028460406107115
 21
93.4437541639412501
 31
0.0
  0
LINE
  5
1F7C7
  8
0
 10
223.9028460406107115
 20
93.4437541639412501
 30
0.0
 11
223.9028460406107115
 21
93.4240691246412638
 31
0.0
  0
LINE
  5
1F7C8
  8
0
 10
223.9028460406107115
 20
93.4240691246412638
 30
0.0
 11
223.8634759618107068
 21
93.3846990458412591
 31
0.0
  0
LINE
  5
1F7C9
  8
0
 10
223.8634759618107068
 20
93.3846990458412591
 30
0.0
 11
226.4619011587105888
 21
93.3846990458412591
 31
0.0
  0
LINE
  5
1F7CA
  8
0
 10
226.4619011587105888
 20
93.3846990458412591
 30
0.0
 11
226.4225310799106126
 21
93.4240691246412638
 31
0.0
  0
LINE
  5
1F7CB
  8
0
 10
226.4225310799106126
 20
93.4240691246412638
 30
0.0
 11
226.4225310799106126
 21
93.4437541639412501
 31
0.0
  0
LINE
  5
1F7CC
  8
0
 10
226.4225310799106126
 20
93.4437541639412501
 30
0.0
 11
226.4619011587105888
 21
93.4831242427412548
 31
0.0
  0
LINE
  5
1F7CD
  8
0
 10
226.4619011587105888
 20
93.4831242427412548
 30
0.0
 11
223.8634759619108081
 21
93.4831242426412672
 31
0.0
  0
LINE
  5
1F7CE
  8
0
 10
223.9028460406107115
 20
93.4240691246412638
 30
0.0
 11
226.4225310799106126
 21
93.4240691246412638
 31
0.0
  0
LINE
  5
1F7CF
  8
0
 10
226.4225310799106126
 20
93.4437541639412501
 30
0.0
 11
223.9028460406107115
 21
93.4437541639412501
 31
0.0
  0
LINE
  5
1F7D0
  8
0
 10
223.8634759618607859
 20
92.6957226678912463
 30
0.0
 11
223.8634759618607859
 21
92.9909982582912704
 31
0.0
  0
LINE
  5
1F7D1
  8
0
 10
226.461901158760611
 20
92.6957226678912463
 30
0.0
 11
226.461901158760611
 21
92.9909982582912704
 31
0.0
  0
LINE
  5
1F7D2
  8
0
 10
226.461901158760611
 20
93.0894234552912536
 30
0.0
 11
226.461901158760611
 21
93.3846990457912653
 31
0.0
  0
LINE
  5
1F7D3
  8
0
 10
223.8634759619108081
 20
93.0894234552412598
 30
0.0
 11
223.8634759619108081
 21
93.3846990457912653
 31
0.0
  0
LINE
  5
1F7D4
  8
0
 10
223.8634759619108081
 20
93.7783998331412505
 30
0.0
 11
223.9028460406107115
 21
93.8177699119412551
 31
0.0
  0
LINE
  5
1F7D5
  8
0
 10
223.9028460406107115
 20
93.8177699119412551
 30
0.0
 11
223.9028460406107115
 21
93.8374549512412699
 31
0.0
  0
LINE
  5
1F7D6
  8
0
 10
223.9028460406107115
 20
93.8374549512412699
 30
0.0
 11
223.8634759618107068
 21
93.8768250300412461
 31
0.0
  0
LINE
  5
1F7D7
  8
0
 10
223.8634759618107068
 20
93.8768250300412461
 30
0.0
 11
226.4619011587105888
 21
93.8768250300412461
 31
0.0
  0
LINE
  5
1F7D8
  8
0
 10
226.4619011587105888
 20
93.8768250300412461
 30
0.0
 11
226.4225310799106126
 21
93.8374549512412699
 31
0.0
  0
LINE
  5
1F7D9
  8
0
 10
226.4225310799106126
 20
93.8374549512412699
 30
0.0
 11
226.4225310799106126
 21
93.8177699119412551
 31
0.0
  0
LINE
  5
1F7DA
  8
0
 10
226.4225310799106126
 20
93.8177699119412551
 30
0.0
 11
226.4619011587105888
 21
93.7783998331412505
 31
0.0
  0
LINE
  5
1F7DB
  8
0
 10
226.4619011587105888
 20
93.7783998331412505
 30
0.0
 11
223.8634759619108081
 21
93.7783998332412665
 31
0.0
  0
LINE
  5
1F7DC
  8
0
 10
223.9028460406107115
 20
93.8374549512412699
 30
0.0
 11
226.4225310799106126
 21
93.8374549512412699
 31
0.0
  0
LINE
  5
1F7DD
  8
0
 10
226.4225310799106126
 20
93.8177699119412551
 30
0.0
 11
223.9028460406107115
 21
93.8177699119412551
 31
0.0
  0
LINE
  5
1F7DE
  8
0
 10
226.461901158760611
 20
94.1721006205912374
 30
0.0
 11
226.461901158760611
 21
93.8768250300912683
 31
0.0
  0
LINE
  5
1F7DF
  8
0
 10
223.8634759619108081
 20
94.1721006206412454
 30
0.0
 11
223.8634759619108081
 21
93.8768250300912683
 31
0.0
  0
LINE
  5
1F7E0
  8
0
 10
223.9028460406107115
 20
94.2114706994912581
 30
0.0
 11
223.8634759618107068
 21
94.1721006206912676
 31
0.0
  0
LINE
  5
1F7E1
  8
0
 10
223.8634759618107068
 20
94.1721006206912676
 30
0.0
 11
226.4619011587105888
 21
94.1721006206912676
 31
0.0
  0
LINE
  5
1F7E2
  8
0
 10
226.4619011587105888
 20
94.1721006206912676
 30
0.0
 11
226.4225310799106126
 21
94.2114706994912581
 31
0.0
  0
LINE
  5
1F7E3
  8
0
 10
223.8634759618607859
 20
94.2114706993912563
 30
0.0
 11
226.461901158760611
 21
94.2114706993912563
 31
0.0
  0
LINE
  5
1F7E4
  8
0
 10
223.8634759618607859
 20
93.4831242427912485
 30
0.0
 11
223.8634759618607859
 21
93.7783998330912567
 31
0.0
  0
LINE
  5
1F7E5
  8
0
 10
226.4619011588106048
 20
93.4831242427412548
 30
0.0
 11
226.461901158660595
 21
93.7783998331912727
 31
0.0
  0
LINE
  5
1F7E6
  8
0
 10
226.461901158760611
 20
90.2350927465912633
 30
0.0
 11
226.461901158660595
 21
88.7490328968382585
 31
0.0
  0
LINE
  5
1F7E7
  8
0
 10
226.1899168791777868
 20
87.1413207120461806
 30
0.0
 11
226.4498802533607886
 21
88.611970657291252
 31
0.0
  0
LINE
  5
1F7E8
  8
0
 10
226.1863106075606993
 20
87.0972974709912506
 30
0.0
 11
226.1863106075606993
 21
86.43885915942748
 31
0.0
  0
ARC
  5
1F7E9
  8
0
 10
224.6506893956184001
 20
88.7490163961622329
 30
0.0
 40
0.7872134338306722
 50
179.9987990269343072
 51
190.0256877733307022
  0
ARC
  5
1F7EA
  8
0
 10
225.6744995708849899
 20
88.749032898603744
 30
0.0
 40
0.787401587875503
 50
349.9755132456396041
 51
359.9999998753881982
  0
ARC
  5
1F7EB
  8
0
 10
223.9028460396812079
 20
87.1002020401483747
 30
0.0
 40
0.2362204733797437
 50
0.0000000104008718
 51
10.0244867508299595
  0
LINE
  5
1F7EC
  8
0
 10
224.1390665044050081
 20
87.1002659869955238
 30
0.0
 11
226.1862959753902942
 21
87.1002020401912631
 31
0.0
  0
ARC
  5
1F7ED
  8
0
 10
226.4244451183062949
 20
87.099949428093467
 30
0.0
 40
0.2381492768925445
 50
169.9958234469208946
 51
180.6380413657911106
  0
LINE
  5
1F7EE
  8
0
 10
223.8634759617874863
 20
88.7490163961622329
 30
0.0
 11
226.461901158760611
 21
88.7490163961622329
 31
0.0
  0
ARC
  5
1F7EF
  8
0
 10
223.4174129697607896
 20
95.8466404385912654
 30
0.0
 40
0.1299212598000006
 50
90.0
 51
180.0
  0
ARC
  5
1F7F0
  8
0
 10
223.4737121823577013
 20
95.9982152417923942
 30
0.0
 40
0.0216535433027518
 50
270.0000000096403028
 51
359.9999999969857072
  0
ARC
  5
1F7F1
  8
0
 10
223.4174129697607896
 20
95.760026265391275
 30
0.0
 40
0.1299212598000006
 50
180.0
 51
270.0
  0
ARC
  5
1F7F2
  8
0
 10
223.4601241288409881
 20
95.5867979187044199
 30
0.0
 40
0.0433070868868404
 50
3.0000002418091469
 51
89.9999997091729256
  0
ARC
  5
1F7F3
  8
0
 10
223.7240839037607998
 20
95.515040229191257
 30
0.0
 40
0.2165354331000017
 50
183.0000000007001972
 51
239.7559937660352034
  0
ARC
  5
1F7F4
  8
0
 10
223.5386728119541999
 20
95.1970341391087942
 30
0.0
 40
0.1515748035062696
 50
0.0000001067689307
 51
59.7559938425519093
  0
ARC
  5
1F7F5
  8
0
 10
223.8240345102057915
 20
94.8898457765417476
 30
0.0
 40
0.1180093087700692
 50
199.443200244164899
 51
270.034681931731825
  0
ARC
  5
1F7F6
  8
0
 10
223.8359169067607013
 20
94.6930963318912546
 30
0.0
 40
0.078740157500001
 50
0.0
 51
89.9999043189100263
  0
ARC
  5
1F7F7
  8
0
 10
223.8634759625155937
 20
94.3295809353200667
 30
0.0
 40
0.0393700793547458
 50
89.993123581242557
 51
179.9999996053107054
  0
ARC
  5
1F7F8
  8
0
 10
223.8634759618607859
 20
94.2508407780912449
 30
0.0
 40
0.0393700786999993
 50
180.0
 51
270.0
  0
LINE
  5
1F7F9
  8
0
 10
223.8241058831607972
 20
94.2508407780912449
 30
0.0
 11
223.8241058831607972
 21
94.3295809353200667
 31
0.0
  0
LINE
  5
1F7FA
  8
0
 10
223.9146570642606093
 20
94.3689510143912713
 30
0.0
 11
223.9146570642606093
 21
94.6930963318912546
 31
0.0
  0
LINE
  5
1F7FB
  8
0
 10
223.6902476154604926
 20
94.8505774464912292
 30
0.0
 11
223.6902476154604926
 21
95.1970341391168233
 31
0.0
  0
LINE
  5
1F7FC
  8
0
 10
223.5078452249435941
 20
95.5037076402912675
 30
0.0
 11
223.5033718648037109
 21
95.5890644366777167
 31
0.0
  0
LINE
  5
1F7FD
  8
0
 10
223.2874917099607046
 20
95.8466404385912654
 30
0.0
 11
223.2874917099607046
 21
95.760026265391275
 31
0.0
  0
LINE
  5
1F7FE
  8
0
 10
223.4953657256604913
 20
95.9982152417912431
 30
0.0
 11
223.4953657256604913
 21
96.3466404385912512
 31
0.0
  0
ARC
  5
1F7FF
  8
0
 10
226.9079641508606073
 20
95.8466404385912654
 30
0.0
 40
0.1299212598000006
 50
0.0
 51
90.0
  0
ARC
  5
1F800
  8
0
 10
226.851664938428712
 20
95.9982152418608052
 30
0.0
 40
0.0216535434679557
 50
180.0000001840793118
 51
269.9999995555780856
  0
ARC
  5
1F801
  8
0
 10
226.9079641508606073
 20
95.760026265391275
 30
0.0
 40
0.1299212598000006
 50
270.0
 51
359.9999999999984084
  0
ARC
  5
1F802
  8
0
 10
226.8652529917804088
 20
95.5867979187044199
 30
0.0
 40
0.0433070868868403
 50
90.0000002908270602
 51
176.9999997581907962
  0
ARC
  5
1F803
  8
0
 10
226.6012932168605118
 20
95.515040229191257
 30
0.0
 40
0.2165354331000017
 50
300.2440062339647966
 51
356.9999999992996891
  0
ARC
  5
1F804
  8
0
 10
226.7867043086671117
 20
95.1970341391087942
 30
0.0
 40
0.1515748035062696
 50
120.2440061574480978
 51
179.9999998932293863
  0
ARC
  5
1F805
  8
0
 10
226.5013426104160033
 20
94.8898457765417476
 30
0.0
 40
0.1180093087700692
 50
269.965318068268175
 51
340.556799755833481
  0
ARC
  5
1F806
  8
0
 10
226.4894602138606103
 20
94.6930963318912546
 30
0.0
 40
0.078740157500001
 50
90.0000956810899595
 51
179.9999999999984084
  0
ARC
  5
1F807
  8
0
 10
226.4619011581058032
 20
94.3295809353200667
 30
0.0
 40
0.0393700793547467
 50
0.0000003946892284
 51
90.0
  0
ARC
  5
1F808
  8
0
 10
226.461901158760611
 20
94.2508407780912449
 30
0.0
 40
0.0393700786999993
 50
270.0
 51
359.9999999999984084
  0
LINE
  5
1F809
  8
0
 10
226.501271237460486
 20
94.2508407780912449
 30
0.0
 11
226.501271237460486
 21
94.3295809353200667
 31
0.0
  0
LINE
  5
1F80A
  8
0
 10
226.4107200563607876
 20
94.3689510143912713
 30
0.0
 11
226.4107200563607876
 21
94.6930963318912546
 31
0.0
  0
LINE
  5
1F80B
  8
0
 10
226.6351295051609043
 20
94.8505774464912292
 30
0.0
 11
226.6351295051609043
 21
95.1970341391168233
 31
0.0
  0
LINE
  5
1F80C
  8
0
 10
226.8175318956778028
 20
95.5037076402912675
 30
0.0
 11
226.8220052558176008
 21
95.5890644366777167
 31
0.0
  0
LINE
  5
1F80D
  8
0
 10
227.0378854106606923
 20
95.8466404385912654
 30
0.0
 11
227.0378854106606923
 21
95.760026265391275
 31
0.0
  0
LINE
  5
1F80E
  8
0
 10
226.8300113949607919
 20
95.9982152417912431
 30
0.0
 11
226.8300113949607919
 21
96.3466404385912512
 31
0.0
  0
LINE
  5
1F80F
  8
0
 10
223.4174129697607896
 20
95.9765616984912668
 30
0.0
 11
226.9079641508606073
 21
95.9765616983912366
 31
0.0
  0
LINE
  5
1F810
  8
0
 10
223.4174129697607896
 20
95.6301050055912611
 30
0.0
 11
226.9079641508606073
 21
95.6301050055912611
 31
0.0
  0
LINE
  5
1F811
  8
0
 10
223.6902476154604926
 20
94.8505774464912292
 30
0.0
 11
226.6351295051609043
 21
94.8505774464912292
 31
0.0
  0
LINE
  5
1F812
  8
0
 10
223.8241059428927997
 20
94.7718364893912764
 30
0.0
 11
226.5012711777453092
 21
94.7718364893912764
 31
0.0
  0
LINE
  5
1F813
  8
0
 10
226.7008120469344874
 20
95.3219238521857051
 30
0.0
 11
223.6245489377234037
 21
95.321934948076958
 31
0.0
  0
LINE
  5
1F814
  8
0
 10
223.8634806875606955
 20
94.3689510143912713
 30
0.0
 11
226.4619011581058032
 21
94.3689510146748063
 31
0.0
  0
ARC
  5
1F815
  8
0
 10
224.7493027335607962
 20
84.1051714867912636
 30
0.0
 40
0.1181102361999962
 50
179.9999999999984084
 51
270.0
  0
ARC
  5
1F816
  8
0
 10
225.576074387060487
 20
84.1051714867912636
 30
0.0
 40
0.1181102361999979
 50
270.0
 51
0.0
  0
LINE
  5
1F817
  8
0
 10
224.6311924973605869
 20
84.1051714867912636
 30
0.0
 11
224.6311924973605869
 21
84.5866421653731635
 31
0.0
  0
LINE
  5
1F818
  8
0
 10
225.6941846232606963
 20
84.1051714867912636
 30
0.0
 11
225.6941846232606963
 21
84.586642165326225
 31
0.0
  0
LINE
  5
1F819
  8
0
 10
224.7493027335607962
 20
83.9870612505912533
 30
0.0
 11
225.576074387060487
 21
83.9870612505912533
 31
0.0
  0
CIRCLE
  5
1F81A
  8
0
 10
225.4185940721608858
 20
84.2626518017912503
 30
0.0
 40
0.1574803150000008
  0
CIRCLE
  5
1F81B
  8
0
 10
225.1626885603608912
 20
85.7193447150912533
 30
0.0
 40
1.2512006757999989
  0
LINE
  5
1F81C
  8
0
 10
217.7231449119732929
 20
108.7230031548781994
 30
0.0
 11
232.6022322085484859
 21
108.7230031548781994
 31
0.0
  0
LINE
  5
1F81D
  8
0
 10
217.7231449119732929
 20
108.7230031548781994
 30
0.0
 11
217.8823736686306916
 21
99.4217433254565179
 31
0.0
  0
LINE
  5
1F81E
  8
0
 10
216.1672880852194965
 20
97.3586738328133947
 30
0.0
 11
216.9540912086712012
 21
97.3586738328133947
 31
0.0
  0
LINE
  5
1F81F
  8
0
 10
215.7732880852194057
 20
99.2917479483871546
 30
0.0
 11
215.7732880852194057
 21
97.7526738328134002
 31
0.0
  0
LINE
  5
1F820
  8
0
 10
215.7732880852194057
 20
99.2917479483871546
 30
0.0
 11
217.9118881760375928
 21
99.2917479483871546
 31
0.0
  0
LINE
  5
1F821
  8
0
 10
215.8128346179929906
 20
100.0594240943411961
 30
0.0
 11
215.8128346179929906
 21
99.2917479483871546
 31
0.0
  0
LINE
  5
1F822
  8
0
 10
216.9939370050288119
 20
100.0594240943411961
 30
0.0
 11
216.9939370050288119
 21
99.2917479483871546
 31
0.0
  0
LINE
  5
1F823
  8
0
 10
216.0097346179929048
 20
100.2563240943411955
 30
0.0
 11
216.7970370050288125
 21
100.2563240943411955
 31
0.0
  0
ARC
  5
1F824
  8
0
 10
216.0097346179929048
 20
100.0594240943411961
 30
0.0
 40
0.1969
 50
90.0
 51
180.0
  0
ARC
  5
1F825
  8
0
 10
216.7970370050288125
 20
100.0594240943411961
 30
0.0
 40
0.1969
 50
0.0
 51
90.0
  0
ARC
  5
1F826
  8
0
 10
216.1672880852194965
 20
97.7526738328134002
 30
0.0
 40
0.394
 50
180.0
 51
270.0
  0
ARC
  5
1F827
  8
0
 10
216.9540912086712012
 20
97.7526738328134002
 30
0.0
 40
0.394
 50
270.0
 51
0.0
  0
LINE
  5
1F828
  8
0
 10
216.7208166112058052
 20
98.073920655223688
 30
0.0
 11
216.403222388324906
 21
98.0739189763027355
 31
0.0
  0
LINE
  5
1F829
  8
0
 10
216.7208166112058052
 20
98.5410696054335062
 30
0.0
 11
216.403222388324906
 21
98.5410679265125538
 31
0.0
  0
ARC
  5
1F82A
  8
0
 10
216.403222388324906
 20
98.3074934514076659
 30
0.0
 40
0.2335744751049123
 50
90.0
 51
270.0
  0
ARC
  5
1F82B
  8
0
 10
216.7208166112058052
 20
98.30749513032859
 30
0.0
 40
0.2335744751049123
 50
270.0
 51
90.0
  0
CIRCLE
  5
1F82C
  8
0
 10
216.4032204382301927
 20
98.3074933119366108
 30
0.0
 40
0.1614173227999998
  0
LINE
  5
1F82D
  8
0
 10
223.4474224463704957
 20
96.360798373691253
 30
0.0
 11
226.8765613772607992
 21
96.360798373691253
 31
0.0
  0
LINE
  5
1F82E
  8
0
 10
217.5300519826608934
 20
109.5553018558912015
 30
0.0
 11
232.7953251378608002
 21
109.5553018558914999
 31
0.0
  0
LINE
  5
1F82F
  8
0
 10
217.5248932847609069
 20
109.1419160290913055
 30
0.0
 11
217.5248932847609069
 21
108.7482152416911987
 31
0.0
  0
LINE
  5
1F830
  8
0
 10
217.5248932847609069
 20
109.1419160290913055
 30
0.0
 11
232.8004838357607866
 21
109.1419160290888044
 31
0.0
  0
LINE
  5
1F831
  8
0
 10
217.5248932847609069
 20
108.7482152416911987
 30
0.0
 11
218.2994818862435977
 21
108.7482152416911987
 31
0.0
  0
LINE
  5
1F832
  8
0
 10
217.7879910389443978
 20
108.7230031548781994
 30
0.0
 11
217.7879910389443978
 21
108.7482152416911987
 31
0.0
  0
LINE
  5
1F833
  8
0
 10
218.2999219647269058
 20
108.7230031548781994
 30
0.0
 11
218.2926098154528063
 21
109.1419160290911066
 31
0.0
  0
LINE
  5
1F834
  8
0
 10
217.5300519826608934
 20
109.2403412259912017
 30
0.0
 11
217.5300519826608934
 21
109.1419160290913055
 31
0.0
  0
LINE
  5
1F835
  8
0
 10
217.5300519826608934
 20
109.2403412259912017
 30
0.0
 11
219.3359169067609002
 21
109.2403412259912017
 31
0.0
  0
LINE
  5
1F836
  8
0
 10
219.4146564000608919
 20
109.2403412259912017
 30
0.0
 11
220.9894595496608929
 21
109.2403412259912017
 31
0.0
  0
LINE
  5
1F837
  8
0
 10
221.0682003713608879
 20
109.2403412259912017
 30
0.0
 11
222.6430035209608889
 21
109.2403412259912017
 31
0.0
  0
LINE
  5
1F838
  8
0
 10
222.7217430141608929
 20
109.2403412259912017
 30
0.0
 11
224.2965461637608939
 21
109.2403412259912017
 31
0.0
  0
LINE
  5
1F839
  8
0
 10
224.3752869855609049
 20
109.2403412259912017
 30
0.0
 11
225.9500901349607886
 21
109.2403412259912017
 31
0.0
  0
LINE
  5
1F83A
  8
0
 10
226.02882962836091
 20
109.2403412259912017
 30
0.0
 11
227.603632777960911
 21
109.2403412259912017
 31
0.0
  0
LINE
  5
1F83B
  8
0
 10
227.6823735995608047
 20
109.2403412259912017
 30
0.0
 11
229.2571767491608057
 21
109.2403412259912017
 31
0.0
  0
LINE
  5
1F83C
  8
0
 10
229.3359162425608986
 20
109.2403412259912017
 30
0.0
 11
230.9107193921608996
 21
109.2403412259912017
 31
0.0
  0
LINE
  5
1F83D
  8
0
 10
230.9894602137607933
 20
109.2403412259912017
 30
0.0
 11
232.7953251378608002
 21
109.2403412259912017
 31
0.0
  0
LINE
  5
1F83E
  8
0
 10
217.5300519826608934
 20
109.4568766589912059
 30
0.0
 11
219.3359162425608986
 21
109.4568766589910069
 31
0.0
  0
LINE
  5
1F83F
  8
0
 10
219.4146564000608919
 20
109.4568766589910069
 30
0.0
 11
220.9894595496608929
 21
109.4568766589907938
 31
0.0
  0
LINE
  5
1F840
  8
0
 10
221.0681997070608986
 20
109.4568766589907938
 30
0.0
 11
222.6430028567608872
 21
109.4568766589905948
 31
0.0
  0
LINE
  5
1F841
  8
0
 10
222.7217430141608929
 20
109.4568766589905948
 30
0.0
 11
224.2965461637608939
 21
109.4568766589903959
 31
0.0
  0
LINE
  5
1F842
  8
0
 10
224.3752863212608872
 20
109.4568766589903959
 30
0.0
 11
225.9500894708608882
 21
109.4568766589901969
 31
0.0
  0
LINE
  5
1F843
  8
0
 10
226.02882962836091
 20
109.4568766589900974
 30
0.0
 11
227.603632777960911
 21
109.4568766589898985
 31
0.0
  0
LINE
  5
1F844
  8
0
 10
227.6823729354609043
 20
109.4568766589898985
 30
0.0
 11
229.2571760850609053
 21
109.4568766589896995
 31
0.0
  0
LINE
  5
1F845
  8
0
 10
229.3359162425608986
 20
109.4568766589896995
 30
0.0
 11
230.9107193921608996
 21
109.4568766589895006
 31
0.0
  0
LINE
  5
1F846
  8
0
 10
230.9894595496608929
 20
109.4568766589895006
 30
0.0
 11
232.7953251378608002
 21
109.4568766589893016
 31
0.0
  0
LINE
  5
1F847
  8
0
 10
217.5300519826608934
 20
109.4568766589912059
 30
0.0
 11
217.5300519826608934
 21
109.5553018558912015
 31
0.0
  0
LINE
  5
1F848
  8
0
 10
217.5309836158608903
 20
109.4568766589912059
 30
0.0
 11
217.5309836158608903
 21
109.2403412259912017
 31
0.0
  0
LINE
  5
1F849
  8
0
 10
215.9894397414608989
 20
110.3230183911334024
 30
0.0
 11
217.7117163194023988
 21
110.3230183911334024
 31
0.0
  0
LINE
  5
1F84A
  8
0
 10
215.7532397414609022
 20
112.0553131115371031
 30
0.0
 11
215.7532397414609022
 21
110.559218391133399
 31
0.0
  0
ARC
  5
1F84B
  8
0
 10
215.9894397414608989
 20
110.559218391133399
 30
0.0
 40
0.2362
 50
180.0
 51
270.0
  0
LINE
  5
1F84C
  8
0
 10
215.9894397414608989
 20
112.2915131115370997
 30
0.0
 11
217.7302687215915
 21
112.2915131115370997
 31
0.0
  0
ARC
  5
1F84D
  8
0
 10
215.9894397414608989
 20
112.0553131115371031
 30
0.0
 40
0.2362
 50
90.0
 51
180.0
  0
LINE
  5
1F84E
  8
0
 10
215.7571767492609069
 20
113.0591892574911981
 30
0.0
 11
215.7571767492609069
 21
112.0982589198809052
 31
0.0
  0
LINE
  5
1F84F
  8
0
 10
216.9382791362968135
 20
113.0591892574911981
 30
0.0
 11
216.9382791362968135
 21
112.2915131115370997
 31
0.0
  0
LINE
  5
1F850
  8
0
 10
215.9540767492609064
 20
113.2560892574911975
 30
0.0
 11
216.7413791362967004
 21
113.2560892574911975
 31
0.0
  0
ARC
  5
1F851
  8
0
 10
215.9540767492609064
 20
113.0591892574911981
 30
0.0
 40
0.1969
 50
90.0
 51
180.0
  0
ARC
  5
1F852
  8
0
 10
216.7413791362967004
 20
113.0591892574911981
 30
0.0
 40
0.1969
 50
359.9999999999992042
 51
90.0
  0
LINE
  5
1F853
  8
0
 10
216.4264684540032988
 20
112.4293174315865969
 30
0.0
 11
216.2689881262930101
 21
112.4293174315865969
 31
0.0
  0
LINE
  5
1F854
  8
0
 10
216.4264684540032988
 20
112.8230182055764033
 30
0.0
 11
216.2689881262930101
 21
112.8230182055764033
 31
0.0
  0
ARC
  5
1F855
  8
0
 10
216.2689881262930101
 20
112.626167818581493
 30
0.0
 40
0.196850386994885
 50
90.0
 51
270.0
  0
ARC
  5
1F856
  8
0
 10
216.4264684540032988
 20
112.626167818581493
 30
0.0
 40
0.196850386994885
 50
270.0
 51
90.0
  0
LINE
  5
1F857
  8
0
 10
216.6648099768057989
 20
111.0736858183737041
 30
0.0
 11
216.3472157539248997
 21
111.0736841394526948
 31
0.0
  0
LINE
  5
1F858
  8
0
 10
216.6648099768057989
 20
111.540834768583494
 30
0.0
 11
216.3472157539248997
 21
111.5408330896624989
 31
0.0
  0
ARC
  5
1F859
  8
0
 10
216.3472157539248997
 20
111.3072586145575968
 30
0.0
 40
0.2335744751049123
 50
90.0
 51
270.0
  0
ARC
  5
1F85A
  8
0
 10
216.6648099768057989
 20
111.3072602934786062
 30
0.0
 40
0.2335744751049123
 50
270.0
 51
90.0
  0
CIRCLE
  5
1F85B
  8
0
 10
216.3472138038301864
 20
111.3072584750865985
 30
0.0
 40
0.1614173227999998
  0
LINE
  5
1F85C
  8
0
 10
217.784406359953806
 20
109.5553018558912015
 30
0.0
 11
217.8348095214032867
 21
115.3309320801966038
 31
0.0
  0
ARC
  5
1F85D
  8
0
 10
217.7117163194023988
 20
110.2443183911334046
 30
0.0
 40
0.0787
 50
359.4999999992699031
 51
90.0
  0
ARC
  5
1F85E
  8
0
 10
217.7302687215915
 20
112.3702131115370975
 30
0.0
 40
0.0787
 50
270.0
 51
359.4999999992699031
  0
LINE
  5
1F85F
  8
0
 10
218.7402750427378066
 20
116.2285302022911964
 30
0.0
 11
231.5851020777840006
 21
116.2285302022911964
 31
0.0
  0
ARC
  5
1F860
  8
0
 10
218.7402750427378066
 20
115.323030202291207
 30
0.0
 40
0.9054999999999999
 50
90.0
 51
179.4999999992699031
  0
LINE
  5
1F861
  8
0
 10
229.5859730911695067
 20
115.8652624462911973
 30
0.0
 11
220.7394040293521869
 21
115.8652624462911973
 31
0.0
  0
LINE
  5
1F862
  8
0
 10
220.5797751174249015
 20
116.126377985235095
 30
0.0
 11
220.6133907932847933
 21
115.9674146633472986
 31
0.0
  0
ARC
  5
1F863
  8
0
 10
220.4537618813575079
 20
116.0997302022911981
 30
0.0
 40
0.1288
 50
11.94031984015907
 51
90.0000000000016058
  0
ARC
  5
1F864
  8
0
 10
220.7394040293521869
 20
115.9940624462911956
 30
0.0
 40
0.1288
 50
191.9403198401575139
 51
270.0000000000017053
  0
LINE
  5
1F865
  8
0
 10
221.0286696626610876
 20
115.697034139391306
 30
0.0
 11
229.2967074578608901
 21
115.6970341393880943
 31
0.0
  0
LINE
  5
1F866
  8
0
 10
221.0286860733164929
 20
115.7167173261922954
 30
0.0
 11
229.2966910472052007
 21
115.7167173261922954
 31
0.0
  0
LINE
  5
1F867
  8
0
 10
220.7138696626608976
 20
110.0669522495911963
 30
0.0
 11
220.7138696626608976
 21
112.0356168164911992
 31
0.0
  0
LINE
  5
1F868
  8
0
 10
220.7138696626608976
 20
112.9411286274911959
 30
0.0
 11
220.7138696626608976
 21
115.3822341393913007
 31
0.0
  0
LINE
  5
1F869
  8
0
 10
220.6941860733165015
 20
115.3822173261923041
 30
0.0
 11
220.6941860733165015
 21
110.0669672105646981
 31
0.0
  0
LINE
  5
1F86A
  8
0
 10
221.0286696626608887
 20
109.7521522495912052
 30
0.0
 11
229.2967074578608901
 21
109.7521522495912052
 31
0.0
  0
LINE
  5
1F86B
  8
0
 10
221.0286860733164929
 20
109.7324672105647068
 30
0.0
 11
229.2966910472052007
 21
109.7324672105647068
 31
0.0
  0
ARC
  5
1F86C
  8
0
 10
221.0286696626608887
 20
110.0669522495911963
 30
0.0
 40
0.3148
 50
179.9999999999992042
 51
270.0
  0
ARC
  5
1F86D
  8
0
 10
221.0286696626608887
 20
115.3822341393913007
 30
0.0
 40
0.3148
 50
89.9999999999772058
 51
180.0000000000007958
  0
ARC
  5
1F86E
  8
0
 10
221.0286860733164929
 20
115.3822173261923041
 30
0.0
 40
0.3345
 50
90.0
 51
180.0
  0
ARC
  5
1F86F
  8
0
 10
221.0286860733164929
 20
110.0669672105646981
 30
0.0
 40
0.3345
 50
180.0
 51
270.0
  0
LINE
  5
1F870
  8
0
 10
220.7138696626608976
 20
112.9411286274911959
 30
0.0
 11
220.7650507650608915
 21
112.9411286274911959
 31
0.0
  0
LINE
  5
1F871
  8
0
 10
220.7650507650608915
 20
112.9411286274911959
 30
0.0
 11
220.7650507650608915
 21
112.0356168164911992
 31
0.0
  0
LINE
  5
1F872
  8
0
 10
220.7650507650608915
 20
112.0356168164911992
 30
0.0
 11
220.7138696626608976
 21
112.0356168164911992
 31
0.0
  0
LINE
  5
1F873
  8
0
 10
220.7059804157138956
 20
111.8785410783865046
 30
0.0
 11
220.7059804157138956
 21
113.0983444060163947
 31
0.0
  0
ARC
  5
1F874
  8
0
 10
220.8436713678271985
 20
111.8781081677673939
 30
0.0
 40
0.137691632663248
 50
179.8198583910894968
 51
199.4902004672183864
  0
ARC
  5
1F875
  8
0
 10
220.8432003990488965
 20
113.098744793794495
 30
0.0
 40
0.1372205674700647
 50
160.4761677051054107
 51
180.1671802059603067
  0
LINE
  5
1F876
  8
0
 10
220.2315861980609952
 20
116.2521332412912045
 30
0.0
 11
220.2315861980609952
 21
116.2285302022911964
 31
0.0
  0
LINE
  5
1F877
  8
0
 10
221.7473342295608916
 20
116.2521332412912045
 30
0.0
 11
221.7473342295608916
 21
116.2285302022911964
 31
0.0
  0
LINE
  5
1F878
  8
0
 10
221.7276342295608913
 20
116.2718332412912048
 30
0.0
 11
220.2512861980609955
 21
116.2718332412912048
 31
0.0
  0
ARC
  5
1F879
  8
0
 10
221.7276342295608913
 20
116.2521332412912045
 30
0.0
 40
0.0197
 50
0.0
 51
90.0000000000081286
  0
ARC
  5
1F87A
  8
0
 10
220.2512861980609102
 20
116.2521332412912045
 30
0.0
 40
0.0197
 50
89.9999999999853344
 51
180.0000000000104876
  0
LINE
  5
1F87B
  8
0
 10
220.4914287177608969
 20
116.5552978081911988
 30
0.0
 11
221.4874917099608922
 21
116.5552978081911988
 31
0.0
  0
LINE
  5
1F87C
  8
0
 10
221.4874917099608922
 20
116.5552978081911988
 30
0.0
 11
221.4874917099608922
 21
116.2718332412912048
 31
0.0
  0
LINE
  5
1F87D
  8
0
 10
220.4914287177608969
 20
116.2718332412912048
 30
0.0
 11
220.4914287177608969
 21
116.5552978081911988
 31
0.0
  0
ARC
  5
1F87E
  8
0
 10
220.7845088653459982
 20
116.0054213849931983
 30
0.0
 40
0.5592710552658096
 50
100.516619649858697
 51
119.3331132677571986
  0
ARC
  5
1F87F
  8
0
 10
220.6979593717724981
 20
116.0080834188502052
 30
0.0
 40
0.5561642167681216
 50
60.7426610973765335
 51
79.7073416764108771
  0
ARC
  5
1F880
  8
0
 10
220.9894602138608946
 20
116.5284392735024994
 30
0.0
 40
0.0402776969244064
 50
240.7426610973780043
 51
299.2573389026239283
  0
ARC
  5
1F881
  8
0
 10
221.2837813345848872
 20
116.003048961696507
 30
0.0
 40
0.5619348086280949
 50
100.6534886567152967
 51
119.2573389026238999
  0
ARC
  5
1F882
  8
0
 10
221.2102077956861876
 20
116.0458327102150946
 30
0.0
 40
0.5163175920534032
 50
60.0717208057731611
 51
80.6548774516229656
  0
ARC
  5
1F883
  8
0
 10
221.4848983140479959
 20
116.5229890246186955
 30
0.0
 40
0.0342575883290176
 50
240.0717208057731966
 51
274.3416055157504729
  0
ARC
  5
1F884
  8
0
 10
220.4928830614842923
 20
116.5232031839303062
 30
0.0
 40
0.0349923533008245
 50
267.6180005659172139
 51
300.2846930859001873
  0
LINE
  5
1F885
  8
0
 10
221.4678066705608899
 20
116.4932996648911967
 30
0.0
 11
221.4678066705608899
 21
116.2718332412912048
 31
0.0
  0
LINE
  5
1F886
  8
0
 10
221.0091452532608969
 20
116.4932996648911967
 30
0.0
 11
221.0091452532608969
 21
116.2718332412912048
 31
0.0
  0
LINE
  5
1F887
  8
0
 10
220.9697751744608922
 20
116.4932996648911967
 30
0.0
 11
220.9697751744608922
 21
116.2718332412912048
 31
0.0
  0
LINE
  5
1F888
  8
0
 10
220.5105295983337044
 20
116.4929862263277016
 30
0.0
 11
220.5105295983337044
 21
116.2718332412912048
 31
0.0
  0
LINE
  5
1F889
  8
0
 10
220.5519330837697112
 20
117.1261639498910938
 30
0.0
 11
221.4269873439521916
 21
117.1261639498914064
 31
0.0
  0
LINE
  5
1F88A
  8
0
 10
220.6272594264609097
 20
117.6773450522912015
 30
0.0
 11
221.3516610012609931
 21
117.6773450522912015
 31
0.0
  0
LINE
  5
1F88B
  8
0
 10
220.5957594264608872
 20
117.6458450522911932
 30
0.0
 11
220.5957594264608872
 21
117.6379749734911968
 31
0.0
  0
LINE
  5
1F88C
  8
0
 10
220.5634833389325138
 20
117.6379749734911968
 30
0.0
 11
221.4154370887893037
 21
117.6379749734911968
 31
0.0
  0
LINE
  5
1F88D
  8
0
 10
220.5439026105889013
 20
117.6196860410911995
 30
0.0
 11
220.5634833389325138
 21
117.6379749734911968
 31
0.0
  0
ARC
  5
1F88E
  8
0
 10
223.4295313782479866
 20
117.4198139202050015
 30
0.0
 40
2.8925425233606372
 50
176.0377551363785926
 51
185.8266958180034862
  0
ARC
  5
1F88F
  8
0
 10
220.6272594264609097
 20
117.6458450522911932
 30
0.0
 40
0.0315
 50
89.9999999999918572
 51
180.0000000000194973
  0
LINE
  5
1F890
  8
0
 10
220.9539212965026138
 20
117.2049041073912008
 30
0.0
 11
221.0249991312192037
 21
117.2049041073912008
 31
0.0
  0
LINE
  5
1F891
  8
0
 10
220.9136597575609073
 20
117.2049041073912008
 30
0.0
 11
220.8448197414006131
 21
117.2049041073912008
 31
0.0
  0
LINE
  5
1F892
  8
0
 10
220.8070868400905056
 20
117.2049041073912008
 30
0.0
 11
220.7448101392861872
 21
117.2049041073912008
 31
0.0
  0
LINE
  5
1F893
  8
0
 10
220.7119710621703064
 20
117.2049041073912008
 30
0.0
 11
220.6601680478609069
 21
117.2049041073912008
 31
0.0
  0
LINE
  5
1F894
  8
0
 10
220.6342912825500946
 20
117.2049041073912008
 30
0.0
 11
220.5962161584764942
 21
117.2049041073912008
 31
0.0
  0
LINE
  5
1F895
  8
0
 10
220.5789279370615077
 20
117.2049041073912008
 30
0.0
 11
220.5569737044772012
 21
117.2049041073912008
 31
0.0
  0
LINE
  5
1F896
  8
0
 10
220.5493607885140932
 20
117.2049041073912008
 30
0.0
 11
220.5449835762856026
 21
117.2049041073912008
 31
0.0
  0
LINE
  5
1F897
  8
0
 10
220.8435170843044091
 20
117.6196860410911995
 30
0.0
 11
220.807605692635093
 21
117.6196860410911995
 31
0.0
  0
LINE
  5
1F898
  8
0
 10
220.7433928753609109
 20
117.6196860410911995
 30
0.0
 11
220.7121398848609886
 21
117.6196860410911995
 31
0.0
  0
LINE
  5
1F899
  8
0
 10
220.6587254387875987
 20
117.6196860410911995
 30
0.0
 11
220.6341014819896884
 21
117.6196860410911995
 31
0.0
  0
LINE
  5
1F89A
  8
0
 10
220.5948392309385042
 20
117.6196860410911995
 30
0.0
 11
220.5783879790226933
 21
117.6196860410911995
 31
0.0
  0
LINE
  5
1F89B
  8
0
 10
220.5557484557668033
 20
117.6196860410911995
 30
0.0
 11
220.5485087400213899
 21
117.6196860410911995
 31
0.0
  0
LINE
  5
1F89C
  8
0
 10
220.9144988716626017
 20
117.6196860410911995
 30
0.0
 11
220.9528147469629005
 21
117.6196860410911995
 31
0.0
  0
ARC
  5
1F89D
  8
0
 10
223.5609119507467142
 20
117.4192514440830024
 30
0.0
 40
2.6157876542377392
 50
175.6054056202501954
 51
184.7003004865117077
  0
ARC
  5
1F89E
  8
0
 10
217.4810389499428993
 20
117.4192401997333945
 30
0.0
 40
3.4393059720490951
 50
356.427035985963073
 51
3.341142774689045
  0
ARC
  5
1F89F
  8
0
 10
223.0592995138565868
 20
117.4192518773544975
 30
0.0
 40
2.2248293483107981
 50
174.8312336732568895
 51
185.5286494475562051
  0
ARC
  5
1F8A0
  8
0
 10
215.2792120626043868
 20
117.419210241623702
 30
0.0
 40
5.5320273566511471
 50
357.7798536615197236
 51
2.0768033282057781
  0
ARC
  5
1F8A1
  8
0
 10
222.7779490053999893
 20
117.4192445058688037
 30
0.0
 40
2.0444058929973159
 50
174.3734591297479994
 51
186.0180860112589869
  0
ARC
  5
1F8A2
  8
0
 10
203.8511210131561882
 20
117.4191577365005941
 30
0.0
 40
16.8622112723368609
 50
359.2719721729853859
 51
0.6813872848900669
  0
ARC
  5
1F8A3
  8
0
 10
222.6571932661439064
 20
117.4192432246445037
 30
0.0
 40
2.008494704907958
 50
174.2724883535904894
 51
186.1260587932044075
  0
ARC
  5
1F8A4
  8
0
 10
235.7542890753043991
 20
117.4192138955147016
 30
0.0
 40
15.1215165224319001
 50
179.2403841024614053
 51
180.812051982231111
  0
ARC
  5
1F8A5
  8
0
 10
222.6857561224302913
 20
117.4192338843701009
 30
0.0
 40
2.1005033954411649
 50
174.523899930665209
 51
185.8565016269542127
  0
ARC
  5
1F8A6
  8
0
 10
225.9174653546604077
 20
117.4192450682912039
 30
0.0
 40
5.3428385532994218
 50
177.8499972797351063
 51
182.2991765233950048
  0
ARC
  5
1F8A7
  8
0
 10
222.9089084345588958
 20
117.4192444020153943
 30
0.0
 40
2.361681336773469
 50
175.131310736345597
 51
185.2071870142343926
  0
ARC
  5
1F8A8
  8
0
 10
223.9160035163963869
 20
117.4192117348333966
 30
0.0
 40
3.3734568348183269
 50
176.5930783271845996
 51
183.6423253178228094
  0
LINE
  5
1F8A9
  8
0
 10
220.9744138023287974
 20
117.6379749734911968
 30
0.0
 11
220.9528147469629005
 21
117.6196860410911995
 31
0.0
  0
LINE
  5
1F8AA
  8
0
 10
220.8979578550006977
 20
117.6379749734911968
 30
0.0
 11
220.9144988716626017
 21
117.6196860410911995
 31
0.0
  0
LINE
  5
1F8AB
  8
0
 10
220.8690298820139901
 20
117.6379749734911968
 30
0.0
 11
220.8435170843044091
 21
117.6196860410911995
 31
0.0
  0
LINE
  5
1F8AC
  8
0
 10
220.7973801431471941
 20
117.6379749734911968
 30
0.0
 11
220.807605692635093
 21
117.6196860410911995
 31
0.0
  0
LINE
  5
1F8AD
  8
0
 10
220.7710961681426909
 20
117.6379749734911968
 30
0.0
 11
220.7433928753609109
 21
117.6196860410911995
 31
0.0
  0
LINE
  5
1F8AE
  8
0
 10
220.7088128150965076
 20
117.6379749734911968
 30
0.0
 11
220.7121398848609886
 21
117.6196860410911995
 31
0.0
  0
LINE
  5
1F8AF
  8
0
 10
220.7064781424608952
 20
117.6379749734911968
 30
0.0
 11
220.7064781424608952
 21
117.2049041073912008
 31
0.0
  0
LINE
  5
1F8B0
  8
0
 10
220.6869894693680862
 20
117.6379749734911968
 30
0.0
 11
220.6587254387875987
 21
117.6196860410911995
 31
0.0
  0
LINE
  5
1F8B1
  8
0
 10
220.637850672603804
 20
117.6379749734911968
 30
0.0
 11
220.6341014819896884
 21
117.6196860410911995
 31
0.0
  0
LINE
  5
1F8B2
  8
0
 10
220.6218403785904911
 20
117.6379749734911968
 30
0.0
 11
220.5948392309385042
 21
117.6196860410911995
 31
0.0
  0
LINE
  5
1F8B3
  8
0
 10
220.5889693282086057
 20
117.6379749734911968
 30
0.0
 11
220.5783879790226933
 21
117.6196860410911995
 31
0.0
  0
LINE
  5
1F8B4
  8
0
 10
220.5797239834132881
 20
117.6379749734911968
 30
0.0
 11
220.5557484557668033
 21
117.6196860410911995
 31
0.0
  0
LINE
  5
1F8B5
  8
0
 10
220.5652090086362875
 20
117.6379749734911968
 30
0.0
 11
220.5485087400213899
 21
117.6196860410911995
 31
0.0
  0
LINE
  5
1F8B6
  8
0
 10
220.5800113949609056
 20
116.5681654165777985
 30
0.0
 11
220.6022709235608943
 21
116.5552978081911988
 31
0.0
  0
LINE
  5
1F8B7
  8
0
 10
220.5800113949609056
 20
116.5726268936104049
 30
0.0
 11
220.6374364848859955
 21
116.6058249739890016
 31
0.0
  0
LINE
  5
1F8B8
  8
0
 10
220.5800113949609056
 20
116.6390229307338018
 30
0.0
 11
220.6374364848859955
 21
116.6058249739890016
 31
0.0
  0
LINE
  5
1F8B9
  8
0
 10
220.5800113949609056
 20
116.6434843931457976
 30
0.0
 11
220.637444236219693
 21
116.6766887492406966
 31
0.0
  0
LINE
  5
1F8BA
  8
0
 10
220.5800113949609056
 20
116.7098925997126031
 30
0.0
 11
220.637444236219693
 21
116.6766887492406966
 31
0.0
  0
LINE
  5
1F8BB
  8
0
 10
220.5800113949609056
 20
116.7143527376208993
 30
0.0
 11
220.6374395727841033
 21
116.7475536047262068
 31
0.0
  0
LINE
  5
1F8BC
  8
0
 10
220.5800113949609056
 20
116.7807537890767975
 30
0.0
 11
220.6374395727841033
 21
116.7475536047262068
 31
0.0
  0
LINE
  5
1F8BD
  8
0
 10
220.5800113949609056
 20
116.7852200291738001
 30
0.0
 11
220.6374452741426921
 21
116.8184250392031061
 31
0.0
  0
LINE
  5
1F8BE
  8
0
 10
220.5800113949609056
 20
116.8516297685723941
 30
0.0
 11
220.6374452741426921
 21
116.8184250392031061
 31
0.0
  0
LINE
  5
1F8BF
  8
0
 10
220.5800113949609056
 20
116.8560927282238993
 30
0.0
 11
220.6374366471862061
 21
116.8892908500156977
 31
0.0
  0
LINE
  5
1F8C0
  8
0
 10
220.5800113949609056
 20
116.9224890648492021
 30
0.0
 11
220.6374366471862061
 21
116.8892908500156977
 31
0.0
  0
LINE
  5
1F8C1
  8
0
 10
220.5800113949609056
 20
116.9269586885247065
 30
0.0
 11
220.6374399543443019
 21
116.9601595438213053
 31
0.0
  0
LINE
  5
1F8C2
  8
0
 10
220.5800113949609056
 20
116.9933603420725063
 30
0.0
 11
220.6374399543443019
 21
116.9601595438213053
 31
0.0
  0
LINE
  5
1F8C3
  8
0
 10
220.5800113949609056
 20
116.997818732523001
 30
0.0
 11
220.6374380725526976
 21
117.0310184360604069
 31
0.0
  0
LINE
  5
1F8C4
  8
0
 10
220.5800113949609056
 20
117.064217638383596
 30
0.0
 11
220.6374380725526976
 21
117.0310184360604069
 31
0.0
  0
LINE
  5
1F8C5
  8
0
 10
220.5800113949609056
 20
117.0686832112895956
 30
0.0
 11
220.6374457101744895
 21
117.1018885795663067
 31
0.0
  0
LINE
  5
1F8C6
  8
0
 10
220.6374457101744895
 20
117.1018885795663067
 30
0.0
 11
220.5954589664609955
 21
117.1261639498911933
 31
0.0
  0
LINE
  5
1F8C7
  8
0
 10
220.5800113949609056
 20
117.064217638383596
 30
0.0
 11
220.5800113949609056
 21
117.0686832112895956
 31
0.0
  0
LINE
  5
1F8C8
  8
0
 10
220.5800113949609056
 20
116.997818732523001
 30
0.0
 11
220.5800113949609056
 21
116.9933603420725063
 31
0.0
  0
LINE
  5
1F8C9
  8
0
 10
220.5800113949609056
 20
116.9269586885247065
 30
0.0
 11
220.5800113949609056
 21
116.9224890648492021
 31
0.0
  0
LINE
  5
1F8CA
  8
0
 10
220.5800113949609056
 20
116.8560927282238993
 30
0.0
 11
220.5800113949609056
 21
116.8516297685723941
 31
0.0
  0
LINE
  5
1F8CB
  8
0
 10
220.5800113949609056
 20
116.7852200291738001
 30
0.0
 11
220.5800113949609056
 21
116.7807537890767975
 31
0.0
  0
LINE
  5
1F8CC
  8
0
 10
220.5800113949609056
 20
116.7143527376208993
 30
0.0
 11
220.5800113949609056
 21
116.7098925997126031
 31
0.0
  0
LINE
  5
1F8CD
  8
0
 10
220.5800113949609056
 20
116.6434843931457976
 30
0.0
 11
220.5800113949609056
 21
116.6390229307338018
 31
0.0
  0
LINE
  5
1F8CE
  8
0
 10
220.5800113949609056
 20
116.5726268936104049
 30
0.0
 11
220.5800113949609056
 21
116.5681654165777985
 31
0.0
  0
LINE
  5
1F8CF
  8
0
 10
221.3831610012609019
 20
117.6458450522911932
 30
0.0
 11
221.3831610012609019
 21
117.6379749734911968
 31
0.0
  0
LINE
  5
1F8D0
  8
0
 10
221.4350178171330015
 20
117.6196860410911995
 30
0.0
 11
221.4154370887893037
 21
117.6379749734911968
 31
0.0
  0
ARC
  5
1F8D1
  8
0
 10
218.5493890494738025
 20
117.4198139202050015
 30
0.0
 40
2.8925425233606372
 50
354.1733041819965138
 51
3.962244863621371
  0
ARC
  5
1F8D2
  8
0
 10
221.3516610012609931
 20
117.6458450522911932
 30
0.0
 40
0.0315
 50
359.9999999999805027
 51
90.0000000000081286
  0
LINE
  5
1F8D3
  8
0
 10
221.0652606701609102
 20
117.2049041073912008
 30
0.0
 11
221.1341006863212897
 21
117.2049041073912008
 31
0.0
  0
LINE
  5
1F8D4
  8
0
 10
221.1718335876313972
 20
117.2049041073912008
 30
0.0
 11
221.2341102884356019
 21
117.2049041073912008
 31
0.0
  0
LINE
  5
1F8D5
  8
0
 10
221.2669493655515964
 20
117.2049041073912008
 30
0.0
 11
221.3187523798609107
 21
117.2049041073912008
 31
0.0
  0
LINE
  5
1F8D6
  8
0
 10
221.3446291451716945
 20
117.2049041073912008
 30
0.0
 11
221.3827042692454086
 21
117.2049041073912008
 31
0.0
  0
LINE
  5
1F8D7
  8
0
 10
221.3999924906603951
 20
117.2049041073912008
 30
0.0
 11
221.4219467232445879
 21
117.2049041073912008
 31
0.0
  0
LINE
  5
1F8D8
  8
0
 10
221.4295596392076959
 20
117.2049041073912008
 30
0.0
 11
221.4339368514361865
 21
117.2049041073912008
 31
0.0
  0
LINE
  5
1F8D9
  8
0
 10
221.1354033434174937
 20
117.6196860410911995
 30
0.0
 11
221.1713147350866961
 21
117.6196860410911995
 31
0.0
  0
LINE
  5
1F8DA
  8
0
 10
221.2355275523609066
 20
117.6196860410911995
 30
0.0
 11
221.2667805428608858
 21
117.6196860410911995
 31
0.0
  0
LINE
  5
1F8DB
  8
0
 10
221.3201949889341904
 20
117.6196860410911995
 30
0.0
 11
221.3448189457321007
 21
117.6196860410911995
 31
0.0
  0
LINE
  5
1F8DC
  8
0
 10
221.3840811967833986
 20
117.6196860410911995
 30
0.0
 11
221.4005324486992095
 21
117.6196860410911995
 31
0.0
  0
LINE
  5
1F8DD
  8
0
 10
221.4231719719549858
 20
117.6196860410911995
 30
0.0
 11
221.4304116877003992
 21
117.6196860410911995
 31
0.0
  0
LINE
  5
1F8DE
  8
0
 10
221.0644215560593011
 20
117.6196860410911995
 30
0.0
 11
221.0261056807588886
 21
117.6196860410911995
 31
0.0
  0
ARC
  5
1F8DF
  8
0
 10
218.4180084769751886
 20
117.4192514440830024
 30
0.0
 40
2.6157876542377392
 50
355.2996995134881786
 51
4.3945943797497549
  0
ARC
  5
1F8E0
  8
0
 10
224.4978814777788898
 20
117.4192401997333945
 30
0.0
 40
3.4393059720490951
 50
176.6588572253118059
 51
183.5729640140368133
  0
ARC
  5
1F8E1
  8
0
 10
218.9196209138652023
 20
117.4192518773544975
 30
0.0
 40
2.2248293483107981
 50
354.4713505524438233
 51
5.168766326743083
  0
ARC
  5
1F8E2
  8
0
 10
226.6997083651174876
 20
117.419210241623702
 30
0.0
 40
5.5320273566511471
 50
177.9231966717941873
 51
182.2201463384803048
  0
ARC
  5
1F8E3
  8
0
 10
219.2009714223217998
 20
117.4192445058688037
 30
0.0
 40
2.0444058929973159
 50
353.9819139887409847
 51
5.6265408702520201
  0
ARC
  5
1F8E4
  8
0
 10
238.127799414565601
 20
117.4191577365005941
 30
0.0
 40
16.8622112723368609
 50
179.3186127151091114
 51
180.7280278270146141
  0
ARC
  5
1F8E5
  8
0
 10
219.3217271615779111
 20
117.4192432246445037
 30
0.0
 40
2.008494704907958
 50
353.8739412067956209
 51
5.7275116464094378
  0
ARC
  5
1F8E6
  8
0
 10
206.22463135241739
 20
117.4192138955147016
 30
0.0
 40
15.1215165224319001
 50
359.1879480177689175
 51
0.7596158975385442
  0
ARC
  5
1F8E7
  8
0
 10
219.2931643052914978
 20
117.4192338843701009
 30
0.0
 40
2.1005033954411649
 50
354.143498373045702
 51
5.4761000693347706
  0
ARC
  5
1F8E8
  8
0
 10
216.0614550730614951
 20
117.4192450682912039
 30
0.0
 40
5.3428385532994218
 50
357.7008234766050236
 51
2.1500027202648329
  0
ARC
  5
1F8E9
  8
0
 10
219.070011993163007
 20
117.4192444020153943
 30
0.0
 40
2.361681336773469
 50
354.792812985765579
 51
4.868689263654395
  0
ARC
  5
1F8EA
  8
0
 10
218.0629169113254022
 20
117.4192117348333966
 30
0.0
 40
3.3734568348183269
 50
356.3576746821764232
 51
3.406921672814621
  0
LINE
  5
1F8EB
  8
0
 10
221.0045066253931054
 20
117.6379749734911968
 30
0.0
 11
221.0261056807588886
 21
117.6196860410911995
 31
0.0
  0
LINE
  5
1F8EC
  8
0
 10
221.0809625727212051
 20
117.6379749734911968
 30
0.0
 11
221.0644215560593011
 21
117.6196860410911995
 31
0.0
  0
LINE
  5
1F8ED
  8
0
 10
221.109890545707799
 20
117.6379749734911968
 30
0.0
 11
221.1354033434174937
 21
117.6196860410911995
 31
0.0
  0
LINE
  5
1F8EE
  8
0
 10
221.1815402845747087
 20
117.6379749734911968
 30
0.0
 11
221.1713147350866961
 21
117.6196860410911995
 31
0.0
  0
LINE
  5
1F8EF
  8
0
 10
221.2078242595790982
 20
117.6379749734911968
 30
0.0
 11
221.2355275523609066
 21
117.6196860410911995
 31
0.0
  0
LINE
  5
1F8F0
  8
0
 10
221.2701076126253952
 20
117.6379749734911968
 30
0.0
 11
221.2667805428608858
 21
117.6196860410911995
 31
0.0
  0
LINE
  5
1F8F1
  8
0
 10
221.2724422852608939
 20
117.6379749734911968
 30
0.0
 11
221.2724422852608939
 21
117.2049041073912008
 31
0.0
  0
LINE
  5
1F8F2
  8
0
 10
221.2919309583537029
 20
117.6379749734911968
 30
0.0
 11
221.3201949889341904
 21
117.6196860410911995
 31
0.0
  0
LINE
  5
1F8F3
  8
0
 10
221.3410697551180988
 20
117.6379749734911968
 30
0.0
 11
221.3448189457321007
 21
117.6196860410911995
 31
0.0
  0
LINE
  5
1F8F4
  8
0
 10
221.357080049131298
 20
117.6379749734911968
 30
0.0
 11
221.3840811967833986
 21
117.6196860410911995
 31
0.0
  0
LINE
  5
1F8F5
  8
0
 10
221.3899510995132971
 20
117.6379749734911968
 30
0.0
 11
221.4005324486992095
 21
117.6196860410911995
 31
0.0
  0
LINE
  5
1F8F6
  8
0
 10
221.3991964443085863
 20
117.6379749734911968
 30
0.0
 11
221.4231719719549858
 21
117.6196860410911995
 31
0.0
  0
LINE
  5
1F8F7
  8
0
 10
221.4137114190855016
 20
117.6379749734911968
 30
0.0
 11
221.4304116877003992
 21
117.6196860410911995
 31
0.0
  0
LINE
  5
1F8F8
  8
0
 10
221.3989090327609119
 20
116.6035218443509933
 30
0.0
 11
221.3415348049535964
 21
116.5703554144514982
 31
0.0
  0
LINE
  5
1F8F9
  8
0
 10
221.3989090327609119
 20
116.6079833213835997
 30
0.0
 11
221.3414839428359073
 21
116.6411814017622959
 31
0.0
  0
LINE
  5
1F8FA
  8
0
 10
221.3989090327609119
 20
116.6743793585069966
 30
0.0
 11
221.3414839428359073
 21
116.6411814017622959
 31
0.0
  0
LINE
  5
1F8FB
  8
0
 10
221.3989090327609119
 20
116.6788408209190067
 30
0.0
 11
221.3414761915020961
 21
116.712045177014005
 31
0.0
  0
LINE
  5
1F8FC
  8
0
 10
221.3989090327609119
 20
116.7452490274857979
 30
0.0
 11
221.3414761915020961
 21
116.712045177014005
 31
0.0
  0
LINE
  5
1F8FD
  8
0
 10
221.3989090327609119
 20
116.7497091653940942
 30
0.0
 11
221.3414808549377142
 21
116.7829100324995011
 31
0.0
  0
LINE
  5
1F8FE
  8
0
 10
221.3989090327609119
 20
116.8161102168500065
 30
0.0
 11
221.3414808549377142
 21
116.7829100324995011
 31
0.0
  0
LINE
  5
1F8FF
  8
0
 10
221.3989090327609119
 20
116.8205764569470944
 30
0.0
 11
221.3414751535792107
 21
116.8537814669763009
 31
0.0
  0
LINE
  5
1F900
  8
0
 10
221.3989090327609119
 20
116.8869861963456032
 30
0.0
 11
221.3414751535792107
 21
116.8537814669763009
 31
0.0
  0
LINE
  5
1F901
  8
0
 10
221.3989090327609119
 20
116.8914491559970941
 30
0.0
 11
221.3414837805356115
 21
116.9246472777889068
 31
0.0
  0
LINE
  5
1F902
  8
0
 10
221.3989090327609119
 20
116.9578454926224964
 30
0.0
 11
221.3414837805356115
 21
116.9246472777889068
 31
0.0
  0
LINE
  5
1F903
  8
0
 10
221.3989090327609119
 20
116.9623151162979013
 30
0.0
 11
221.3414804733776009
 21
116.9955159715945001
 31
0.0
  0
LINE
  5
1F904
  8
0
 10
221.3989090327609119
 20
117.0287167698457012
 30
0.0
 11
221.3414804733776009
 21
116.9955159715945001
 31
0.0
  0
LINE
  5
1F905
  8
0
 10
221.3989090327609119
 20
117.0331751602961958
 30
0.0
 11
221.3414823551690915
 21
117.0663748638336017
 31
0.0
  0
LINE
  5
1F906
  8
0
 10
221.3989090327609119
 20
117.099574066156805
 30
0.0
 11
221.3414823551690915
 21
117.0663748638336017
 31
0.0
  0
LINE
  5
1F907
  8
0
 10
221.3989090327609119
 20
117.1040396390629041
 30
0.0
 11
221.3606412854670964
 21
117.1261639498914064
 31
0.0
  0
LINE
  5
1F908
  8
0
 10
221.3989090327609119
 20
117.099574066156805
 30
0.0
 11
221.3989090327609119
 21
117.1040396390629041
 31
0.0
  0
LINE
  5
1F909
  8
0
 10
221.3989090327609119
 20
117.0331751602961958
 30
0.0
 11
221.3989090327609119
 21
117.0287167698457012
 31
0.0
  0
LINE
  5
1F90A
  8
0
 10
221.3989090327609119
 20
116.9623151162979013
 30
0.0
 11
221.3989090327609119
 21
116.9578454926224964
 31
0.0
  0
LINE
  5
1F90B
  8
0
 10
221.3989090327609119
 20
116.8914491559970941
 30
0.0
 11
221.3989090327609119
 21
116.8869861963456032
 31
0.0
  0
LINE
  5
1F90C
  8
0
 10
221.3989090327609119
 20
116.8205764569470944
 30
0.0
 11
221.3989090327609119
 21
116.8161102168500065
 31
0.0
  0
LINE
  5
1F90D
  8
0
 10
221.3989090327609119
 20
116.7497091653940942
 30
0.0
 11
221.3989090327609119
 21
116.7452490274857979
 31
0.0
  0
LINE
  5
1F90E
  8
0
 10
221.3989090327609119
 20
116.6788408209190067
 30
0.0
 11
221.3989090327609119
 21
116.6743793585069966
 31
0.0
  0
LINE
  5
1F90F
  8
0
 10
221.3989090327609119
 20
116.6079833213835997
 30
0.0
 11
221.3989090327609119
 21
116.6035218443509933
 31
0.0
  0
LINE
  5
1F910
  8
0
 10
221.3675772873608878
 20
116.5552978081911988
 30
0.0
 11
221.3415348049535964
 21
116.5703554144514982
 31
0.0
  0
LINE
  5
1F911
  8
0
 10
220.5800113949609056
 20
117.0664504248366029
 30
0.0
 11
221.3989090327609119
 21
117.1018068526097977
 31
0.0
  0
LINE
  5
1F912
  8
0
 10
221.3414823551690915
 20
117.0663748638336017
 30
0.0
 11
220.6374380725526976
 21
117.0310184360604069
 31
0.0
  0
LINE
  5
1F913
  8
0
 10
220.6374399543443019
 20
116.9601595438213053
 30
0.0
 11
221.3414804733776009
 21
116.9955159715945001
 31
0.0
  0
LINE
  5
1F914
  8
0
 10
220.6374366471862061
 20
116.8892908500156977
 30
0.0
 11
221.3436685384363045
 21
116.9233842470479061
 31
0.0
  0
LINE
  5
1F915
  8
0
 10
221.3414751535792107
 20
116.8537814669763009
 30
0.0
 11
220.6374452741426921
 21
116.8184250392031061
 31
0.0
  0
LINE
  5
1F916
  8
0
 10
220.6374395727841033
 20
116.7475536047262068
 30
0.0
 11
221.3414808549377142
 21
116.7829100324995011
 31
0.0
  0
LINE
  5
1F917
  8
0
 10
220.637444236219693
 20
116.6766887492406966
 30
0.0
 11
221.3414761915020961
 21
116.712045177014005
 31
0.0
  0
LINE
  5
1F918
  8
0
 10
220.6374364848859955
 20
116.6058249739890016
 30
0.0
 11
221.3414839428359073
 21
116.6411814017622959
 31
0.0
  0
LINE
  5
1F919
  8
0
 10
221.3415348049535964
 20
116.5703554144514982
 30
0.0
 11
220.9299914952325139
 21
116.5552978081911988
 31
0.0
  0
LINE
  5
1F91A
  8
0
 10
221.3989090327609119
 20
116.6057525828672965
 30
0.0
 11
220.5800113949609056
 21
116.5703961550941017
 31
0.0
  0
LINE
  5
1F91B
  8
0
 10
220.5800113949609056
 20
116.6412536619397997
 30
0.0
 11
221.3989090327609119
 21
116.6766100897129945
 31
0.0
  0
LINE
  5
1F91C
  8
0
 10
221.3989090327609119
 20
116.7474790964400029
 30
0.0
 11
220.5800113949609056
 21
116.7121226686666944
 31
0.0
  0
LINE
  5
1F91D
  8
0
 10
220.5800113949609056
 20
116.7829869091252988
 30
0.0
 11
221.3989090327609119
 21
116.8183433368984936
 31
0.0
  0
LINE
  5
1F91E
  8
0
 10
221.3989090327609119
 20
116.8892176761712989
 30
0.0
 11
220.5800113949609056
 21
116.8538612483981041
 31
0.0
  0
LINE
  5
1F91F
  8
0
 10
220.5800113949609056
 20
116.9247238766868975
 30
0.0
 11
221.3989090327609119
 21
116.9602622629502946
 31
0.0
  0
LINE
  5
1F920
  8
0
 10
221.3989090327609119
 20
117.0309459650709982
 30
0.0
 11
220.5800113949609056
 21
116.9955895372978034
 31
0.0
  0
LINE
  5
1F921
  8
0
 10
220.6374457101744895
 20
117.1018885795663067
 30
0.0
 11
221.0712479684898142
 21
117.126163949891307
 31
0.0
  0
LINE
  5
1F922
  8
0
 10
224.3861977486722026
 20
113.4616233767360995
 30
0.0
 11
224.9658381666608875
 21
113.4616233767360995
 31
0.0
  0
LINE
  5
1F923
  8
0
 10
224.1106977486722087
 20
113.1861233767361057
 30
0.0
 11
224.1106977486722087
 21
112.5780236427443981
 31
0.0
  0
LINE
  5
1F924
  8
0
 10
224.3861977486722026
 20
112.3025236427444042
 30
0.0
 11
224.9658381666608875
 21
112.3025236427444042
 31
0.0
  0
LINE
  5
1F925
  8
0
 10
224.9658381666608875
 20
112.3025236427444042
 30
0.0
 11
224.9658381666608875
 21
113.4616233767360995
 31
0.0
  0
ARC
  5
1F926
  8
0
 10
224.3861977486722026
 20
113.1861233767361057
 30
0.0
 40
0.2755
 50
90.0
 51
180.0
  0
ARC
  5
1F927
  8
0
 10
224.3861977486722026
 20
112.5780236427443981
 30
0.0
 40
0.2755
 50
180.0
 51
270.0
  0
LINE
  5
1F928
  8
0
 10
222.5150409057044953
 20
107.4641471337120038
 30
0.0
 11
222.6970683556382937
 21
96.8706096281698876
 31
0.0
  0
LINE
  5
1F929
  8
0
 10
222.4559499069208073
 20
107.5222156964912017
 30
0.0
 11
221.3339941427585984
 21
107.5222156964912017
 31
0.0
  0
ARC
  5
1F92A
  8
0
 10
222.4559499069208073
 20
107.4631156964912009
 30
0.0
 40
0.0591
 50
1.000000000291694
 51
90.0
  0
ARC
  5
1F92B
  8
0
 10
221.3339941427585984
 20
107.4631156964912009
 30
0.0
 40
0.0591
 50
89.9999999999967457
 51
179.0000000001130047
  0
LINE
  5
1F92C
  8
0
 10
221.5012712374609123
 20
108.2902881558912043
 30
0.0
 11
222.2886728122608986
 21
108.2902881558912043
 31
0.0
  0
LINE
  5
1F92D
  8
0
 10
222.2099728122609008
 20
108.3741994936911937
 30
0.0
 11
221.5799712374609101
 21
108.3741994936911937
 31
0.0
  0
LINE
  5
1F92E
  8
0
 10
222.2886728122608986
 20
108.2902881558912043
 30
0.0
 11
222.2886728122608986
 21
108.2954994936911959
 31
0.0
  0
LINE
  5
1F92F
  8
0
 10
221.5012712374609123
 20
108.2902881558912043
 30
0.0
 11
221.5012712374609123
 21
108.2954994936911959
 31
0.0
  0
ARC
  5
1F930
  8
0
 10
222.2099728122609008
 20
108.2954994936911959
 30
0.0
 40
0.0787
 50
0.0000000000024427
 51
90.0000000000016058
  0
ARC
  5
1F931
  8
0
 10
221.5799712374609953
 20
108.2954994936911959
 30
0.0
 40
0.0787
 50
90.0000000000016058
 51
179.9999999999984084
  0
LINE
  5
1F932
  8
0
 10
217.7889192133602876
 20
109.4568766589912059
 30
0.0
 11
217.7870295677836054
 21
109.2403412259912017
 31
0.0
  0
LINE
  5
1F933
  8
0
 10
218.2220006353608994
 20
109.4568766589911064
 30
0.0
 11
218.220116500760895
 21
109.2403412259912017
 31
0.0
  0
LINE
  5
1F934
  8
0
 10
219.3359169067609002
 20
109.2403412259912017
 30
0.0
 11
219.3359169067609002
 21
109.4568766589910069
 31
0.0
  0
LINE
  5
1F935
  8
0
 10
221.0682003713608879
 20
109.2403412259912017
 30
0.0
 11
221.0682003713608879
 21
109.4568766589907938
 31
0.0
  0
LINE
  5
1F936
  8
0
 10
222.6430035209608889
 20
109.2403412259912017
 30
0.0
 11
222.6430035209608889
 21
109.4568766589905948
 31
0.0
  0
LINE
  5
1F937
  8
0
 10
224.3752869855609049
 20
109.2403412259912017
 30
0.0
 11
224.3752869855609049
 21
109.4568766589903959
 31
0.0
  0
CIRCLE
  5
1F938
  8
0
 10
225.1626885601608024
 20
85.7193447150912533
 30
0.0
 40
1.1712598425
  0
CIRCLE
  5
1F939
  8
0
 10
225.1626885601608024
 20
85.7193447150912533
 30
0.0
 40
1.1028681104
  0
CIRCLE
  5
1F93A
  8
0
 10
225.1626885601608024
 20
85.7193447150912533
 30
0.0
 40
0.8700787402000003
  0
LINE
  5
1F93B
  8
0
 10
226.1863106074611096
 20
86.4388591592851867
 30
0.0
 11
226.1863106074611096
 21
87.1002020401912631
 31
0.0
  0
LINE
  5
1F93C
  8
0
 10
226.449880253261199
 20
88.611970657291252
 30
0.0
 11
226.1899168790718875
 21
87.1413207120528028
 31
0.0
  0
LINE
  5
1F93D
  8
0
 10
226.4619011585608916
 20
88.7490328968912507
 30
0.0
 11
226.4619011585608916
 21
90.2350927465912633
 31
0.0
  0
LINE
  5
1F93E
  8
0
 10
226.4619011585608916
 20
90.2350927465912633
 30
0.0
 11
226.4225310798611019
 21
90.274462825391268
 31
0.0
  0
LINE
  5
1F93F
  8
0
 10
226.4225310798611019
 20
90.274462825391268
 30
0.0
 11
226.4225310798611019
 21
90.2941478646912543
 31
0.0
  0
LINE
  5
1F940
  8
0
 10
226.4225310798611019
 20
90.2941478646912543
 30
0.0
 11
226.4619011586609929
 21
90.333517943491259
 31
0.0
  0
LINE
  5
1F941
  8
0
 10
226.4619011586609929
 20
90.333517943491259
 30
0.0
 11
223.8634759617611962
 21
90.333517943491259
 31
0.0
  0
LINE
  5
1F942
  8
0
 10
223.8634759617611962
 20
90.333517943491259
 30
0.0
 11
223.9028460405610872
 21
90.2941478646912543
 31
0.0
  0
LINE
  5
1F943
  8
0
 10
223.9028460405610872
 20
90.2941478646912543
 30
0.0
 11
223.9028460405610872
 21
90.274462825391268
 31
0.0
  0
LINE
  5
1F944
  8
0
 10
223.9028460405610872
 20
90.274462825391268
 30
0.0
 11
223.8634759617611962
 21
90.2350927465912633
 31
0.0
  0
LINE
  5
1F945
  8
0
 10
223.8634759617611962
 20
90.2350927465912633
 30
0.0
 11
226.4619011585608916
 21
90.2350927466912509
 31
0.0
  0
LINE
  5
1F946
  8
0
 10
226.4225310798611019
 20
90.2941478646912543
 30
0.0
 11
223.9028460405610872
 21
90.2941478646912543
 31
0.0
  0
LINE
  5
1F947
  8
0
 10
223.9028460405610872
 20
90.274462825391268
 30
0.0
 11
226.4225310798611019
 21
90.274462825391268
 31
0.0
  0
LINE
  5
1F948
  8
0
 10
226.4619011586109991
 20
90.6287935339412485
 30
0.0
 11
226.4225310799110957
 21
90.6681636127412531
 31
0.0
  0
LINE
  5
1F949
  8
0
 10
226.4225310799110957
 20
90.6681636127412531
 30
0.0
 11
226.4225310799110957
 21
90.6878486520412679
 31
0.0
  0
LINE
  5
1F94A
  8
0
 10
226.4225310799110957
 20
90.6878486520412679
 30
0.0
 11
226.4619011587109867
 21
90.7272187308412441
 31
0.0
  0
LINE
  5
1F94B
  8
0
 10
226.4619011587109867
 20
90.7272187308412441
 30
0.0
 11
223.86347596181119
 21
90.7272187308412441
 31
0.0
  0
LINE
  5
1F94C
  8
0
 10
223.86347596181119
 20
90.7272187308412441
 30
0.0
 11
223.9028460406111094
 21
90.6878486520412679
 31
0.0
  0
LINE
  5
1F94D
  8
0
 10
223.9028460406111094
 20
90.6878486520412679
 30
0.0
 11
223.9028460406111094
 21
90.6681636127412531
 31
0.0
  0
LINE
  5
1F94E
  8
0
 10
223.9028460406111094
 20
90.6681636127412531
 30
0.0
 11
223.86347596181119
 21
90.6287935339412485
 31
0.0
  0
LINE
  5
1F94F
  8
0
 10
223.86347596181119
 20
90.6287935339412485
 30
0.0
 11
226.4619011586109991
 21
90.6287935340412645
 31
0.0
  0
LINE
  5
1F950
  8
0
 10
226.4225310799110957
 20
90.6878486520412679
 30
0.0
 11
223.9028460406111094
 21
90.6878486520412679
 31
0.0
  0
LINE
  5
1F951
  8
0
 10
223.9028460406111094
 20
90.6681636127412531
 30
0.0
 11
226.4225310799110957
 21
90.6681636127412531
 31
0.0
  0
LINE
  5
1F952
  8
0
 10
226.4619011586109991
 20
91.1209195183412675
 30
0.0
 11
226.4225310799110957
 21
91.0815494395412628
 31
0.0
  0
LINE
  5
1F953
  8
0
 10
226.4225310799110957
 20
91.0815494395412628
 30
0.0
 11
226.4225310799110957
 21
91.0618644002412339
 31
0.0
  0
LINE
  5
1F954
  8
0
 10
226.4225310799110957
 20
91.0618644002412339
 30
0.0
 11
226.4619011587109867
 21
91.0224943214412434
 31
0.0
  0
LINE
  5
1F955
  8
0
 10
226.4619011587109867
 20
91.0224943214412434
 30
0.0
 11
223.86347596181119
 21
91.0224943214412434
 31
0.0
  0
LINE
  5
1F956
  8
0
 10
223.86347596181119
 20
91.0224943214412434
 30
0.0
 11
223.9028460406111094
 21
91.0618644002412339
 31
0.0
  0
LINE
  5
1F957
  8
0
 10
223.9028460406111094
 20
91.0618644002412339
 30
0.0
 11
223.9028460406111094
 21
91.0815494395412628
 31
0.0
  0
LINE
  5
1F958
  8
0
 10
223.9028460406111094
 20
91.0815494395412628
 30
0.0
 11
223.86347596181119
 21
91.1209195183412675
 31
0.0
  0
LINE
  5
1F959
  8
0
 10
223.86347596181119
 20
91.1209195183412675
 30
0.0
 11
226.4619011586109991
 21
91.1209195182412373
 31
0.0
  0
LINE
  5
1F95A
  8
0
 10
226.4225310799110957
 20
91.0618644002412339
 30
0.0
 11
223.9028460406111094
 21
91.0618644002412339
 31
0.0
  0
LINE
  5
1F95B
  8
0
 10
223.9028460406111094
 20
91.0815494395412628
 30
0.0
 11
226.4225310799110957
 21
91.0815494395412628
 31
0.0
  0
LINE
  5
1F95C
  8
0
 10
226.4619011586609929
 20
90.333517943491259
 30
0.0
 11
226.4619011586609929
 21
90.6287935338912547
 31
0.0
  0
LINE
  5
1F95D
  8
0
 10
223.8634759617611962
 20
90.333517943491259
 30
0.0
 11
223.8634759617611962
 21
90.6287935338912547
 31
0.0
  0
LINE
  5
1F95E
  8
0
 10
223.8634759617611962
 20
90.7272187308912663
 30
0.0
 11
223.8634759617611962
 21
91.0224943213912354
 31
0.0
  0
LINE
  5
1F95F
  8
0
 10
226.4619011586109991
 20
90.7272187308412441
 30
0.0
 11
226.4619011586109991
 21
91.0224943213912354
 31
0.0
  0
LINE
  5
1F960
  8
0
 10
226.4619011586109991
 20
91.4161951087412632
 30
0.0
 11
226.4225310799110957
 21
91.4555651875412536
 31
0.0
  0
LINE
  5
1F961
  8
0
 10
226.4225310799110957
 20
91.4555651875412536
 30
0.0
 11
226.4225310799110957
 21
91.4752502268412542
 31
0.0
  0
LINE
  5
1F962
  8
0
 10
226.4225310799110957
 20
91.4752502268412542
 30
0.0
 11
226.4619011587109867
 21
91.5146203056412446
 31
0.0
  0
LINE
  5
1F963
  8
0
 10
226.4619011587109867
 20
91.5146203056412446
 30
0.0
 11
223.86347596181119
 21
91.5146203056412446
 31
0.0
  0
LINE
  5
1F964
  8
0
 10
223.86347596181119
 20
91.5146203056412446
 30
0.0
 11
223.9028460406111094
 21
91.4752502268412542
 31
0.0
  0
LINE
  5
1F965
  8
0
 10
223.9028460406111094
 20
91.4752502268412542
 30
0.0
 11
223.9028460406111094
 21
91.4555651875412536
 31
0.0
  0
LINE
  5
1F966
  8
0
 10
223.9028460406111094
 20
91.4555651875412536
 30
0.0
 11
223.86347596181119
 21
91.4161951087412632
 31
0.0
  0
LINE
  5
1F967
  8
0
 10
223.86347596181119
 20
91.4161951087412632
 30
0.0
 11
226.4619011586109991
 21
91.4161951088412366
 31
0.0
  0
LINE
  5
1F968
  8
0
 10
226.4225310799110957
 20
91.4752502268412542
 30
0.0
 11
223.9028460406111094
 21
91.4752502268412542
 31
0.0
  0
LINE
  5
1F969
  8
0
 10
223.9028460406111094
 20
91.4555651875412536
 30
0.0
 11
226.4225310799110957
 21
91.4555651875412536
 31
0.0
  0
LINE
  5
1F96A
  8
0
 10
223.8634759617611962
 20
91.8098958961912643
 30
0.0
 11
223.8634759617611962
 21
91.5146203056912668
 31
0.0
  0
LINE
  5
1F96B
  8
0
 10
226.4619011586109991
 20
91.8098958962412439
 30
0.0
 11
226.4619011586109991
 21
91.5146203056912668
 31
0.0
  0
LINE
  5
1F96C
  8
0
 10
226.4619011586109991
 20
92.6957226679412543
 30
0.0
 11
226.4225310799110957
 21
92.6563525891412638
 31
0.0
  0
LINE
  5
1F96D
  8
0
 10
226.4225310799110957
 20
92.6563525891412638
 30
0.0
 11
226.4225310799110957
 21
92.6366675498412633
 31
0.0
  0
LINE
  5
1F96E
  8
0
 10
226.4225310799110957
 20
92.6366675498412633
 30
0.0
 11
226.4619011587109867
 21
92.5972974710412728
 31
0.0
  0
LINE
  5
1F96F
  8
0
 10
226.4619011587109867
 20
92.5972974710412728
 30
0.0
 11
223.86347596181119
 21
92.5972974710412728
 31
0.0
  0
LINE
  5
1F970
  8
0
 10
223.86347596181119
 20
92.5972974710412728
 30
0.0
 11
223.9028460406111094
 21
92.6366675498412633
 31
0.0
  0
LINE
  5
1F971
  8
0
 10
223.9028460406111094
 20
92.6366675498412633
 30
0.0
 11
223.9028460406111094
 21
92.6563525891412638
 31
0.0
  0
LINE
  5
1F972
  8
0
 10
223.9028460406111094
 20
92.6563525891412638
 30
0.0
 11
223.86347596181119
 21
92.6957226679412543
 31
0.0
  0
LINE
  5
1F973
  8
0
 10
223.86347596181119
 20
92.6957226679412543
 30
0.0
 11
226.4619011586109991
 21
92.6957226678412525
 31
0.0
  0
LINE
  5
1F974
  8
0
 10
226.4225310799110957
 20
92.6366675498412633
 30
0.0
 11
223.9028460406111094
 21
92.6366675498412633
 31
0.0
  0
LINE
  5
1F975
  8
0
 10
223.9028460406111094
 20
92.6563525891412638
 30
0.0
 11
226.4225310799110957
 21
92.6563525891412638
 31
0.0
  0
LINE
  5
1F976
  8
0
 10
223.8634759617611962
 20
92.3020218804912531
 30
0.0
 11
223.8634759617611962
 21
92.5972974709912506
 31
0.0
  0
LINE
  5
1F977
  8
0
 10
226.4619011586109991
 20
92.3020218804412735
 30
0.0
 11
226.4619011586109991
 21
92.5972974709912506
 31
0.0
  0
LINE
  5
1F978
  8
0
 10
226.4619011586109991
 20
91.908321093191276
 30
0.0
 11
226.4225310799110957
 21
91.8689510143912713
 31
0.0
  0
LINE
  5
1F979
  8
0
 10
226.4225310799110957
 20
91.8689510143912713
 30
0.0
 11
226.4225310799110957
 21
91.8492659750912566
 31
0.0
  0
LINE
  5
1F97A
  8
0
 10
226.4225310799110957
 20
91.8492659750912566
 30
0.0
 11
226.4619011587109867
 21
91.8098958962912661
 31
0.0
  0
LINE
  5
1F97B
  8
0
 10
226.4619011587109867
 20
91.8098958962912661
 30
0.0
 11
223.86347596181119
 21
91.8098958962912661
 31
0.0
  0
LINE
  5
1F97C
  8
0
 10
223.86347596181119
 20
91.8098958962912661
 30
0.0
 11
223.9028460406111094
 21
91.8492659750912566
 31
0.0
  0
LINE
  5
1F97D
  8
0
 10
223.9028460406111094
 20
91.8492659750912566
 30
0.0
 11
223.9028460406111094
 21
91.8689510143912713
 31
0.0
  0
LINE
  5
1F97E
  8
0
 10
223.9028460406111094
 20
91.8689510143912713
 30
0.0
 11
223.86347596181119
 21
91.908321093191276
 31
0.0
  0
LINE
  5
1F97F
  8
0
 10
223.86347596181119
 20
91.908321093191276
 30
0.0
 11
226.4619011586109991
 21
91.9083210930912458
 31
0.0
  0
LINE
  5
1F980
  8
0
 10
226.4225310799110957
 20
91.8492659750912566
 30
0.0
 11
223.9028460406111094
 21
91.8492659750912566
 31
0.0
  0
LINE
  5
1F981
  8
0
 10
223.9028460406111094
 20
91.8689510143912713
 30
0.0
 11
226.4225310799110957
 21
91.8689510143912713
 31
0.0
  0
LINE
  5
1F982
  8
0
 10
226.4619011586109991
 20
92.2035966834912557
 30
0.0
 11
226.4225310799110957
 21
92.2429667622912604
 31
0.0
  0
LINE
  5
1F983
  8
0
 10
226.4225310799110957
 20
92.2429667622912604
 30
0.0
 11
226.4225310799110957
 21
92.2626518015912467
 31
0.0
  0
LINE
  5
1F984
  8
0
 10
226.4225310799110957
 20
92.2626518015912467
 30
0.0
 11
226.4619011587109867
 21
92.3020218803912513
 31
0.0
  0
LINE
  5
1F985
  8
0
 10
226.4619011587109867
 20
92.3020218803912513
 30
0.0
 11
223.86347596181119
 21
92.3020218803912513
 31
0.0
  0
LINE
  5
1F986
  8
0
 10
223.86347596181119
 20
92.3020218803912513
 30
0.0
 11
223.9028460406111094
 21
92.2626518015912467
 31
0.0
  0
LINE
  5
1F987
  8
0
 10
223.9028460406111094
 20
92.2626518015912467
 30
0.0
 11
223.9028460406111094
 21
92.2429667622912604
 31
0.0
  0
LINE
  5
1F988
  8
0
 10
223.9028460406111094
 20
92.2429667622912604
 30
0.0
 11
223.86347596181119
 21
92.2035966834912557
 31
0.0
  0
LINE
  5
1F989
  8
0
 10
223.86347596181119
 20
92.2035966834912557
 30
0.0
 11
226.4619011586109991
 21
92.2035966835912859
 31
0.0
  0
LINE
  5
1F98A
  8
0
 10
226.4225310799110957
 20
92.2626518015912467
 30
0.0
 11
223.9028460406111094
 21
92.2626518015912467
 31
0.0
  0
LINE
  5
1F98B
  8
0
 10
223.9028460406111094
 20
92.2429667622912604
 30
0.0
 11
226.4225310799110957
 21
92.2429667622912604
 31
0.0
  0
LINE
  5
1F98C
  8
0
 10
226.4619011586609929
 20
92.2035966835912859
 30
0.0
 11
226.4619011586609929
 21
91.9083210932412555
 31
0.0
  0
LINE
  5
1F98D
  8
0
 10
226.4619011586609929
 20
91.1209195183912612
 30
0.0
 11
226.4619011586609929
 21
91.4161951086912552
 31
0.0
  0
LINE
  5
1F98E
  8
0
 10
223.8634759617112024
 20
91.1209195183412675
 30
0.0
 11
223.8634759618612122
 21
91.416195108791257
 31
0.0
  0
LINE
  5
1F98F
  8
0
 10
223.8634759617611962
 20
92.2035966834412619
 30
0.0
 11
223.863475961661095
 21
91.908321093191276
 31
0.0
  0
LINE
  5
1F990
  8
0
 10
226.4619011586109991
 20
92.9909982583412642
 30
0.0
 11
226.4225310799110957
 21
93.0303683371412689
 31
0.0
  0
LINE
  5
1F991
  8
0
 10
226.4225310799110957
 20
93.0303683371412689
 30
0.0
 11
226.4225310799110957
 21
93.0500533764412552
 31
0.0
  0
LINE
  5
1F992
  8
0
 10
226.4225310799110957
 20
93.0500533764412552
 30
0.0
 11
226.4619011587109867
 21
93.0894234552412598
 31
0.0
  0
LINE
  5
1F993
  8
0
 10
226.4619011587109867
 20
93.0894234552412598
 30
0.0
 11
223.86347596181119
 21
93.0894234552412598
 31
0.0
  0
LINE
  5
1F994
  8
0
 10
223.86347596181119
 20
93.0894234552412598
 30
0.0
 11
223.9028460406111094
 21
93.0500533764412552
 31
0.0
  0
LINE
  5
1F995
  8
0
 10
223.9028460406111094
 20
93.0500533764412552
 30
0.0
 11
223.9028460406111094
 21
93.0303683371412689
 31
0.0
  0
LINE
  5
1F996
  8
0
 10
223.9028460406111094
 20
93.0303683371412689
 30
0.0
 11
223.86347596181119
 21
92.9909982583412642
 31
0.0
  0
LINE
  5
1F997
  8
0
 10
223.86347596181119
 20
92.9909982583412642
 30
0.0
 11
226.4619011586109991
 21
92.9909982584412518
 31
0.0
  0
LINE
  5
1F998
  8
0
 10
226.4225310799110957
 20
93.0500533764412552
 30
0.0
 11
223.9028460406111094
 21
93.0500533764412552
 31
0.0
  0
LINE
  5
1F999
  8
0
 10
223.9028460406111094
 20
93.0303683371412689
 30
0.0
 11
226.4225310799110957
 21
93.0303683371412689
 31
0.0
  0
LINE
  5
1F99A
  8
0
 10
226.4619011586109991
 20
93.4831242427412548
 30
0.0
 11
226.4225310799110957
 21
93.4437541639412501
 31
0.0
  0
LINE
  5
1F99B
  8
0
 10
226.4225310799110957
 20
93.4437541639412501
 30
0.0
 11
226.4225310799110957
 21
93.4240691246412638
 31
0.0
  0
LINE
  5
1F99C
  8
0
 10
226.4225310799110957
 20
93.4240691246412638
 30
0.0
 11
226.4619011587109867
 21
93.3846990458412591
 31
0.0
  0
LINE
  5
1F99D
  8
0
 10
226.4619011587109867
 20
93.3846990458412591
 30
0.0
 11
223.86347596181119
 21
93.3846990458412591
 31
0.0
  0
LINE
  5
1F99E
  8
0
 10
223.86347596181119
 20
93.3846990458412591
 30
0.0
 11
223.9028460406111094
 21
93.4240691246412638
 31
0.0
  0
LINE
  5
1F99F
  8
0
 10
223.9028460406111094
 20
93.4240691246412638
 30
0.0
 11
223.9028460406111094
 21
93.4437541639412501
 31
0.0
  0
LINE
  5
1F9A0
  8
0
 10
223.9028460406111094
 20
93.4437541639412501
 30
0.0
 11
223.86347596181119
 21
93.4831242427412548
 31
0.0
  0
LINE
  5
1F9A1
  8
0
 10
223.86347596181119
 20
93.4831242427412548
 30
0.0
 11
226.4619011586109991
 21
93.4831242426412672
 31
0.0
  0
LINE
  5
1F9A2
  8
0
 10
226.4225310799110957
 20
93.4240691246412638
 30
0.0
 11
223.9028460406111094
 21
93.4240691246412638
 31
0.0
  0
LINE
  5
1F9A3
  8
0
 10
223.9028460406111094
 20
93.4437541639412501
 30
0.0
 11
226.4225310799110957
 21
93.4437541639412501
 31
0.0
  0
LINE
  5
1F9A4
  8
0
 10
226.4619011586609929
 20
92.6957226678912463
 30
0.0
 11
226.4619011586609929
 21
92.9909982582912704
 31
0.0
  0
LINE
  5
1F9A5
  8
0
 10
223.8634759617611962
 20
92.6957226678912463
 30
0.0
 11
223.8634759617611962
 21
92.9909982582912704
 31
0.0
  0
LINE
  5
1F9A6
  8
0
 10
223.8634759617611962
 20
93.0894234552912536
 30
0.0
 11
223.8634759617611962
 21
93.3846990457912653
 31
0.0
  0
LINE
  5
1F9A7
  8
0
 10
226.4619011586109991
 20
93.0894234552412598
 30
0.0
 11
226.4619011586109991
 21
93.3846990457912653
 31
0.0
  0
LINE
  5
1F9A8
  8
0
 10
226.4619011586109991
 20
93.7783998331412505
 30
0.0
 11
226.4225310799110957
 21
93.8177699119412551
 31
0.0
  0
LINE
  5
1F9A9
  8
0
 10
226.4225310799110957
 20
93.8177699119412551
 30
0.0
 11
226.4225310799110957
 21
93.8374549512412699
 31
0.0
  0
LINE
  5
1F9AA
  8
0
 10
226.4225310799110957
 20
93.8374549512412699
 30
0.0
 11
226.4619011587109867
 21
93.8768250300412461
 31
0.0
  0
LINE
  5
1F9AB
  8
0
 10
226.4619011587109867
 20
93.8768250300412461
 30
0.0
 11
223.86347596181119
 21
93.8768250300412461
 31
0.0
  0
LINE
  5
1F9AC
  8
0
 10
223.86347596181119
 20
93.8768250300412461
 30
0.0
 11
223.9028460406111094
 21
93.8374549512412699
 31
0.0
  0
LINE
  5
1F9AD
  8
0
 10
223.9028460406111094
 20
93.8374549512412699
 30
0.0
 11
223.9028460406111094
 21
93.8177699119412551
 31
0.0
  0
LINE
  5
1F9AE
  8
0
 10
223.9028460406111094
 20
93.8177699119412551
 30
0.0
 11
223.86347596181119
 21
93.7783998331412505
 31
0.0
  0
LINE
  5
1F9AF
  8
0
 10
223.86347596181119
 20
93.7783998331412505
 30
0.0
 11
226.4619011586109991
 21
93.7783998332412665
 31
0.0
  0
LINE
  5
1F9B0
  8
0
 10
226.4225310799110957
 20
93.8374549512412699
 30
0.0
 11
223.9028460406111094
 21
93.8374549512412699
 31
0.0
  0
LINE
  5
1F9B1
  8
0
 10
223.9028460406111094
 20
93.8177699119412551
 30
0.0
 11
226.4225310799110957
 21
93.8177699119412551
 31
0.0
  0
LINE
  5
1F9B2
  8
0
 10
223.8634759617611962
 20
94.1721006205912374
 30
0.0
 11
223.8634759617611962
 21
93.8768250300912683
 31
0.0
  0
LINE
  5
1F9B3
  8
0
 10
226.4619011586109991
 20
94.1721006206412454
 30
0.0
 11
226.4619011586109991
 21
93.8768250300912683
 31
0.0
  0
LINE
  5
1F9B4
  8
0
 10
226.4225310799110957
 20
94.2114706994912581
 30
0.0
 11
226.4619011587109867
 21
94.1721006206912676
 31
0.0
  0
LINE
  5
1F9B5
  8
0
 10
226.4619011587109867
 20
94.1721006206912676
 30
0.0
 11
223.86347596181119
 21
94.1721006206912676
 31
0.0
  0
LINE
  5
1F9B6
  8
0
 10
223.86347596181119
 20
94.1721006206912676
 30
0.0
 11
223.9028460406111094
 21
94.2114706994912581
 31
0.0
  0
LINE
  5
1F9B7
  8
0
 10
226.4619011586609929
 20
94.2114706993912563
 30
0.0
 11
223.8634759617611962
 21
94.2114706993912563
 31
0.0
  0
LINE
  5
1F9B8
  8
0
 10
226.4619011586609929
 20
93.4831242427912485
 30
0.0
 11
226.4619011586609929
 21
93.7783998330912567
 31
0.0
  0
LINE
  5
1F9B9
  8
0
 10
223.8634759617112024
 20
93.4831242427412548
 30
0.0
 11
223.8634759618612122
 21
93.7783998331912727
 31
0.0
  0
LINE
  5
1F9BA
  8
0
 10
223.8634759617611962
 20
90.2350927465912633
 30
0.0
 11
223.8634759618612122
 21
88.7490328968382585
 31
0.0
  0
LINE
  5
1F9BB
  8
0
 10
224.1354602413439068
 20
87.1413207120461806
 30
0.0
 11
223.8754968671609902
 21
88.611970657291252
 31
0.0
  0
LINE
  5
1F9BC
  8
0
 10
224.1390665129611079
 20
87.0972974709912506
 30
0.0
 11
224.1390665129611079
 21
86.43885915942748
 31
0.0
  0
ARC
  5
1F9BD
  8
0
 10
225.6746877249034071
 20
88.7490163961622329
 30
0.0
 40
0.7872134338306722
 50
349.9743122266692126
 51
0.0012009730656658
  0
ARC
  5
1F9BE
  8
0
 10
224.6508775496367036
 20
88.749032898603744
 30
0.0
 40
0.787401587875503
 50
180.0000001246118018
 51
190.0244867543603959
  0
ARC
  5
1F9BF
  8
0
 10
226.4225310808405993
 20
87.1002020401483747
 30
0.0
 40
0.2362204733797437
 50
169.9755132491700067
 51
179.9999999895991039
  0
LINE
  5
1F9C0
  8
0
 10
226.1863106161167138
 20
87.1002659869955238
 30
0.0
 11
224.139081145131513
 21
87.1002020401912631
 31
0.0
  0
LINE
  5
1F9C1
  8
0
 10
226.4619011587342072
 20
88.7490163961622329
 30
0.0
 11
223.8634759617611962
 21
88.7490163961622329
 31
0.0
  0
ARC
  5
1F9C2
  8
0
 10
226.9079641507609892
 20
95.8466404385912654
 30
0.0
 40
0.1299212598000006
 50
0.0
 51
90.0
  0
ARC
  5
1F9C3
  8
0
 10
226.8516649381639922
 20
95.9982152417923942
 30
0.0
 40
0.0216535433027518
 50
180.0000000030142076
 51
269.9999999903595835
  0
ARC
  5
1F9C4
  8
0
 10
226.9079641507609892
 20
95.760026265391275
 30
0.0
 40
0.1299212598000006
 50
270.0
 51
0.0
  0
ARC
  5
1F9C5
  8
0
 10
226.8652529916807907
 20
95.5867979187044199
 30
0.0
 40
0.0433070868868404
 50
90.0000002908270602
 51
176.9999997581907962
  0
ARC
  5
1F9C6
  8
0
 10
226.6012932167608938
 20
95.515040229191257
 30
0.0
 40
0.2165354331000017
 50
300.2440062339647966
 51
356.9999999992996891
  0
ARC
  5
1F9C7
  8
0
 10
226.7867043085674936
 20
95.1970341391087942
 30
0.0
 40
0.1515748035062696
 50
120.2440061574480978
 51
179.9999998932310064
  0
ARC
  5
1F9C8
  8
0
 10
226.5013426103159873
 20
94.8898457765417476
 30
0.0
 40
0.1180093087700692
 50
269.965318068268175
 51
340.5567997558350726
  0
ARC
  5
1F9C9
  8
0
 10
226.4894602137609922
 20
94.6930963318912546
 30
0.0
 40
0.078740157500001
 50
90.0000956810899595
 51
180.0
  0
ARC
  5
1F9CA
  8
0
 10
226.4619011580060999
 20
94.3295809353200667
 30
0.0
 40
0.0393700793547458
 50
0.0000003946892284
 51
90.0068764187574857
  0
ARC
  5
1F9CB
  8
0
 10
226.4619011586609929
 20
94.2508407780912449
 30
0.0
 40
0.0393700786999993
 50
270.0
 51
0.0
  0
LINE
  5
1F9CC
  8
0
 10
226.5012712373608963
 20
94.2508407780912449
 30
0.0
 11
226.5012712373608963
 21
94.3295809353200667
 31
0.0
  0
LINE
  5
1F9CD
  8
0
 10
226.4107200562611979
 20
94.3689510143912713
 30
0.0
 11
226.4107200562611979
 21
94.6930963318912546
 31
0.0
  0
LINE
  5
1F9CE
  8
0
 10
226.6351295050612862
 20
94.8505774464912292
 30
0.0
 11
226.6351295050612862
 21
95.1970341391168233
 31
0.0
  0
LINE
  5
1F9CF
  8
0
 10
226.8175318955782132
 20
95.5037076402912675
 30
0.0
 11
226.8220052557180111
 21
95.5890644366777167
 31
0.0
  0
LINE
  5
1F9D0
  8
0
 10
227.0378854105611026
 20
95.8466404385912654
 30
0.0
 11
227.0378854105611026
 21
95.760026265391275
 31
0.0
  0
LINE
  5
1F9D1
  8
0
 10
226.8300113948612022
 20
95.9982152417912431
 30
0.0
 11
226.8300113948612022
 21
96.360798373691253
 31
0.0
  0
ARC
  5
1F9D2
  8
0
 10
223.4174129696610862
 20
95.8466404385912654
 30
0.0
 40
0.1299212598000006
 50
90.0
 51
180.0
  0
ARC
  5
1F9D3
  8
0
 10
223.4737121820930952
 20
95.9982152418608052
 30
0.0
 40
0.0216535434679557
 50
270.0000004444219144
 51
359.9999998159207166
  0
ARC
  5
1F9D4
  8
0
 10
223.4174129696610862
 20
95.760026265391275
 30
0.0
 40
0.1299212598000006
 50
180.0000000000015916
 51
270.0
  0
ARC
  5
1F9D5
  8
0
 10
223.4601241287413984
 20
95.5867979187044199
 30
0.0
 40
0.0433070868868403
 50
3.0000002418091469
 51
89.9999997091729256
  0
ARC
  5
1F9D6
  8
0
 10
223.7240839036612101
 20
95.515040229191257
 30
0.0
 40
0.2165354331000017
 50
183.0000000007001972
 51
239.7559937660352034
  0
ARC
  5
1F9D7
  8
0
 10
223.5386728118546102
 20
95.1970341391087942
 30
0.0
 40
0.1515748035062696
 50
0.0000001067705591
 51
59.7559938425519093
  0
ARC
  5
1F9D8
  8
0
 10
223.824034510105804
 20
94.8898457765417476
 30
0.0
 40
0.1180093087700692
 50
199.4432002441664054
 51
270.034681931731825
  0
ARC
  5
1F9D9
  8
0
 10
223.8359169066611116
 20
94.6930963318912546
 30
0.0
 40
0.078740157500001
 50
0.0000000000016284
 51
89.9999043189100263
  0
ARC
  5
1F9DA
  8
0
 10
223.863475962416004
 20
94.3295809353200667
 30
0.0
 40
0.0393700793547467
 50
90.0
 51
179.9999996053107054
  0
ARC
  5
1F9DB
  8
0
 10
223.8634759617611962
 20
94.2508407780912449
 30
0.0
 40
0.0393700786999993
 50
180.0000000000015916
 51
270.0
  0
LINE
  5
1F9DC
  8
0
 10
223.8241058830612928
 20
94.2508407780912449
 30
0.0
 11
223.8241058830612928
 21
94.3295809353200667
 31
0.0
  0
LINE
  5
1F9DD
  8
0
 10
223.9146570641609912
 20
94.3689510143912713
 30
0.0
 11
223.9146570641609912
 21
94.6930963318912546
 31
0.0
  0
LINE
  5
1F9DE
  8
0
 10
223.690247615360903
 20
94.8505774464912292
 30
0.0
 11
223.690247615360903
 21
95.1970341391168233
 31
0.0
  0
LINE
  5
1F9DF
  8
0
 10
223.5078452248440044
 20
95.5037076402912675
 30
0.0
 11
223.5033718647040928
 21
95.5890644366777167
 31
0.0
  0
LINE
  5
1F9E0
  8
0
 10
223.2874917098610865
 20
95.8466404385912654
 30
0.0
 11
223.2874917098610865
 21
95.760026265391275
 31
0.0
  0
LINE
  5
1F9E1
  8
0
 10
223.4953657255609016
 20
95.9982152417912431
 30
0.0
 11
223.4953657255609016
 21
96.360798373691253
 31
0.0
  0
LINE
  5
1F9E2
  8
0
 10
226.9079641507609892
 20
95.9765616984912668
 30
0.0
 11
223.4174129696610862
 21
95.9765616983912366
 31
0.0
  0
LINE
  5
1F9E3
  8
0
 10
226.9079641507609892
 20
95.6301050055912611
 30
0.0
 11
223.4174129696610862
 21
95.6301050055912611
 31
0.0
  0
LINE
  5
1F9E4
  8
0
 10
226.6351295050612862
 20
94.8505774464912292
 30
0.0
 11
223.690247615360903
 21
94.8505774464912292
 31
0.0
  0
LINE
  5
1F9E5
  8
0
 10
226.5012711776288938
 20
94.7718364893912764
 30
0.0
 11
223.8241059427764128
 21
94.7718364893912764
 31
0.0
  0
LINE
  5
1F9E6
  8
0
 10
223.6245650735872914
 20
95.3219238521857051
 30
0.0
 11
226.7008281827984035
 21
95.321934948076958
 31
0.0
  0
LINE
  5
1F9E7
  8
0
 10
226.4618964329611117
 20
94.3689510143912713
 30
0.0
 11
223.863475962416004
 21
94.3689510146748063
 31
0.0
  0
ARC
  5
1F9E8
  8
0
 10
225.5760743869608973
 20
84.1051714867912636
 30
0.0
 40
0.1181102361999962
 50
270.0
 51
0.0000000000016284
  0
ARC
  5
1F9E9
  8
0
 10
224.7493027334612066
 20
84.1051714867912636
 30
0.0
 40
0.1181102361999979
 50
180.0
 51
270.0
  0
LINE
  5
1F9EA
  8
0
 10
225.6941846231611066
 20
84.1051714867912636
 30
0.0
 11
225.6941846231611066
 21
84.5866421653731635
 31
0.0
  0
LINE
  5
1F9EB
  8
0
 10
224.6311924972609972
 20
84.1051714867912636
 30
0.0
 11
224.6311924972609972
 21
84.586642165326225
 31
0.0
  0
LINE
  5
1F9EC
  8
0
 10
225.5760743869608973
 20
83.9870612505912533
 30
0.0
 11
224.7493027334612066
 21
83.9870612505912533
 31
0.0
  0
CIRCLE
  5
1F9ED
  8
0
 10
224.906783048360893
 20
84.2626518017912503
 30
0.0
 40
0.1574803150000008
  0
LINE
  5
1F9EE
  8
0
 10
232.6022322085484859
 20
108.7230031548781994
 30
0.0
 11
232.4430034477042
 21
99.4217430808884615
 31
0.0
  0
LINE
  5
1F9EF
  8
0
 10
234.1581009720522957
 20
97.3586332782134036
 30
0.0
 11
233.3712978486005056
 21
97.3586332782134036
 31
0.0
  0
LINE
  5
1F9F0
  8
0
 10
234.5521009720523011
 20
99.2917073937871635
 30
0.0
 11
234.5521009720523011
 21
97.7526332782134233
 31
0.0
  0
LINE
  5
1F9F1
  8
0
 10
232.9772978486005002
 20
97.7526332782134233
 30
0.0
 11
232.9772978486005002
 21
97.9924896206009919
 31
0.0
  0
LINE
  5
1F9F2
  8
0
 10
234.5521009720523011
 20
99.2917073937871635
 30
0.0
 11
232.4126134623205928
 21
99.2917073937871635
 31
0.0
  0
LINE
  5
1F9F3
  8
0
 10
234.5125544392788015
 20
100.059383539741205
 30
0.0
 11
234.5125544392788015
 21
99.2917073937871635
 31
0.0
  0
LINE
  5
1F9F4
  8
0
 10
233.3314520522430087
 20
100.059383539741205
 30
0.0
 11
233.3314520522430087
 21
99.2917073937871635
 31
0.0
  0
LINE
  5
1F9F5
  8
0
 10
234.3156544392788021
 20
100.2562835397412044
 30
0.0
 11
233.5283520522430081
 21
100.2562835397412044
 31
0.0
  0
ARC
  5
1F9F6
  8
0
 10
234.3156544392788021
 20
100.059383539741205
 30
0.0
 40
0.1969
 50
0.0
 51
90.0
  0
ARC
  5
1F9F7
  8
0
 10
233.5283520522430081
 20
100.059383539741205
 30
0.0
 40
0.1969
 50
90.0
 51
180.0
  0
ARC
  5
1F9F8
  8
0
 10
234.1581009720522957
 20
97.7526332782134233
 30
0.0
 40
0.394
 50
270.0
 51
0.0
  0
ARC
  5
1F9F9
  8
0
 10
233.3712978486005056
 20
97.7526332782134233
 30
0.0
 40
0.394
 50
180.0
 51
270.0
  0
LINE
  5
1F9FA
  8
0
 10
232.6712061077134877
 20
97.9924896206009919
 30
0.0
 11
232.9772978486005002
 21
97.9924896206009919
 31
0.0
  0
LINE
  5
1F9FB
  8
0
 10
233.6045724460659869
 20
98.0738801006236827
 30
0.0
 11
233.9221666689468861
 21
98.0738784217027302
 31
0.0
  0
LINE
  5
1F9FC
  8
0
 10
233.6045724460659869
 20
98.5410290508335152
 30
0.0
 11
233.9221666689468861
 21
98.5410273719125627
 31
0.0
  0
ARC
  5
1F9FD
  8
0
 10
233.9221666689468861
 20
98.3074528968076464
 30
0.0
 40
0.2335744751049123
 50
270.0
 51
90.0
  0
ARC
  5
1F9FE
  8
0
 10
233.6045724460659869
 20
98.3074545757285847
 30
0.0
 40
0.2335744751049123
 50
90.0
 51
270.0
  0
CIRCLE
  5
1F9FF
  8
0
 10
233.9221686190415994
 20
98.3074527573366055
 30
0.0
 40
0.1614173227999998
  0
ARC
  5
1FA00
  8
0
 10
227.0707846968325043
 20
96.2548536761734255
 30
0.0
 40
0.2212396365879498
 50
90.2783791136977953
 51
151.3884706280715022
  0
LINE
  5
1FA01
  8
0
 10
232.8004838357609003
 20
109.1419160290888044
 30
0.0
 11
232.8004838357609003
 21
108.7482152416911987
 31
0.0
  0
LINE
  5
1FA02
  8
0
 10
232.8004838357609003
 20
108.7482152416911987
 30
0.0
 11
232.0258952342780958
 21
108.7482152416911987
 31
0.0
  0
LINE
  5
1FA03
  8
0
 10
232.5373860815774094
 20
108.7230031548781994
 30
0.0
 11
232.5373860815774094
 21
108.7482152416911987
 31
0.0
  0
LINE
  5
1FA04
  8
0
 10
232.0254551557949014
 20
108.7230031548781994
 30
0.0
 11
232.0327673050690009
 21
109.1419160290911066
 31
0.0
  0
LINE
  5
1FA05
  8
0
 10
232.7953251378608002
 20
109.2403412259912017
 30
0.0
 11
232.7953251378608002
 21
109.1419160290913055
 31
0.0
  0
LINE
  5
1FA06
  8
0
 10
232.7953251378608002
 20
109.4568766589893016
 30
0.0
 11
232.7953251378608002
 21
109.5553018558914999
 31
0.0
  0
LINE
  5
1FA07
  8
0
 10
232.7943935046608033
 20
109.4568766589912059
 30
0.0
 11
232.7943935046608033
 21
109.2403412259912017
 31
0.0
  0
LINE
  5
1FA08
  8
0
 10
234.3359373790607947
 20
110.3230183911334024
 30
0.0
 11
232.6136608011194085
 21
110.3230183911334024
 31
0.0
  0
LINE
  5
1FA09
  8
0
 10
234.5721373790607913
 20
112.0553131115371031
 30
0.0
 11
234.5721373790607913
 21
110.559218391133399
 31
0.0
  0
ARC
  5
1FA0A
  8
0
 10
234.3359373790607947
 20
110.559218391133399
 30
0.0
 40
0.2362
 50
270.0
 51
0.0
  0
LINE
  5
1FA0B
  8
0
 10
234.3359373790607947
 20
112.2915131115370997
 30
0.0
 11
232.5951083989303072
 21
112.2915131115370997
 31
0.0
  0
ARC
  5
1FA0C
  8
0
 10
234.3359373790607947
 20
112.0553131115371031
 30
0.0
 40
0.2362
 50
0.0
 51
90.0
  0
LINE
  5
1FA0D
  8
0
 10
234.5682003712607866
 20
113.0591892574911981
 30
0.0
 11
234.5682003712607866
 21
112.0982589198809052
 31
0.0
  0
LINE
  5
1FA0E
  8
0
 10
233.3870979842249938
 20
113.0591892574911981
 30
0.0
 11
233.3870979842249938
 21
112.2915131115370997
 31
0.0
  0
LINE
  5
1FA0F
  8
0
 10
234.3713003712609009
 20
113.2560892574911975
 30
0.0
 11
233.5839979842249932
 21
113.2560892574911975
 31
0.0
  0
ARC
  5
1FA10
  8
0
 10
234.3713003712609009
 20
113.0591892574911981
 30
0.0
 40
0.1969
 50
0.0
 51
90.0
  0
ARC
  5
1FA11
  8
0
 10
233.5839979842249932
 20
113.0591892574911981
 30
0.0
 40
0.1969
 50
90.0
 51
180.0
  0
LINE
  5
1FA12
  8
0
 10
233.8989086665185084
 20
112.4293174315865969
 30
0.0
 11
234.0563889942287119
 21
112.4293174315865969
 31
0.0
  0
LINE
  5
1FA13
  8
0
 10
233.8989086665185084
 20
112.8230182055764033
 30
0.0
 11
234.0563889942287119
 21
112.8230182055764033
 31
0.0
  0
ARC
  5
1FA14
  8
0
 10
234.0563889942287119
 20
112.626167818581493
 30
0.0
 40
0.196850386994885
 50
270.0
 51
90.0
  0
ARC
  5
1FA15
  8
0
 10
233.8989086665185084
 20
112.626167818581493
 30
0.0
 40
0.196850386994885
 50
90.0
 51
270.0
  0
LINE
  5
1FA16
  8
0
 10
233.6605671437160083
 20
111.0736858183737041
 30
0.0
 11
233.9781613665969076
 21
111.0736841394526948
 31
0.0
  0
LINE
  5
1FA17
  8
0
 10
233.6605671437160083
 20
111.540834768583494
 30
0.0
 11
233.9781613665969076
 21
111.5408330896624989
 31
0.0
  0
ARC
  5
1FA18
  8
0
 10
233.9781613665969076
 20
111.3072586145575968
 30
0.0
 40
0.2335744751049123
 50
270.0
 51
90.0
  0
ARC
  5
1FA19
  8
0
 10
233.6605671437160083
 20
111.3072602934786062
 30
0.0
 40
0.2335744751049123
 50
90.0
 51
270.0
  0
CIRCLE
  5
1FA1A
  8
0
 10
233.9781633166915924
 20
111.3072584750865985
 30
0.0
 40
0.1614173227999998
  0
LINE
  5
1FA1B
  8
0
 10
232.5409707605678875
 20
109.5553018558912015
 30
0.0
 11
232.4905675991184921
 21
115.3309320801966038
 31
0.0
  0
ARC
  5
1FA1C
  8
0
 10
232.6136608011194085
 20
110.2443183911334046
 30
0.0
 40
0.0787
 50
90.0
 51
180.5000000007300116
  0
ARC
  5
1FA1D
  8
0
 10
232.5951083989303072
 20
112.3702131115370975
 30
0.0
 40
0.0787
 50
180.5000000007300116
 51
270.0
  0
ARC
  5
1FA1E
  8
0
 10
231.5851020777840006
 20
115.323030202291207
 30
0.0
 40
0.9054999999999999
 50
0.5000000007300748
 51
90.0
  0
LINE
  5
1FA1F
  8
0
 10
229.7456020030969057
 20
116.126377985235095
 30
0.0
 11
229.7119863272369003
 21
115.9674146633472986
 31
0.0
  0
ARC
  5
1FA20
  8
0
 10
229.8716152391642993
 20
116.0997302022911981
 30
0.0
 40
0.1288
 50
89.9999999999983658
 51
168.0596801598408945
  0
ARC
  5
1FA21
  8
0
 10
229.5859730911695067
 20
115.9940624462911956
 30
0.0
 40
0.1288
 50
270.0
 51
348.0596801598425145
  0
LINE
  5
1FA22
  8
0
 10
229.611507457860796
 20
110.0669522495911963
 30
0.0
 11
229.611507457860796
 21
112.0356168164911992
 31
0.0
  0
LINE
  5
1FA23
  8
0
 10
229.611507457860796
 20
112.9411286274911959
 30
0.0
 11
229.611507457860796
 21
115.3822341393913007
 31
0.0
  0
LINE
  5
1FA24
  8
0
 10
229.631191047205192
 20
115.3822173261923041
 30
0.0
 11
229.631191047205192
 21
110.0669672105646981
 31
0.0
  0
ARC
  5
1FA25
  8
0
 10
229.2967074578608901
 20
110.0669522495911963
 30
0.0
 40
0.3148
 50
270.0
 51
0.0
  0
ARC
  5
1FA26
  8
0
 10
229.2967074578608901
 20
115.3822341393913007
 30
0.0
 40
0.3148
 50
359.9999999999992042
 51
90.0000000000227942
  0
ARC
  5
1FA27
  8
0
 10
229.2966910472052007
 20
115.3822173261923041
 30
0.0
 40
0.3345
 50
0.0
 51
90.0
  0
ARC
  5
1FA28
  8
0
 10
229.2966910472052007
 20
110.0669672105646981
 30
0.0
 40
0.3345
 50
270.0
 51
0.0
  0
LINE
  5
1FA29
  8
0
 10
229.611507457860796
 20
112.9411286274911959
 30
0.0
 11
229.560326355460802
 21
112.9411286274911959
 31
0.0
  0
LINE
  5
1FA2A
  8
0
 10
229.560326355460802
 20
112.9411286274911959
 30
0.0
 11
229.560326355460802
 21
112.0356168164911992
 31
0.0
  0
LINE
  5
1FA2B
  8
0
 10
229.560326355460802
 20
112.0356168164911992
 30
0.0
 11
229.611507457860796
 21
112.0356168164911992
 31
0.0
  0
LINE
  5
1FA2C
  8
0
 10
229.619396704807798
 20
111.8785410783865046
 30
0.0
 11
229.619396704807798
 21
113.0983444060163947
 31
0.0
  0
ARC
  5
1FA2D
  8
0
 10
229.481705752694495
 20
111.8781081677673939
 30
0.0
 40
0.137691632663248
 50
340.5097995327807894
 51
0.1801416089105087
  0
ARC
  5
1FA2E
  8
0
 10
229.4821767214729107
 20
113.098744793794495
 30
0.0
 40
0.1372205674700647
 50
359.8328197940397217
 51
19.5238322948945786
  0
LINE
  5
1FA2F
  8
0
 10
225.9391793718496046
 20
113.4616233767360995
 30
0.0
 11
225.359538953860806
 21
113.4616233767360995
 31
0.0
  0
LINE
  5
1FA30
  8
0
 10
226.2146793718495985
 20
113.1861233767361057
 30
0.0
 11
226.2146793718495985
 21
112.5780236427443981
 31
0.0
  0
LINE
  5
1FA31
  8
0
 10
225.9391793718496046
 20
112.3025236427444042
 30
0.0
 11
225.359538953860806
 21
112.3025236427444042
 31
0.0
  0
LINE
  5
1FA32
  8
0
 10
225.359538953860806
 20
112.3025236427444042
 30
0.0
 11
225.359538953860806
 21
113.4616233767360995
 31
0.0
  0
ARC
  5
1FA33
  8
0
 10
225.9391793718496046
 20
113.1861233767361057
 30
0.0
 40
0.2755
 50
0.0
 51
90.0
  0
ARC
  5
1FA34
  8
0
 10
225.9391793718496046
 20
112.5780236427443981
 30
0.0
 40
0.2755
 50
270.0
 51
0.0
  0
LINE
  5
1FA35
  8
0
 10
228.8241058830608949
 20
108.2902881558912043
 30
0.0
 11
228.036704308260795
 21
108.2902881558912043
 31
0.0
  0
LINE
  5
1FA36
  8
0
 10
228.1154043082607927
 20
108.3741994936911937
 30
0.0
 11
228.7454058830608119
 21
108.3741994936911937
 31
0.0
  0
LINE
  5
1FA37
  8
0
 10
228.036704308260795
 20
108.2902881558912043
 30
0.0
 11
228.036704308260795
 21
108.2954994936911959
 31
0.0
  0
LINE
  5
1FA38
  8
0
 10
228.8241058830608949
 20
108.2902881558912043
 30
0.0
 11
228.8241058830608949
 21
108.2954994936911959
 31
0.0
  0
ARC
  5
1FA39
  8
0
 10
228.1154043082607927
 20
108.2954994936911959
 30
0.0
 40
0.0787
 50
89.9999999999983658
 51
179.9999999999974989
  0
ARC
  5
1FA3A
  8
0
 10
228.7454058830608119
 20
108.2954994936911959
 30
0.0
 40
0.0787
 50
0.0000000000016284
 51
89.9999999999967457
  0
LINE
  5
1FA3B
  8
0
 10
232.5364579071614912
 20
109.4568766589912059
 30
0.0
 11
232.5383475527380881
 21
109.2403412259912017
 31
0.0
  0
LINE
  5
1FA3C
  8
0
 10
232.1033764851607941
 20
109.4568766589911064
 30
0.0
 11
232.1052606197607986
 21
109.2403412259912017
 31
0.0
  0
LINE
  5
1FA3D
  8
0
 10
230.9894602137607933
 20
109.2403412259912017
 30
0.0
 11
230.9894602137607933
 21
109.4568766589910069
 31
0.0
  0
LINE
  5
1FA3E
  8
0
 10
229.2571767491608057
 20
109.2403412259912017
 30
0.0
 11
229.2571767491608057
 21
109.4568766589907938
 31
0.0
  0
LINE
  5
1FA3F
  8
0
 10
227.6823735995608047
 20
109.2403412259912017
 30
0.0
 11
227.6823735995608047
 21
109.4568766589905948
 31
0.0
  0
LINE
  5
1FA40
  8
0
 10
225.9500901349607886
 20
109.2403412259912017
 30
0.0
 11
225.9500901349607886
 21
109.4568766589903959
 31
0.0
  0
LINE
  5
1FDA3
  8
0
 10
217.3480897653608963
 20
97.7526724361412533
 30
0.0
 11
217.3480901213609116
 21
97.9925307038412541
 31
0.0
  0
ARC
  5
1FDA4
  8
0
 10
217.4877848840571062
 20
102.8306624129400006
 30
0.0
 40
4.840148041259936
 50
268.3461183672918082
 51
274.9549446738942038
  0
ARC
  5
1FDA5
  8
0
 10
218.6063583664607108
 20
99.5177706332301142
 30
0.0
 40
0.7303253292405014
 50
187.5554513470783036
 51
198.0282744746185983
  0
ARC
  5
1FDA6
  8
0
 10
223.2557043596823121
 20
96.2590433584615397
 30
0.0
 40
0.2170481695102703
 50
27.9572768579991404
 51
90.0058479993356855
  0
LINE
  5
1FDA7
  8
0
 10
223.2556822062609001
 20
96.4760915268412447
 30
0.0
 11
222.9358767804380079
 21
96.4760588853109198
 31
0.0
  0
ARC
  5
1FDA8
  8
0
 10
222.9358104897526118
 20
97.1255419415318642
 30
0.0
 40
0.6494830596039833
 50
209.9979306631497877
 51
270.0058479993356855
  0
LINE
  5
1FDA9
  8
0
 10
222.3733299325689075
 20
96.8008207264828968
 30
0.0
 11
221.4600247013194974
 21
98.3828437405148435
 31
0.0
  0
ARC
  5
1FDAA
  8
0
 10
220.6715022943029112
 20
97.9276280875830736
 30
0.0
 40
0.9104882629893907
 50
29.9979306631497487
 51
89.9966770877700242
  0
LINE
  5
1FDAB
  8
0
 10
220.6715550987609049
 20
98.8381163490412433
 30
0.0
 11
218.5297013671608966
 21
98.8431027207412569
 31
0.0
  0
ARC
  5
1FDAC
  8
0
 10
218.5297141428983991
 20
99.4928270664415635
 30
0.0
 40
0.6497243458259191
 50
198.0283980263126011
 51
269.9988733747695733
  0
ARC
  5
1FDAD
  8
0
 10
217.6548065019609055
 20
99.9610341853412621
 30
0.0
 40
1.9685039369999959
 50
277.3265904722010191
 51
301.390474592590806
  0
ARC
  5
1FDAE
  8
0
 10
216.8257928054476054
 20
101.0377761502643068
 30
0.0
 40
3.3227037236127699
 50
303.9233152670663003
 51
318.6191373780603726
  0
LINE
  5
1FDAF
  8
0
 10
221.2749031439749103
 20
107.4641471337115064
 30
0.0
 11
221.1354512247609136
 21
99.4675070889412467
 31
0.0
  0
ARC
  5
1FDB0
  8
0
 10
223.3315797156438123
 20
99.3319186415902493
 30
0.0
 40
2.2003101089088002
 50
176.4670566890441989
 51
186.7417730222304897
  0
ARC
  5
1FDB1
  8
0
 10
221.3457502632548142
 20
99.0971693676296752
 30
0.0
 40
0.2006536795188725
 50
186.7417730222304897
 51
226.61002874619831
  0
ARC
  5
1FDB2
  8
0
 10
220.671180103714704
 20
97.9243786424666638
 30
0.0
 40
1.15877488669069
 50
30.0028249662025495
 51
62.4070726996550107
  0
ARC
  5
1FDB3
  8
0
 10
-23954.3985876319093222
 20
-13859.8349764051909006
 30
0.0
 40
27916.2630143001988472
 50
29.9967532761680395
 51
30.0004915420273299
  0
ARC
  5
1FDB4
  8
0
 10
222.9398664871795859
 20
97.131236710885716
 30
0.0
 40
0.4094342400968315
 50
209.9967532761679934
 51
223.1388965275646115
  0
LINE
  5
1FDB5
  8
0
 10
227.0721045787277887
 20
96.4770242583646649
 30
0.0
 11
227.3894990135177068
 21
96.4760915269428381
 31
0.0
  0
ARC
  5
1FDB6
  8
0
 10
227.3913982798526092
 20
97.1223832147416886
 30
0.0
 40
0.6462944784929674
 50
269.8316245838253167
 51
330.1645964748187794
  0
LINE
  5
1FDB7
  8
0
 10
227.9520317270986141
 20
96.8008452064759126
 30
0.0
 11
228.8657019839280906
 21
98.383133441862185
 31
0.0
  0
ARC
  5
1FDB8
  8
0
 10
229.6543362827910073
 20
97.9271603063290854
 30
0.0
 40
0.9109561886206557
 50
90.0324286724785878
 51
149.991141958171994
  0
ARC
  5
1FDB9
  8
0
 10
229.3098321430848898
 20
706.6055184902919564
 30
0.0
 40
607.7674994877954759
 50
270.0324286724784884
 51
270.2343472932084865
  0
ARC
  5
1FDBA
  8
0
 10
231.7944594151603042
 20
99.4958678962985061
 30
0.0
 40
0.6527663061218741
 50
270.1066460893982821
 51
353.4797188408801958
  0
LINE
  5
1FDBB
  8
0
 10
227.8089429179267995
 20
107.4641471337120038
 30
0.0
 11
227.6283041695999998
 21
96.8706952744548886
 31
0.0
  0
LINE
  5
1FDBC
  8
0
 10
227.8680339167104876
 20
107.5222156964912017
 30
0.0
 11
228.9899896808726112
 21
107.5222156964912017
 31
0.0
  0
ARC
  5
1FDBD
  8
0
 10
227.8680339167104876
 20
107.4631156964912009
 30
0.0
 40
0.0591
 50
90.0
 51
178.999999999708308
  0
ARC
  5
1FDBE
  8
0
 10
228.9899896808726112
 20
107.4631156964912009
 30
0.0
 40
0.0591
 50
0.9999999998869453
 51
90.0000000000032543
  0
LINE
  5
1FDBF
  8
0
 10
229.0490806796564129
 20
107.4641471337115064
 30
0.0
 11
229.1885325988704096
 21
99.4675070889412467
 31
0.0
  0
ARC
  5
1FDC0
  8
0
 10
226.992404107987511
 20
99.3319186415902493
 30
0.0
 40
2.2003101089088002
 50
353.2582269777694819
 51
3.532943310955738
  0
ARC
  5
1FDC1
  8
0
 10
228.9782335603765091
 20
99.0971693676296752
 30
0.0
 40
0.2006536795188725
 50
313.3899712538017184
 51
353.2582269777694819
  0
ARC
  5
1FDC2
  8
0
 10
229.6528037199165908
 20
97.9243786424666638
 30
0.0
 40
1.15877488669069
 50
117.5929273003449964
 51
149.9971750337975038
  0
ARC
  5
1FDC3
  8
0
 10
24404.722571455531579
 20
-13859.8349764051909006
 30
0.0
 40
27916.2630143001988472
 50
149.9995084579726097
 51
150.0032467238320066
  0
ARC
  5
1FDC4
  8
0
 10
227.384117336451709
 20
97.131236710885716
 30
0.0
 40
0.4094342400968315
 50
316.8611034724353885
 51
330.0032467238319782
  0
ARC
  5
1FDC5
  8
0
 10
232.6691773216703893
 20
99.9610341853412621
 30
0.0
 40
1.9685039369999959
 50
238.609525407409194
 51
262.6734095277989809
  0
ARC
  5
1FDC6
  8
0
 10
233.4981910181836042
 20
101.0377761502643068
 30
0.0
 40
3.3227037236127699
 50
221.380862621939599
 51
236.076684732933586
  0
ARC
  5
1FDC7
  8
0
 10
232.6418571600223117
 20
99.5268602616361306
 30
0.0
 40
1.534651303977939
 50
261.6178638466187749
 51
271.0958015998224937
  0
LINE
  5
1FDC8
  8
0
 10
230.9107193921608996
 20
109.4568766589895006
 30
0.0
 11
230.9107193921608996
 21
109.2403412259912017
 31
0.0
  0
LINE
  5
1FDC9
  8
0
 10
229.3359162425608986
 20
109.4568766589896995
 30
0.0
 11
229.3359162425608986
 21
109.2403412259912017
 31
0.0
  0
LINE
  5
1FDCA
  8
0
 10
227.603632777960911
 20
109.4568766589898985
 30
0.0
 11
227.603632777960911
 21
109.2403412259912017
 31
0.0
  0
LINE
  5
1FDCB
  8
0
 10
226.02882962836091
 20
109.4568766589900974
 30
0.0
 11
226.02882962836091
 21
109.2403412259912017
 31
0.0
  0
LINE
  5
1FDCC
  8
0
 10
224.2965461637608939
 20
109.4568766589903959
 30
0.0
 11
224.2965461637608939
 21
109.2403412259912017
 31
0.0
  0
LINE
  5
1FDCD
  8
0
 10
222.7217430141608929
 20
109.4568766589905948
 30
0.0
 11
222.7217430141608929
 21
109.2403412259912017
 31
0.0
  0
LINE
  5
1FDCE
  8
0
 10
220.9894595496608929
 20
109.4568766589907938
 30
0.0
 11
220.9894595496608929
 21
109.2403412259912017
 31
0.0
  0
LINE
  5
1FDCF
  8
0
 10
219.4146564000608919
 20
109.4568766589910069
 30
0.0
 11
219.4146564000608919
 21
109.2403412259912017
 31
0.0
  0
ARC
  5
1FDD0
  8
0
 10
222.663021172132602
 20
96.8785008976307154
 30
0.0
 40
0.0349497187166444
 50
231.161057726555498
 51
346.9507089827824871
  0
ARC
  5
1FDD1
  8
0
 10
227.661019218643105
 20
96.8762399001384722
 30
0.0
 40
0.0331815808524501
 50
189.6192206674573981
 51
311.2119571898713843
  0
LINE
  5
1FDE2
  8
0
 10
216.4264684540032988
 20
99.8232530424263729
 30
0.0
 11
216.2689881262930101
 21
99.8232530424263729
 31
0.0
  0
LINE
  5
1FDE3
  8
0
 10
216.4264684540032988
 20
99.4295522684366091
 30
0.0
 11
216.2689881262930101
 21
99.4295522684366091
 31
0.0
  0
ARC
  5
1FDE4
  8
0
 10
216.2689881262930101
 20
99.6264026554315052
 30
0.0
 40
0.196850386994885
 50
90.0
 51
270.0
  0
ARC
  5
1FDE5
  8
0
 10
216.4264684540032988
 20
99.6264026554315052
 30
0.0
 40
0.196850386994885
 50
270.0
 51
90.0
  0
LINE
  5
1FDE6
  8
0
 10
233.8989086665185084
 20
99.8232530424263729
 30
0.0
 11
234.0563889942287119
 21
99.8232530424263729
 31
0.0
  0
LINE
  5
1FDE7
  8
0
 10
233.8989086665185084
 20
99.4295522684366091
 30
0.0
 11
234.0563889942287119
 21
99.4295522684366091
 31
0.0
  0
ARC
  5
1FDE8
  8
0
 10
234.0563889942287119
 20
99.6264026554315052
 30
0.0
 40
0.196850386994885
 50
270.0
 51
90.0
  0
ARC
  5
1FDE9
  8
0
 10
233.8989086665185084
 20
99.6264026554315052
 30
0.0
 40
0.196850386994885
 50
90.0
 51
270.0
  0
ATTDEF
  5
1FDED
  8
DEFPOINTS
 10
225.1620451565418932
 20
106.1445277351041057
 30
0.0
 40
0.001
  1
K-78076T-PNE
  3

  2
MODELNUMBER
 70
     0
1001
ACDBATTR
1070
     0
1070
     1
  0
ATTDEF
  5
1FDEE
  8
DEFPOINTS
 10
225.1620451565418932
 20
106.1428610684374974
 30
0.0
 40
0.001
  1
HYDRO-TOWER 200
  3

  2
TRADENAME
 70
     0
1001
ACDBATTR
1070
     0
1070
     1
  0
ATTDEF
  5
1FDEF
  8
DEFPOINTS
 10
225.1620451565418932
 20
106.1411944017708038
 30
0.0
 40
0.001
  1
IN-WALL TANK AND CARRIER SYSTEM
  3

  2
PRODUCT
 70
     0
1001
ACDBATTR
1070
     0
1070
     1
  0
ENDSEC
  0
EOF
