  0
SECTION
  2
HEADER
  9
$ACADVER
  1
AC1009
  9
$INSBASE
 10
4811.2168993991062962
 20
194.1070483764721928
 30
0.0
  9
$EXTMIN
 10
4793.9159997115975784
 20
188.8744198854913918
 30
-0.0000000349181948
  9
$EXTMAX
 10
4828.3608371118370997
 20
194.1087008726728982
 30
0.0000000814935746
  9
$LIMMIN
 10
0.0
 20
0.0
  9
$LIMMAX
 10
11.6929133858000007
 20
8.2677165353999982
  9
$ORTHOMODE
 70
     0
  9
$REGENMODE
 70
     1
  9
$FILLMODE
 70
     1
  9
$QTEXTMODE
 70
     0
  9
$MIRRTEXT
 70
     0
  9
$DRAGMODE
 70
     2
  9
$LTSCALE
 40
0.6431102362
  9
$OSMODE
 70
  4095
  9
$ATTMODE
 70
     1
  9
$TEXTSIZE
 40
0.2
  9
$TRACEWID
 40
0.05
  9
$TEXTSTYLE
  7
STANDARD
  9
$CLAYER
  8
0
  9
$CELTYPE
  6
BYLAYER
  9
$CECOLOR
 62
   256
  9
$DIMSCALE
 40
1.0
  9
$DIMASZ
 40
0.1875
  9
$DIMEXO
 40
0.0625
  9
$DIMDLI
 40
0.4443307087
  9
$DIMRND
 40
0.0
  9
$DIMDLE
 40
0.0
  9
$DIMEXE
 40
0.125
  9
$DIMTP
 40
0.01
  9
$DIMTM
 40
0.01
  9
$DIMTXT
 40
2.0
  9
$DIMCEN
 40
0.1052362205
  9
$DIMTSZ
 40
0.0
  9
$DIMTOL
 70
     1
  9
$DIMLIM
 70
     0
  9
$DIMTIH
 70
     1
  9
$DIMTOH
 70
     1
  9
$DIMSE1
 70
     0
  9
$DIMSE2
 70
     0
  9
$DIMTAD
 70
     0
  9
$DIMZIN
 70
     0
  9
$DIMBLK
  1

  9
$DIMASO
 70
     1
  9
$DIMSHO
 70
     1
  9
$DIMPOST
  1
\X
  9
$DIMAPOST
  1

  9
$DIMALT
 70
     1
  9
$DIMALTD
 70
     2
  9
$DIMALTF
 40
25.3999999999999986
  9
$DIMLFAC
 40
1.0
  9
$DIMTOFL
 70
     0
  9
$DIMTVP
 40
0.0
  9
$DIMTIX
 70
     0
  9
$DIMSOXD
 70
     0
  9
$DIMSAH
 70
     0
  9
$DIMBLK1
  1

  9
$DIMBLK2
  1

  9
$DIMSTYLE
  2
STANDARD
  9
$DIMCLRD
 70
     0
  9
$DIMCLRE
 70
     0
  9
$DIMCLRT
 70
     0
  9
$DIMTFAC
 40
1.0
  9
$DIMGAP
 40
0.09
  9
$LUNITS
 70
     2
  9
$LUPREC
 70
     4
  9
$SKETCHINC
 40
0.1
  9
$FILLETRAD
 40
0.0
  9
$AUNITS
 70
     0
  9
$AUPREC
 70
     0
  9
$MENU
  1
.
  9
$ELEVATION
 40
0.0
  9
$PELEVATION
 40
0.0
  9
$THICKNESS
 40
0.0
  9
$LIMCHECK
 70
     0
  9
$BLIPMODE
 70
     0
  9
$CHAMFERA
 40
0.0
  9
$CHAMFERB
 40
0.0
  9
$SKPOLY
 70
     0
  9
$TDCREATE
 40
2458060.468368056230247
  9
$TDUPDATE
 40
2459437.7836805549450219
  9
$TDINDWG
 40
0.4109561343
  9
$TDUSRTIMER
 40
0.4109561343
  9
$USRTIMER
 70
     1
  9
$ANGBASE
 50
0.0
  9
$ANGDIR
 70
     0
  9
$PDMODE
 70
     0
  9
$PDSIZE
 40
0.3125
  9
$PLINEWID
 40
0.0
  9
$COORDS
 70
     1
  9
$SPLFRAME
 70
     0
  9
$SPLINETYPE
 70
     6
  9
$SPLINESEGS
 70
     8
  9
$ATTDIA
 70
     1
  9
$ATTREQ
 70
     1
  9
$HANDLING
 70
     1
  9
$HANDSEED
  5
B0A8
  9
$SURFTAB1
 70
     6
  9
$SURFTAB2
 70
     6
  9
$SURFTYPE
 70
     6
  9
$SURFU
 70
     6
  9
$SURFV
 70
     6
  9
$UCSNAME
  2

  9
$UCSORG
 10
0.0
 20
0.0
 30
0.0
  9
$UCSXDIR
 10
1.0
 20
0.0
 30
0.0
  9
$UCSYDIR
 10
0.0
 20
1.0
 30
0.0
  9
$PUCSNAME
  2

  9
$PUCSORG
 10
0.0
 20
0.0
 30
0.0
  9
$PUCSXDIR
 10
1.0
 20
0.0
 30
0.0
  9
$PUCSYDIR
 10
0.0
 20
1.0
 30
0.0
  9
$USERI1
 70
     0
  9
$USERI2
 70
     0
  9
$USERI3
 70
     0
  9
$USERI4
 70
     0
  9
$USERI5
 70
     0
  9
$USERR1
 40
0.0
  9
$USERR2
 40
0.0
  9
$USERR3
 40
0.0
  9
$USERR4
 40
0.0
  9
$USERR5
 40
0.0
  9
$WORLDVIEW
 70
     1
  9
$SHADEDGE
 70
     3
  9
$SHADEDIF
 70
    70
  9
$TILEMODE
 70
     1
  9
$MAXACTVP
 70
    64
  9
$PLIMCHECK
 70
     0
  9
$PEXTMIN
 10
1.0000000000000000E+20
 20
1.0000000000000000E+20
 30
1.0000000000000000E+20
  9
$PEXTMAX
 10
-1.0000000000000000E+20
 20
-1.0000000000000000E+20
 30
-1.0000000000000000E+20
  9
$PLIMMIN
 10
0.0
 20
0.0
  9
$PLIMMAX
 10
12.0
 20
9.0
  9
$UNITMODE
 70
     0
  9
$VISRETAIN
 70
     1
  9
$PLINEGEN
 70
     0
  9
$PSLTSCALE
 70
     1
  0
ENDSEC
  0
SECTION
  2
TABLES
  0
TABLE
  2
VPORT
 70
     1
  0
VPORT
  2
*ACTIVE
 70
     0
 10
0.0
 20
0.0
 11
1.0
 21
1.0
 12
1007.5943510289049527
 22
65.4962981823322394
 13
0.0
 23
0.0
 14
1.0
 24
1.0
 15
0.0
 25
0.0
 16
0.0
 26
0.0
 36
17.1152628219792007
 17
3803.5440673828129547
 27
125.9952621967499056
 37
0.0
 40
13.0593797146154191
 41
2.6486111111111108
 42
50.0
 43
0.0
 44
0.0
 50
0.0
 51
0.0
 71
     0
 72
   100
 73
     1
 74
     1
 75
     0
 76
     0
 77
     0
 78
     0
  0
ENDTAB
  0
TABLE
  2
LTYPE
 70
     2
  0
LTYPE
  2
CONTINUOUS
 70
     0
  3
Solid line
 72
    65
 73
     0
 40
0.0
  0
LTYPE
  2
PHANTOM2
 70
     0
  3
___ _ _ ___ _ _ ___ _ _ ___ _ _
 72
    65
 73
     6
 40
1.25
 49
0.625
 49
-0.125
 49
0.125
 49
-0.125
 49
0.125
 49
-0.125
  0
ENDTAB
  0
TABLE
  2
LAYER
 70
     2
  0
LAYER
  2
0
 70
     0
 62
   255
  6
CONTINUOUS
  0
LAYER
  2
DEFPOINTS
 70
     0
 62
     7
  6
CONTINUOUS
  0
ENDTAB
  0
TABLE
  2
STYLE
 70
     1
  0
STYLE
  2
STANDARD
 70
     0
 40
0.0
 41
0.8
 50
0.0
 71
     0
 42
0.2
  3
txt
  4

  0
ENDTAB
  0
TABLE
  2
VIEW
 70
     0
  0
ENDTAB
  0
TABLE
  2
UCS
 70
     0
  0
ENDTAB
  0
TABLE
  2
APPID
 70
     9
  0
APPID
  2
ACAD
 70
     0
  0
APPID
  2
ACAD_MLEADERVER
 70
     0
  0
APPID
  2
ACAD_EXEMPT_FROM_CAD_STANDARDS
 70
     0
  0
APPID
  2
ACAD_NAV_VCDISPLAY
 70
     0
  0
APPID
  2
ACAECLAYERSTANDARD
 70
     0
  0
APPID
  2
ACCMTRANSPARENCY
 70
     0
  0
APPID
  2
ACAD_DSTYLE_DIMJAG
 70
     0
  0
APPID
  2
ACAD_DSTYLE_DIMTALN
 70
     0
  0
APPID
  2
ACDBATTR
 70
     0
  0
ENDTAB
  0
TABLE
  2
DIMSTYLE
 70
     1
  0
DIMSTYLE
  2
STANDARD
 70
     0
  3

  4

  5

  6

  7

 40
1.0
 41
0.1875
 42
0.0625
 43
0.38
 44
0.125
 45
0.0
 46
0.0
 47
0.01
 48
0.01
140
0.15625
141
0.09
142
0.0
143
25.3999999999999986
144
1.0
145
0.0
146
1.0
147
0.09
 71
     1
 72
     0
 73
     1
 74
     1
 75
     0
 76
     0
 77
     0
 78
     4
170
     0
171
     2
172
     0
173
     0
174
     0
175
     0
176
     0
177
     0
178
     0
  0
ENDTAB
  0
ENDSEC
  0
SECTION
  2
BLOCKS
  0
BLOCK
  8
0
  2
$MODEL_SPACE
 70
     0
 10
0.0
 20
0.0
 30
0.0
  3
$MODEL_SPACE
  1

  0
ENDBLK
  5
21
  8
0
  0
BLOCK
 67
     1
  8
0
  2
$PAPER_SPACE
 70
     0
 10
0.0
 20
0.0
 30
0.0
  3
$PAPER_SPACE
  1

  0
ENDBLK
  5
1D
 67
     1
  8
0
  0
ENDSEC
  0
SECTION
  2
ENTITIES
  0
ATTDEF
  5
3930
  8
DEFPOINTS
 10
4811.2131234548032808
 20
194.1045060192336962
 30
0.0
 40
0.001
  1
K-78282T
  3

  2
MODELNUMBER
 70
     0
1001
ACDBATTR
1070
     0
1070
     1
  0
ATTDEF
  5
3931
  8
DEFPOINTS
 10
4811.2131234548032808
 20
194.1028393525670026
 30
0.0
 40
0.001
  1

  3

  2
TRADENAME
 70
     0
1001
ACDBATTR
1070
     0
1070
     1
  0
ATTDEF
  5
3932
  8
DEFPOINTS
 10
4811.2131234548032808
 20
194.101172685900309
 30
0.0
 40
0.001
  1
MEDICINE CABINET
  3

  2
PRODUCT
 70
     0
1001
ACDBATTR
1070
     0
1070
     1
  0
LINE
  5
ACE6
  8
0
 10
4794.2497684936060978
 20
188.9895838095721956
 30
0.0
 11
4794.2497684936060978
 21
188.8995838095721922
 31
0.0
  0
LINE
  5
ACE7
  8
0
 10
4794.2787547141051618
 20
189.0171428646721949
 30
0.0
 11
4794.2787547141051618
 21
189.9611428646722118
 31
0.0
  0
LINE
  5
ACE8
  8
0
 10
4794.2938925094058504
 20
190.552048376472186
 30
0.0
 11
4794.2938925094058504
 21
190.2620483764721939
 31
0.0
  0
LINE
  5
ACE9
  8
0
 10
4794.2954732180060091
 20
190.5867334158720894
 30
0.0
 11
4794.2954732180060091
 21
193.9725601874721974
 31
0.0
  0
LINE
  5
ACEA
  8
0
 10
4794.3151582574073473
 20
190.5670483764722007
 30
0.0
 11
4794.3151582574073473
 21
193.9922452268720861
 31
0.0
  0
LINE
  5
ACEB
  8
0
 10
4794.3608925094058577
 20
190.3290483764722012
 30
0.0
 11
4794.3608925094058577
 21
190.4850483764722071
 31
0.0
  0
LINE
  5
ACEC
  8
0
 10
4794.3944043204055561
 20
190.0108279692720998
 30
0.0
 11
4794.3944043204055561
 21
189.9911430041721871
 31
0.0
  0
LINE
  5
ACED
  8
0
 10
4794.3988925094063234
 20
190.5150483764720946
 30
0.0
 11
4794.3988925094063234
 21
190.552048376472186
 31
0.0
  0
LINE
  5
ACEE
  8
0
 10
4794.4135834542066732
 20
190.5670483764722007
 30
0.0
 11
4794.4135834542066732
 21
193.9922452268720861
 31
0.0
  0
LINE
  5
ACEF
  8
0
 10
4794.4711425094055812
 20
193.8370483764720973
 30
0.0
 11
4794.4711425094055812
 21
191.087048376472211
 31
0.0
  0
LINE
  5
ACF0
  8
0
 10
4794.8983413283049231
 20
190.1092531008721949
 30
0.0
 11
4794.8983413283049231
 21
190.1486231795722119
 31
0.0
  0
LINE
  5
ACF1
  8
0
 10
4795.0243255802060958
 20
189.9911428646722129
 30
0.0
 11
4795.0243255802060958
 21
190.0777570378722032
 31
0.0
  0
LINE
  5
ACF2
  8
0
 10
4795.0438925094058504
 20
194.0920483764720927
 30
0.0
 11
4795.0438925094058504
 21
193.8680483764721885
 31
0.0
  0
LINE
  5
ACF3
  8
0
 10
4795.1108925094058577
 20
193.9350483764721957
 30
0.0
 11
4795.1108925094058577
 21
194.0920483764720927
 31
0.0
  0
LINE
  5
ACF4
  8
0
 10
4795.2337822731060442
 20
194.0460326284720907
 30
0.0
 11
4795.2337822731060442
 21
193.967292470972211
 31
0.0
  0
LINE
  5
ACF5
  8
0
 10
4795.2888925094066508
 20
191.087048376472211
 30
0.0
 11
4795.2888925094066508
 21
191.0045310140721995
 31
0.0
  0
LINE
  5
ACF6
  8
0
 10
4795.2920421157059536
 20
190.1879932583721882
 30
0.0
 11
4795.2920421157059536
 21
190.2470483764720939
 31
0.0
  0
LINE
  5
ACF7
  8
0
 10
4795.2920421157059536
 20
191.0344499512721939
 30
0.0
 11
4795.2920421157059536
 21
191.087048376472211
 31
0.0
  0
LINE
  5
ACF8
  8
0
 10
4795.3008834012061925
 20
190.992417773472198
 30
0.0
 11
4795.3008834012061925
 21
191.0344499512721939
 31
0.0
  0
LINE
  5
ACF9
  8
0
 10
4795.4098925094058359
 20
193.8370483764720973
 30
0.0
 11
4795.4098925094058359
 21
193.1720483764721905
 31
0.0
  0
LINE
  5
ACFA
  8
0
 10
4795.4098925094058359
 20
193.1720483764721905
 30
0.0
 11
4795.4098925094058359
 21
193.0620483764722053
 31
0.0
  0
LINE
  5
ACFB
  8
0
 10
4795.4098925094058359
 20
193.0620483764722053
 30
0.0
 11
4795.4098925094058359
 21
193.0320483764722042
 31
0.0
  0
LINE
  5
ACFC
  8
0
 10
4795.4098925094058359
 20
193.0320483764722042
 30
0.0
 11
4795.4098925094058359
 21
192.9220483764721905
 31
0.0
  0
LINE
  5
ACFD
  8
0
 10
4795.4098925094058359
 20
192.9220483764721905
 30
0.0
 11
4795.4098925094058359
 21
191.1720483764721905
 31
0.0
  0
LINE
  5
ACFE
  8
0
 10
4795.4098925094058359
 20
191.1720483764721905
 30
0.0
 11
4795.4098925094058359
 21
191.0620483764722053
 31
0.0
  0
LINE
  5
ACFF
  8
0
 10
4795.4098925094058359
 20
191.0320483764722042
 30
0.0
 11
4795.4098925094058359
 21
190.9220483764721905
 31
0.0
  0
LINE
  5
AD00
  8
0
 10
4795.4218925094055521
 20
193.0500483764722048
 30
0.0
 11
4795.4218925094055521
 21
193.0440483764720909
 31
0.0
  0
LINE
  5
AD01
  8
0
 10
4795.4218925094055521
 20
192.9220483764721905
 30
0.0
 11
4795.4218925094055521
 21
191.1720483764721905
 31
0.0
  0
LINE
  5
AD02
  8
0
 10
4795.4218925094055521
 20
191.0500483764722048
 30
0.0
 11
4795.4218925094055521
 21
191.0440483764720909
 31
0.0
  0
LINE
  5
AD03
  8
0
 10
4795.4218925094055521
 20
190.9220483764721905
 30
0.0
 11
4795.4218925094055521
 21
190.3290483764722012
 31
0.0
  0
LINE
  5
AD04
  8
0
 10
4795.4218925094055521
 20
193.1720483764721905
 30
0.0
 11
4795.4218925094055521
 21
193.8530483764722021
 31
0.0
  0
LINE
  5
AD05
  8
0
 10
4795.4488925094074148
 20
193.9250483764722048
 30
0.0
 11
4795.4488925094074148
 21
193.9200483764722094
 31
0.0
  0
LINE
  5
AD06
  8
0
 10
4795.4888925094055594
 20
192.9926333874722104
 30
0.0
 11
4795.4888925094055594
 21
192.9256333874722031
 31
0.0
  0
LINE
  5
AD07
  8
0
 10
4795.4888925094055594
 20
190.9910483764722073
 30
0.0
 11
4795.4888925094055594
 21
190.9240483764720864
 31
0.0
  0
LINE
  5
AD08
  8
0
 10
4795.4888925094055594
 20
190.2470483764720939
 30
0.0
 11
4795.4888925094055594
 21
190.0974420772722056
 31
0.0
  0
LINE
  5
AD09
  8
0
 10
4795.4888925094055594
 20
190.2470483764720939
 30
0.0
 11
4795.4888925094055594
 21
190.5320483764722042
 31
0.0
  0
LINE
  5
AD0A
  8
0
 10
4795.4888925094055594
 20
190.2620483764721939
 30
0.0
 11
4795.4888925094055594
 21
193.5675483764721889
 31
0.0
  0
LINE
  5
AD0B
  8
0
 10
4795.4888925094055594
 20
193.5675483764721889
 30
0.0
 11
4795.4888925094055594
 21
193.8095483764722076
 31
0.0
  0
LINE
  5
AD0C
  8
0
 10
4795.4888925094055594
 20
193.8095483764722076
 30
0.0
 11
4795.4888925094055594
 21
193.8330483764721919
 31
0.0
  0
LINE
  5
AD0D
  8
0
 10
4795.4888925094055594
 20
193.8330483764721919
 30
0.0
 11
4795.4888925094055594
 21
194.087048376472211
 31
0.0
  0
LINE
  5
AD0E
  8
0
 10
4795.5479476275058914
 20
190.1576482695693926
 30
0.0
 11
4795.5479476275058914
 21
190.2470483764720939
 31
0.0
  0
ARC
  5
AD0F
  8
0
 10
4795.5293476275055582
 20
190.1576482695693926
 30
0.0
 40
0.0186
 50
269.9999998545083031
 51
0.0
  0
LINE
  5
AD10
  8
0
 10
4795.8235381786062135
 20
190.1092531008721949
 30
0.0
 11
4795.8235381786062135
 21
190.2470483764720939
 31
0.0
  0
LINE
  5
AD11
  8
0
 10
4795.890467312506189
 20
190.0777570378722032
 30
0.0
 11
4795.890467312506189
 21
189.9911428646722129
 31
0.0
  0
LINE
  5
AD12
  8
0
 10
4796.0737547141070536
 20
189.257142864672204
 30
0.0
 11
4796.0737547141070536
 21
189.3625714878853046
 31
0.0
  0
LINE
  5
AD13
  8
0
 10
4794.9612485225061391
 20
190.0108279040721868
 30
0.0
 11
4794.9770814857065488
 21
190.0698830221720925
 31
0.0
  0
LINE
  5
AD14
  8
0
 10
4797.4487547141061441
 20
189.257142864672204
 30
0.0
 11
4797.4487547141061441
 21
189.3625717968722029
 31
0.0
  0
LINE
  5
AD15
  8
0
 10
4794.3151582574073473
 20
193.9922452268720861
 30
0.0
 11
4794.2954732180060091
 21
193.9725601874721974
 31
0.0
  0
LINE
  5
AD16
  8
0
 10
4794.2647684936064252
 20
188.8845838095722058
 30
0.0
 11
4794.2497684936060978
 21
188.8995838095721922
 31
0.0
  0
LINE
  5
AD17
  8
0
 10
4798.2127547141062678
 20
189.7551428646721945
 30
0.0
 11
4798.2127547141062678
 21
189.0045838095722104
 31
0.0
  0
LINE
  5
AD18
  8
0
 10
4798.4416484149060125
 20
190.8987089826721899
 30
0.0
 11
4798.4416484149060125
 21
190.9910483764722073
 31
0.0
  0
LINE
  5
AD19
  8
0
 10
4798.4416484149060125
 20
190.9922409524722013
 30
0.0
 11
4798.4416484149060125
 21
191.1480483764721896
 31
0.0
  0
LINE
  5
AD1A
  8
0
 10
4798.4416484149060125
 20
191.1501869038721964
 30
0.0
 11
4798.4416484149060125
 21
191.1553877702721991
 31
0.0
  0
LINE
  5
AD1B
  8
0
 10
4798.6207822731066699
 20
191.7412133750721921
 30
0.0
 11
4798.6207822731066699
 21
191.6427888896722038
 31
0.0
  0
LINE
  5
AD1C
  8
0
 10
4798.636530304605003
 20
191.8357019197721911
 30
0.0
 11
4798.636530304605003
 21
191.7727097936721918
 31
0.0
  0
LINE
  5
AD1D
  8
0
 10
4798.636530304605003
 20
191.6112924710722041
 30
0.0
 11
4798.636530304605003
 21
191.5483003449722048
 31
0.0
  0
LINE
  5
AD1E
  8
0
 10
4798.6384988086056183
 20
190.6368830221722135
 30
0.0
 11
4798.6384988086056183
 21
192.7471192425722109
 31
0.0
  0
LINE
  5
AD1F
  8
0
 10
4798.6778688873064311
 20
192.7471192425722109
 30
0.0
 11
4798.6778688873064311
 21
190.6368830221722135
 31
0.0
  0
LINE
  5
AD20
  8
0
 10
4795.2337822731060442
 20
194.0460326284720907
 30
0.0
 11
4795.2534673125055633
 21
194.0657176677721907
 31
0.0
  0
LINE
  5
AD21
  8
0
 10
4794.3151582574073473
 20
190.5670483764722007
 30
0.0
 11
4794.2954732180060091
 21
190.5867334158720894
 31
0.0
  0
LINE
  5
AD22
  8
0
 10
4795.4098925094058359
 20
193.0320483764722042
 30
0.0
 11
4795.4218925094055521
 21
193.0440483764720909
 31
0.0
  0
LINE
  5
AD23
  8
0
 10
4795.4218925094055521
 20
191.0500483764722048
 30
0.0
 11
4795.4098925094058359
 21
191.0620483764722053
 31
0.0
  0
LINE
  5
AD24
  8
0
 10
4795.3030640067063359
 20
190.9901112863720982
 30
0.0
 11
4795.2888925094066508
 21
191.0045310140721995
 31
0.0
  0
LINE
  5
AD25
  8
0
 10
4795.3030640067063359
 20
190.9901112863720982
 30
0.0
 11
4795.3030361839073521
 21
190.9901403078721955
 31
0.0
  0
LINE
  5
AD26
  8
0
 10
4795.3010606961070152
 20
190.9922268311721893
 30
0.0
 11
4795.3008833774056257
 21
190.9924177739721927
 31
0.0
  0
LINE
  5
AD27
  8
0
 10
4795.4098925094058359
 20
191.0320483764722042
 30
0.0
 11
4795.4218925094055521
 21
191.0440483764720909
 31
0.0
  0
LINE
  5
AD28
  8
0
 10
4794.2497684936060978
 20
188.9895838095721956
 30
0.0
 11
4794.2647684936064252
 21
189.0045838095722104
 31
0.0
  0
LINE
  5
AD29
  8
0
 10
4796.7613943244059556
 20
189.9823560680721926
 30
0.0
 11
4796.9888207313060775
 21
189.754929661172099
 31
0.0
  0
LINE
  5
AD2A
  8
0
 10
4795.4218925094055521
 20
193.0500483764722048
 30
0.0
 11
4795.4098925094058359
 21
193.0620483764722053
 31
0.0
  0
LINE
  5
AD2B
  8
0
 10
4795.2337822731060442
 20
193.967292470972211
 30
0.0
 11
4795.2534673125055633
 21
193.9476074315722087
 31
0.0
  0
LINE
  5
AD2C
  8
0
 10
4804.7566090448062823
 20
190.6368830221722135
 30
0.0
 11
4804.7566090448062823
 21
192.7471192425722109
 31
0.0
  0
LINE
  5
AD2D
  8
0
 10
4804.7959791235070952
 20
192.7471192425722109
 30
0.0
 11
4804.7959791235070952
 21
190.6368830221722135
 31
0.0
  0
LINE
  5
AD2E
  8
0
 10
4804.7979476275058914
 20
191.5483003449722048
 30
0.0
 11
4804.7979476275058914
 21
191.6112924710722041
 31
0.0
  0
LINE
  5
AD2F
  8
0
 10
4804.7979476275058914
 20
191.7727097936721918
 30
0.0
 11
4804.7979476275058914
 21
191.8357019197721911
 31
0.0
  0
LINE
  5
AD30
  8
0
 10
4804.8136956590069531
 20
191.6427885418721928
 30
0.0
 11
4804.8136956590069531
 21
191.7412137228722031
 31
0.0
  0
LINE
  5
AD31
  8
0
 10
4828.1690303046061672
 20
188.8745838095721865
 30
0.0
 11
4818.3240303046059125
 21
188.8745838095721865
 31
0.0
  0
LINE
  5
AD32
  8
0
 10
4794.2647684936064252
 20
188.8845838095722058
 30
0.0
 11
4818.2347684936057703
 21
188.8845838095722058
 31
0.0
  0
LINE
  5
AD33
  8
0
 10
4828.1690303046061672
 20
188.9945838095721911
 30
0.0
 11
4818.3240303046059125
 21
188.9945838095721911
 31
0.0
  0
LINE
  5
AD34
  8
0
 10
4828.1690303431059874
 20
189.0021428646722086
 30
0.0
 11
4824.2800303046060435
 21
189.0021428646722086
 31
0.0
  0
LINE
  5
AD35
  8
0
 10
4824.2500303046062982
 20
189.0021428646722086
 30
0.0
 11
4819.9573003046061785
 21
189.0021428646722086
 31
0.0
  0
LINE
  5
AD36
  8
0
 10
4794.2647684936064252
 20
189.0045838095722104
 30
0.0
 11
4818.2347684936057703
 21
189.0045838095722104
 31
0.0
  0
LINE
  5
AD37
  8
0
 10
4814.2186182795057903
 20
189.0181460917721949
 30
0.0
 11
4814.2151208558061626
 21
189.0181460917721949
 31
0.0
  0
LINE
  5
AD38
  8
0
 10
4798.2110316390062508
 20
189.0221428646721904
 30
0.0
 11
4798.2127547141062678
 21
189.0221428646721904
 31
0.0
  0
LINE
  5
AD39
  8
0
 10
4824.2500303046062982
 20
189.0221428646721904
 30
0.0
 11
4824.2517684449057924
 21
189.0221428646721904
 31
0.0
  0
LINE
  5
AD3A
  8
0
 10
4796.0787547141062532
 20
189.2521428646722086
 30
0.0
 11
4797.443754714106035
 21
189.2521428646722086
 31
0.0
  0
LINE
  5
AD3B
  8
0
 10
4796.0787547141062532
 20
189.2642139324721882
 30
0.0
 11
4797.443754714106035
 21
189.2642139324721882
 31
0.0
  0
LINE
  5
AD3C
  8
0
 10
4809.9219771550060614
 20
189.8113873678721859
 30
0.0
 11
4809.930566709105733
 21
189.9621428637721863
 31
0.0
  0
LINE
  5
AD3D
  8
0
 10
4796.0787547192840066
 20
189.3731783856721904
 30
0.0
 11
4797.4437547139050366
 21
189.3731783985720938
 31
0.0
  0
LINE
  5
AD3E
  8
0
 10
4819.9534337715049332
 20
189.7232531008721992
 30
0.0
 11
4819.9573003046061785
 21
189.7232531008721992
 31
0.0
  0
LINE
  5
AD3F
  8
0
 10
4824.2500303046062982
 20
189.7232531008721992
 30
0.0
 11
4824.2509066672064364
 21
189.7232531008721992
 31
0.0
  0
LINE
  5
AD40
  8
0
 10
4814.2221418060062206
 20
189.7354092597722115
 30
0.0
 11
4814.2151208558061626
 21
189.7354092597722115
 31
0.0
  0
LINE
  5
AD41
  8
0
 10
4819.343451273406572
 20
189.7385870366721861
 30
0.0
 11
4819.9273003046064332
 21
189.7385870366721861
 31
0.0
  0
LINE
  5
AD42
  8
0
 10
4797.0100339347063709
 20
189.7461428646722084
 30
0.0
 11
4798.1827547141056129
 21
189.7461428646722084
 31
0.0
  0
LINE
  5
AD43
  8
0
 10
4824.2800303046060435
 20
189.7461428646722084
 30
0.0
 11
4825.452751084006195
 21
189.7461428646722084
 31
0.0
  0
LINE
  5
AD44
  8
0
 10
4814.2451208558049984
 20
189.7461460917720899
 30
0.0
 11
4817.20544988700658
 21
189.7461460917720899
 31
0.0
  0
LINE
  5
AD45
  8
0
 10
4798.2127547141062678
 20
189.7551428646721945
 30
0.0
 11
4814.2151208558061626
 21
189.7551428646721945
 31
0.0
  0
LINE
  5
AD46
  8
0
 10
4819.9573003046061785
 20
189.7551428646721945
 30
0.0
 11
4824.2500303046062982
 21
189.7551428646721945
 31
0.0
  0
LINE
  5
AD47
  8
0
 10
4812.037489066069611
 20
189.7971662520778011
 30
0.0
 11
4810.1715723470060766
 21
189.7971662518721985
 31
0.0
  0
LINE
  5
AD48
  8
0
 10
4817.1868972443062376
 20
189.8079450562721888
 30
0.0
 11
4813.8794226789059394
 21
189.8079450557721941
 31
0.0
  0
LINE
  5
AD49
  8
0
 10
4813.8759803663442653
 20
189.8113873683338966
 30
0.0
 11
4809.9219771550060614
 21
189.8113873678721859
 31
0.0
  0
LINE
  5
AD4A
  8
0
 10
4817.4265656993065932
 20
189.9004497214721994
 30
0.0
 11
4817.4182828731063637
 21
189.9004497095722002
 31
0.0
  0
LINE
  5
AD4B
  8
0
 10
4817.4471060464056791
 20
189.9154474250721023
 30
0.0
 11
4817.4209203101063395
 21
189.9154474250721023
 31
0.0
  0
LINE
  5
AD4C
  8
0
 10
4817.1759203101064486
 20
189.9154474250721023
 30
0.0
 11
4817.2735340000072028
 21
189.9154474250721023
 31
0.0
  0
LINE
  5
AD4D
  8
0
 10
4817.16875687913398
 20
189.9226131407721141
 30
0.0
 11
4817.2806997056050022
 21
189.9226131405721958
 31
0.0
  0
ARC
  5
AD4E
  8
0
 10
4817.1687568791048761
 20
189.907613140772213
 30
0.0
 40
0.015
 50
89.999999897655556
 51
180.0
  0
LINE
  5
AD4F
  8
0
 10
4817.4137545940066047
 20
189.9226131407721994
 30
0.0
 11
4817.4569199680063321
 21
189.9226131406722118
 31
0.0
  0
LINE
  5
AD50
  8
0
 10
4816.7638876009059459
 20
189.9621428645722006
 30
0.0
 11
4809.930566709105733
 21
189.9621428637721863
 31
0.0
  0
LINE
  5
AD51
  8
0
 10
4794.3087547141058167
 20
189.9911428646722129
 30
0.0
 11
4796.7401811210056621
 21
189.9911428646722129
 31
0.0
  0
LINE
  5
AD52
  8
0
 10
4825.7226038978060387
 20
189.9911428646722129
 30
0.0
 11
4828.1540303046058398
 21
189.9911428646722129
 31
0.0
  0
LINE
  5
AD53
  8
0
 10
4817.1056974310058649
 20
189.9971636874722094
 30
0.0
 11
4817.4587568790057048
 21
189.9971636874722094
 31
0.0
  0
ARC
  5
AD54
  8
0
 10
4817.1056974310058649
 20
189.9821636874721946
 30
0.0
 40
0.015
 50
90.0
 51
180.0
  0
LINE
  5
AD55
  8
0
 10
4818.4292803046064364
 20
190.0046451487721981
 30
0.0
 11
4818.9594935209070172
 21
190.0046451487721981
 31
0.0
  0
LINE
  5
AD56
  8
0
 10
4795.0243255802060958
 20
190.0108279040721868
 30
0.0
 11
4794.3944043204055561
 21
190.0108279692720998
 31
0.0
  0
LINE
  5
AD57
  8
0
 10
4817.5894076395061347
 20
190.0122042038721872
 30
0.0
 11
4818.1196208558058061
 21
190.0122042038721872
 31
0.0
  0
LINE
  5
AD58
  8
0
 10
4817.0973033190057322
 20
190.0687833085721934
 30
0.0
 11
4817.4672271550061851
 21
190.0687833085721934
 31
0.0
  0
ARC
  5
AD59
  8
0
 10
4817.0973033190057322
 20
190.053783308572207
 30
0.0
 40
0.015
 50
90.0
 51
180.0
  0
LINE
  5
AD5A
  8
0
 10
4795.0243255802060958
 20
190.0698830221720925
 30
0.0
 11
4794.9377114073058692
 21
190.0698830221720925
 31
0.0
  0
LINE
  5
AD5B
  8
0
 10
4795.8707822731066699
 20
190.0974420772722056
 30
0.0
 11
4795.0440106196074339
 21
190.0974420772722056
 31
0.0
  0
LINE
  5
AD5C
  8
0
 10
4795.529347627459174
 20
190.1390482695694004
 30
0.0
 11
4795.4888925094055594
 21
190.1390482696722017
 31
0.0
  0
LINE
  5
AD5D
  8
0
 10
4795.4888925094055594
 20
190.1486231795722119
 30
0.0
 11
4794.8983413283049231
 21
190.1486231795722119
 31
0.0
  0
LINE
  5
AD5E
  8
0
 10
4795.7841680999063101
 20
190.1616306496721904
 30
0.0
 11
4795.5873177062057948
 21
190.1616306496721904
 31
0.0
  0
LINE
  5
AD5F
  8
0
 10
4795.4888925094055594
 20
190.1879932583721882
 30
0.0
 11
4795.2920421157059536
 21
190.1879932583721882
 31
0.0
  0
LINE
  5
AD60
  8
0
 10
4794.3088925094052684
 20
190.2470483764720939
 30
0.0
 11
4795.4738925094061415
 21
190.2470483764720939
 31
0.0
  0
LINE
  5
AD61
  8
0
 10
4826.9738925094061415
 20
190.2470483764720939
 30
0.0
 11
4795.4888925094055594
 21
190.2470483764720939
 31
0.0
  0
LINE
  5
AD62
  8
0
 10
4795.4888925094055594
 20
190.2470483764720939
 30
0.0
 11
4795.4738925094061415
 21
190.2470483764720939
 31
0.0
  0
LINE
  5
AD63
  8
0
 10
4795.4068925094061342
 20
190.3140483764721864
 30
0.0
 11
4794.3758925094061851
 21
190.3140483764721864
 31
0.0
  0
LINE
  5
AD64
  8
0
 10
4810.1715723470060766
 20
189.7971662518721985
 30
0.0
 11
4809.9219771550060614
 21
189.8113873678721859
 31
0.0
  0
LINE
  5
AD65
  8
0
 10
4794.3758925094061851
 20
190.5000483764721935
 30
0.0
 11
4794.383892509405996
 21
190.5000483764721935
 31
0.0
  0
LINE
  5
AD66
  8
0
 10
4795.4888925094055594
 20
190.5470483764721905
 30
0.0
 11
4826.9738925094061415
 21
190.5470483764721905
 31
0.0
  0
LINE
  5
AD67
  8
0
 10
4804.7093649503058259
 20
190.5502688488722072
 30
0.0
 11
4798.7251129818059781
 21
190.5502688488722072
 31
0.0
  0
LINE
  5
AD68
  8
0
 10
4795.4218925094055521
 20
190.5670483764722007
 30
0.0
 11
4795.4888925094055594
 21
190.5670483764722007
 31
0.0
  0
LINE
  5
AD69
  8
0
 10
4794.4135834542066732
 20
190.5670483764722007
 30
0.0
 11
4794.3151582574073473
 21
190.5670483764722007
 31
0.0
  0
LINE
  5
AD6A
  8
0
 10
4794.3151582574073473
 20
190.5670483764722007
 30
0.0
 11
4794.3088925094052684
 21
190.5670483764722007
 31
0.0
  0
LINE
  5
AD6B
  8
0
 10
4798.7251129818059781
 20
190.5896389276722118
 30
0.0
 11
4804.7093649503058259
 21
190.5896389276722118
 31
0.0
  0
LINE
  5
AD6C
  8
0
 10
4798.4416484149060125
 20
190.8987089826721899
 30
0.0
 11
4795.4888925094055594
 21
190.8987089826721899
 31
0.0
  0
LINE
  5
AD6D
  8
0
 10
4795.4098925094058359
 20
190.9220483764721905
 30
0.0
 11
4795.4218925094055521
 21
190.9220483764721905
 31
0.0
  0
LINE
  5
AD6E
  8
0
 10
4795.4888925094055594
 20
190.9910483764722073
 30
0.0
 11
4798.4416484149060125
 21
190.9910483764722073
 31
0.0
  0
LINE
  5
AD6F
  8
0
 10
4795.4122940842062235
 20
191.0344499512721939
 30
0.0
 11
4795.2920421157059536
 21
191.0344499512721939
 31
0.0
  0
LINE
  5
AD70
  8
0
 10
4795.4888925094055594
 20
191.0741860691722138
 30
0.0
 11
4798.4416484149060125
 21
191.0741860691722138
 31
0.0
  0
LINE
  5
AD71
  8
0
 10
4794.4411425094058359
 20
191.087048376472211
 30
0.0
 11
4795.4098925094058359
 21
191.087048376472211
 31
0.0
  0
LINE
  5
AD72
  8
0
 10
4794.4411425094058359
 20
191.0890168803722133
 30
0.0
 11
4794.4135834542066732
 21
191.0890168803722133
 31
0.0
  0
LINE
  5
AD73
  8
0
 10
4795.4888925094055594
 20
191.1553877702721991
 30
0.0
 11
4798.4416484149060125
 21
191.1553877702721991
 31
0.0
  0
LINE
  5
AD74
  8
0
 10
4795.4218925094055521
 20
191.1720483764721905
 30
0.0
 11
4795.4098925094058359
 21
191.1720483764721905
 31
0.0
  0
LINE
  5
AD75
  8
0
 10
4798.636530304605003
 20
191.5483003449722048
 30
0.0
 11
4798.6384988086056183
 21
191.5483003449722048
 31
0.0
  0
LINE
  5
AD76
  8
0
 10
4804.7979476275058914
 20
191.5483003449722048
 30
0.0
 11
4804.7959791235070952
 21
191.5483003449722048
 31
0.0
  0
LINE
  5
AD77
  8
0
 10
4798.636530304605003
 20
191.5837334158721035
 30
0.0
 11
4798.6384988086056183
 21
191.5837334158721035
 31
0.0
  0
LINE
  5
AD78
  8
0
 10
4804.7979476275058914
 20
191.5837334158721035
 30
0.0
 11
4804.7959791235070952
 21
191.5837334158721035
 31
0.0
  0
LINE
  5
AD79
  8
0
 10
4795.3030640067063359
 20
190.9901112863720982
 30
0.0
 11
4795.4098925094058359
 21
190.9882465878721973
 31
0.0
  0
LINE
  5
AD7A
  8
0
 10
4795.4098925094058359
 20
190.9905126126722053
 30
0.0
 11
4795.3008833774056257
 21
190.9924177739721927
 31
0.0
  0
LINE
  5
AD7B
  8
0
 10
4818.0700052031061205
 20
189.0783178703721887
 30
0.0
 11
4818.1389329039056975
 21
189.0576299912721936
 31
0.0
  0
LINE
  5
AD7C
  8
0
 10
4798.636530304605003
 20
191.8002688488720935
 30
0.0
 11
4798.6384988086056183
 21
191.8002688488720935
 31
0.0
  0
LINE
  5
AD7D
  8
0
 10
4804.7979476275058914
 20
191.8002688488720935
 30
0.0
 11
4804.7959791235070952
 21
191.8002688488720935
 31
0.0
  0
LINE
  5
AD7E
  8
0
 10
4798.636530304605003
 20
191.8357019197721911
 30
0.0
 11
4798.6384988086056183
 21
191.8357019197721911
 31
0.0
  0
LINE
  5
AD7F
  8
0
 10
4804.7979476275058914
 20
191.8357019197721911
 30
0.0
 11
4804.7959791235070952
 21
191.8357019197721911
 31
0.0
  0
LINE
  5
AD80
  8
0
 10
4813.8794226789059394
 20
189.8079450557721941
 30
0.0
 11
4813.8759803663442653
 21
189.8113873683338966
 31
0.0
  0
LINE
  5
AD81
  8
0
 10
4804.7093649503058259
 20
192.7943633370722125
 30
0.0
 11
4798.7251129818059781
 21
192.7943633370722125
 31
0.0
  0
LINE
  5
AD82
  8
0
 10
4804.7093649503058259
 20
192.8337334158721887
 30
0.0
 11
4798.7251129818059781
 21
192.8337334158721887
 31
0.0
  0
LINE
  5
AD83
  8
0
 10
4826.9738925094061415
 20
192.8987089826721899
 30
0.0
 11
4795.4888925094055594
 21
192.8987089826721899
 31
0.0
  0
LINE
  5
AD84
  8
0
 10
4795.4098925094058359
 20
192.9220483764721905
 30
0.0
 11
4795.4218925094055521
 21
192.9220483764721905
 31
0.0
  0
LINE
  5
AD85
  8
0
 10
4795.4888925094055594
 20
192.9926333874722104
 30
0.0
 11
4826.9738925094061415
 21
192.9926333874722104
 31
0.0
  0
LINE
  5
AD86
  8
0
 10
4795.421892512004888
 20
193.0439552641722116
 30
0.0
 11
4795.4098925094058359
 21
193.0439549276721891
 31
0.0
  0
LINE
  5
AD87
  8
0
 10
4795.421892512004888
 20
193.0501422986721991
 30
0.0
 11
4795.4163979000049949
 21
193.0501424527722065
 31
0.0
  0
LINE
  5
AD88
  8
0
 10
4795.4163979000049949
 20
193.0501424527722065
 30
0.0
 11
4795.4098924960062504
 21
193.050142483172209
 31
0.0
  0
LINE
  5
AD89
  8
0
 10
4795.4888925094055594
 20
193.0752237809722089
 30
0.0
 11
4826.9738925094061415
 21
193.0752237809722089
 31
0.0
  0
LINE
  5
AD8A
  8
0
 10
4795.4888925094055594
 20
193.1350483764722128
 30
0.0
 11
4795.4098925094058359
 21
193.1350483764722128
 31
0.0
  0
LINE
  5
AD8B
  8
0
 10
4795.4888925094055594
 20
193.1553877702721991
 30
0.0
 11
4826.9738925094061415
 21
193.1553877702721991
 31
0.0
  0
LINE
  5
AD8C
  8
0
 10
4795.4098925094058359
 20
193.1720483764721905
 30
0.0
 11
4795.4218925094055521
 21
193.1720483764721905
 31
0.0
  0
LINE
  5
AD8D
  8
0
 10
4795.4218925094055521
 20
193.3282028496720955
 30
0.0
 11
4795.4888925094055594
 21
193.3282028496720955
 31
0.0
  0
LINE
  5
AD8E
  8
0
 10
4795.4218925094055521
 20
193.3879845411721874
 30
0.0
 11
4795.4888925094055594
 21
193.3879845334722063
 31
0.0
  0
LINE
  5
AD8F
  8
0
 10
4826.9738925094061415
 20
193.5675483764721889
 30
0.0
 11
4795.4888925094055594
 21
193.5675483764721889
 31
0.0
  0
LINE
  5
AD90
  8
0
 10
4795.4888925094055594
 20
193.8095483764722076
 30
0.0
 11
4826.9738925094061415
 21
193.8095483764722076
 31
0.0
  0
LINE
  5
AD91
  8
0
 10
4826.9738925094061415
 20
193.8330483764721919
 30
0.0
 11
4795.4888925094055594
 21
193.8330483764721919
 31
0.0
  0
LINE
  5
AD92
  8
0
 10
4795.4098925094058359
 20
193.8370483764720973
 30
0.0
 11
4794.4135834542066732
 21
193.8370483764720973
 31
0.0
  0
LINE
  5
AD93
  8
0
 10
4795.0588925094052684
 20
193.8530483764722021
 30
0.0
 11
4795.4218925094055521
 21
193.8530483764722021
 31
0.0
  0
LINE
  5
AD94
  8
0
 10
4795.4488925094074148
 20
193.9200483764722094
 30
0.0
 11
4795.1258925094061851
 21
193.9200483764722094
 31
0.0
  0
LINE
  5
AD95
  8
0
 10
4813.8474935505073518
 20
189.7971662522722056
 30
0.0
 11
4813.8474935505073518
 21
189.7551428646721945
 31
0.0
  0
LINE
  5
AD96
  8
0
 10
4813.8644249635062806
 20
189.7673383881721918
 30
0.0
 11
4813.8644249635062806
 21
189.7929473403721943
 31
0.0
  0
LINE
  5
AD97
  8
0
 10
4814.2151208558061626
 20
189.0045838095722104
 30
0.0
 11
4814.2151208558061626
 21
189.7551428646721945
 31
0.0
  0
LINE
  5
AD98
  8
0
 10
4795.4738925094061415
 20
193.9400483764721059
 30
0.0
 11
4795.4638925094050137
 21
193.9400483764721059
 31
0.0
  0
LINE
  5
AD99
  8
0
 10
4795.4888925094055594
 20
193.9476074315722087
 30
0.0
 11
4795.2534673125055633
 21
193.9476074315722087
 31
0.0
  0
LINE
  5
AD9A
  8
0
 10
4795.4888925094055594
 20
193.967292470972211
 30
0.0
 11
4795.2337822731060442
 21
193.967292470972211
 31
0.0
  0
LINE
  5
AD9B
  8
0
 10
4794.4135834542066732
 20
193.9922452268720861
 30
0.0
 11
4794.3151582574073473
 21
193.9922452268720861
 31
0.0
  0
LINE
  5
AD9C
  8
0
 10
4795.2337822731060442
 20
194.0460326284720907
 30
0.0
 11
4795.4888925094055594
 21
194.0460326284720907
 31
0.0
  0
LINE
  5
AD9D
  8
0
 10
4795.2534673125055633
 20
194.0657176677721907
 30
0.0
 11
4795.4888925094055594
 21
194.0657176677721907
 31
0.0
  0
LINE
  5
AD9E
  8
0
 10
4795.4888925094055594
 20
194.087048376472211
 30
0.0
 11
4826.9738925094061415
 21
194.087048376472211
 31
0.0
  0
LINE
  5
AD9F
  8
0
 10
4795.0958925094064398
 20
194.1070483764721928
 30
0.0
 11
4795.0588925094052684
 21
194.1070483764721928
 31
0.0
  0
LINE
  5
ADA0
  8
0
 10
4818.9771843668058864
 20
189.9988739326722111
 30
0.0
 11
4819.3257604275058839
 21
189.7443582527722015
 31
0.0
  0
LINE
  5
ADA1
  8
0
 10
4817.1537568791072772
 20
189.9076154152720903
 30
0.0
 11
4817.1609225947049708
 21
189.9004497095722002
 31
0.0
  0
LINE
  5
ADA2
  8
0
 10
4817.1759203101064486
 20
189.9154474250721023
 30
0.0
 11
4817.1687545940058044
 21
189.9226131407721994
 31
0.0
  0
LINE
  5
ADA3
  8
0
 10
4818.3240303046059125
 20
188.8745838095721865
 30
0.0
 11
4818.3090303046055851
 21
188.8895838095722013
 31
0.0
  0
LINE
  5
ADA4
  8
0
 10
4818.2347684936057703
 20
189.0045838095722104
 30
0.0
 11
4818.2497684936060978
 21
188.9895838095721956
 31
0.0
  0
LINE
  5
ADA5
  8
0
 10
4817.4209203101063395
 20
189.9154474250721023
 30
0.0
 11
4817.4137545940066047
 21
189.9226131407721994
 31
0.0
  0
LINE
  5
ADA6
  8
0
 10
4817.4753198039061317
 20
189.9360479322722028
 30
0.0
 11
4817.4737568790069417
 21
189.9376108560722116
 31
0.0
  0
LINE
  5
ADA7
  8
0
 10
4818.4099682565056355
 20
189.0500709361722045
 30
0.0
 11
4818.4788959574061664
 21
189.0707588152721996
 31
0.0
  0
LINE
  5
ADA8
  8
0
 10
4816.7717085903059342
 20
189.8248764691722101
 30
0.0
 11
4816.7638876009059459
 21
189.9621428645722006
 31
0.0
  0
LINE
  5
ADA9
  8
0
 10
4817.0823033190063143
 20
190.053783308572207
 30
0.0
 11
4817.0823033190063143
 21
189.824878804441795
 31
0.0
  0
LINE
  5
ADAA
  8
0
 10
4817.090697431006447
 20
189.824878804441795
 30
0.0
 11
4817.090697431006447
 21
189.9821636874721946
 31
0.0
  0
LINE
  5
ADAB
  8
0
 10
4817.2806997056050022
 20
189.9226131405721958
 30
0.0
 11
4817.2735340000072028
 21
189.9154474250721023
 31
0.0
  0
LINE
  5
ADAC
  8
0
 10
4817.223140733006403
 20
189.7519173078721906
 30
0.0
 11
4817.5717167936063561
 21
190.0064329877722002
 31
0.0
  0
LINE
  5
ADAD
  8
0
 10
4817.1537568791072772
 20
189.907613140772213
 30
0.0
 11
4817.1537568791072772
 21
189.824878804441795
 31
0.0
  0
LINE
  5
ADAE
  8
0
 10
4817.1609225947049708
 20
189.9004497095722002
 30
0.0
 11
4817.1609225947049708
 21
189.824878804441795
 31
0.0
  0
LINE
  5
ADAF
  8
0
 10
4817.4209203101063395
 20
189.9154474250721023
 30
0.0
 11
4817.4209203101063395
 21
189.8987909298720922
 31
0.0
  0
LINE
  5
ADB0
  8
0
 10
4817.4737568790069417
 20
189.9821636874721946
 30
0.0
 11
4817.4737568790069417
 21
189.9376108560722116
 31
0.0
  0
ARC
  5
ADB1
  8
0
 10
4817.4587568790057048
 20
189.9821636874721946
 30
0.0
 40
0.015
 50
0.0
 51
90.0
  0
LINE
  5
ADB2
  8
0
 10
4817.482227155005603
 20
189.9410913915722006
 30
0.0
 11
4817.482227155005603
 21
190.053783308572207
 31
0.0
  0
ARC
  5
ADB3
  8
0
 10
4817.4672271550061851
 20
190.053783308572207
 30
0.0
 40
0.015
 50
0.0
 51
90.0
  0
LINE
  5
ADB4
  8
0
 10
4818.1496208558055514
 20
189.9822042038721861
 30
0.0
 11
4818.1496208558055514
 21
189.9796918861721906
 31
0.0
  0
LINE
  5
ADB5
  8
0
 10
4818.1496208558055514
 20
189.0432631460722064
 30
0.0
 11
4818.1496208558055514
 21
189.0171428646721949
 31
0.0
  0
LINE
  5
ADB6
  8
0
 10
4818.1496208558055514
 20
189.0171428646721949
 30
0.0
 11
4818.1496208558055514
 21
189.0121428646721995
 31
0.0
  0
LINE
  5
ADB7
  8
0
 10
4818.3090303046055851
 20
188.9795838095722047
 30
0.0
 11
4818.3240303046059125
 21
188.9945838095721911
 31
0.0
  0
LINE
  5
ADB8
  8
0
 10
4818.2497684936060978
 20
188.8995838095721922
 30
0.0
 11
4818.2347684936057703
 21
188.8845838095722058
 31
0.0
  0
LINE
  5
ADB9
  8
0
 10
4818.2497684936060978
 20
188.9895838095721956
 30
0.0
 11
4818.2497684936060978
 21
188.8995838095721922
 31
0.0
  0
LINE
  5
ADBA
  8
0
 10
4818.3090303046055851
 20
188.8895838095722013
 30
0.0
 11
4818.3090303046055851
 21
188.9795838095722047
 31
0.0
  0
LINE
  5
ADBB
  8
0
 10
4818.3992803046057816
 20
189.0095838093722023
 30
0.0
 11
4818.3992803046057816
 21
189.0357040909721889
 31
0.0
  0
LINE
  5
ADBC
  8
0
 10
4818.3992803046057816
 20
189.9721328310722015
 30
0.0
 11
4818.3992803046057816
 21
189.974645148772197
 31
0.0
  0
LINE
  5
ADBD
  8
0
 10
4819.9573003046061785
 20
189.7551428646721945
 30
0.0
 11
4819.9573003046061785
 21
189.0021428646722086
 31
0.0
  0
LINE
  5
ADBE
  8
0
 10
4828.1690303046061672
 20
188.9945838095721911
 30
0.0
 11
4828.1840303046074041
 21
188.9795838095722047
 31
0.0
  0
LINE
  5
ADBF
  8
0
 10
4825.4739642875074424
 20
189.754929661172099
 30
0.0
 11
4825.7013906943057009
 21
189.9823560680721926
 31
0.0
  0
LINE
  5
ADC0
  8
0
 10
4824.2500303046062982
 20
189.0021428646722086
 30
0.0
 11
4824.2500303046062982
 21
189.7551428646721945
 31
0.0
  0
LINE
  5
ADC1
  8
0
 10
4828.1840303046074041
 20
188.8895838095722013
 30
0.0
 11
4828.1690303046061672
 21
188.8745838095721865
 31
0.0
  0
LINE
  5
ADC2
  8
0
 10
4826.9738925094061415
 20
190.2620483764721939
 30
0.0
 11
4826.9738925094061415
 21
193.5675483764721889
 31
0.0
  0
LINE
  5
ADC3
  8
0
 10
4828.1840303046074041
 20
189.9611428646722118
 30
0.0
 11
4828.1840303046074041
 21
189.0171428646721949
 31
0.0
  0
LINE
  5
ADC4
  8
0
 10
4828.1840303046074041
 20
188.8895838095722013
 30
0.0
 11
4828.1840303046074041
 21
188.9795838095722047
 31
0.0
  0
ARC
  5
ADC5
  8
0
 10
4795.0578720962066654
 20
189.9911428646722129
 30
0.0
 40
0.0393700787
 50
148.5745073934020013
 51
149.9401394001982055
  0
ARC
  5
ADC6
  8
0
 10
4794.3087547141058167
 20
189.9611428646722118
 30
0.0
 40
0.03
 50
89.9999999997915552
 51
180.0000000002002878
  0
ARC
  5
ADC7
  8
0
 10
4796.7401811210056621
 20
189.9611428646722118
 30
0.0
 40
0.03
 50
45.0000000013955983
 51
90.0
  0
ARC
  5
ADC8
  8
0
 10
4794.2937547141063988
 20
189.0171428646721949
 30
0.0
 40
0.015
 50
180.0
 51
236.9735927936170015
  0
ARC
  5
ADC9
  8
0
 10
4796.0787547141062532
 20
189.2692139324720983
 30
0.0
 40
0.005
 50
187.5000000000023022
 51
262.5000000000140972
  0
ARC
  5
ADCA
  8
0
 10
4796.0787547141062532
 20
189.2692139324720983
 30
0.0
 40
0.005
 50
180.0
 51
270.0
  0
ARC
  5
ADCB
  8
0
 10
4796.0787547141062532
 20
189.257142864672204
 30
0.0
 40
0.005
 50
180.0
 51
270.0
  0
ARC
  5
ADCC
  8
0
 10
4795.4048482713060366
 20
191.0888058322721861
 30
0.0
 40
0.1417722549
 50
222.9395587054029875
 51
223.7843549549936881
  0
ARC
  5
ADCD
  8
0
 10
4794.9377114070066455
 20
190.1092531008721949
 30
0.0
 40
0.0393700787
 50
180.0
 51
270.0
  0
ARC
  5
ADCE
  8
0
 10
4795.7841680999063101
 20
190.1092531008721949
 30
0.0
 40
0.0393700787
 50
342.5351051264933062
 51
0.0
  0
ARC
  5
ADCF
  8
0
 10
4795.0440106196074339
 20
190.0777570378722032
 30
0.0
 40
0.0196850394
 50
90.0
 51
180.0
  0
ARC
  5
ADD0
  8
0
 10
4795.8707822731066699
 20
190.0777570378722032
 30
0.0
 40
0.0196850394
 50
0.0
 51
90.0
  0
ARC
  5
ADD1
  8
0
 10
4794.383892509405996
 20
190.552048376472186
 30
0.0
 40
0.015
 50
0.0
 51
90.0
  0
ARC
  5
ADD2
  8
0
 10
4794.383892509405996
 20
190.5150483764720946
 30
0.0
 40
0.015
 50
270.0
 51
0.0
  0
ARC
  5
ADD3
  8
0
 10
4794.3758925094061851
 20
190.4850483764722071
 30
0.0
 40
0.015
 50
90.0
 51
180.0
  0
ARC
  5
ADD4
  8
0
 10
4794.3758925094061851
 20
190.3290483764722012
 30
0.0
 40
0.015
 50
180.0
 51
270.0
  0
ARC
  5
ADD5
  8
0
 10
4795.4068925094061342
 20
190.3290483764722012
 30
0.0
 40
0.015
 50
270.0
 51
0.0
  0
ARC
  5
ADD6
  8
0
 10
4795.4738925094061415
 20
190.2620483764721939
 30
0.0
 40
0.015
 50
270.0
 51
0.0
  0
ARC
  5
ADD7
  8
0
 10
4794.3088925094052684
 20
190.2620483764721939
 30
0.0
 40
0.015
 50
180.0
 51
270.0
  0
ARC
  5
ADD8
  8
0
 10
4794.3088925094052684
 20
190.552048376472186
 30
0.0
 40
0.015
 50
90.0
 51
180.0
  0
ARC
  5
ADD9
  8
0
 10
4797.0100339347063709
 20
189.7761428646722095
 30
0.0
 40
0.03
 50
224.999999998298108
 51
270.0
  0
ARC
  5
ADDA
  8
0
 10
4798.1827547141056129
 20
189.7161428646722072
 30
0.0
 40
0.03
 50
0.0
 51
89.999999999687347
  0
ARC
  5
ADDB
  8
0
 10
4798.1827547141056129
 20
189.032142864672096
 30
0.0
 40
0.03
 50
293.1445276594171219
 51
359.9999999995994244
  0
ARC
  5
ADDC
  8
0
 10
4797.443754714106035
 20
189.2692139324720983
 30
0.0
 40
0.005
 50
270.0
 51
0.0
  0
ARC
  5
ADDD
  8
0
 10
4797.443754714106035
 20
189.2692139324720983
 30
0.0
 40
0.005
 50
270.0
 51
0.0
  0
ARC
  5
ADDE
  8
0
 10
4797.443754714106035
 20
189.257142864672204
 30
0.0
 40
0.005
 50
270.0
 51
0.0
  0
ARC
  5
ADDF
  8
0
 10
4799.2369240054058537
 20
191.0482653308721979
 30
0.0
 40
0.5511811024000001
 50
244.623066474897314
 51
245.4140309941954001
  0
ARC
  5
ADE0
  8
0
 10
4799.2369240054058537
 20
191.0482653308721979
 30
0.0
 40
0.5511811024000001
 50
294.5859691213925089
 51
295.3769335252148949
  0
ARC
  5
ADE1
  8
0
 10
4798.7251129818059781
 20
190.6368830221722135
 30
0.0
 40
0.0866141732
 50
180.0000000012994974
 51
270.0000000020843913
  0
ARC
  5
ADE2
  8
0
 10
4798.7251129818059781
 20
190.6368830221722135
 30
0.0
 40
0.0472440945
 50
180.0000000056994907
 51
269.9999999944762976
  0
ARC
  5
ADE3
  8
0
 10
4799.2369240054058537
 20
192.3357369338721981
 30
0.0
 40
0.5511811024000001
 50
64.6230664747850625
 51
71.0675682076071524
  0
ARC
  5
ADE4
  8
0
 10
4799.2369240054058537
 20
192.3357369338721981
 30
0.0
 40
0.5511811024000001
 50
108.9324317923928049
 51
115.3769335251026007
  0
ARC
  5
ADE5
  8
0
 10
4799.2369240054058537
 20
192.3357369338721981
 30
0.0
 40
0.5511811024000001
 50
101.9324317924029941
 51
106.0675682075916058
  0
ARC
  5
ADE6
  8
0
 10
4799.2369240054058537
 20
192.3357369338721981
 30
0.0
 40
0.5511811024000001
 50
94.9324317924014167
 51
99.0675682075749506
  0
ARC
  5
ADE7
  8
0
 10
4799.2369240054058537
 20
192.3357369338721981
 30
0.0
 40
0.5511811024000001
 50
80.9324317924250352
 51
85.0675682075985833
  0
ARC
  5
ADE8
  8
0
 10
4799.2369240054058537
 20
192.3357369338721981
 30
0.0
 40
0.5511811024000001
 50
73.9324317924084369
 51
78.0675682075969348
  0
ARC
  5
ADE9
  8
0
 10
4799.2369240054058537
 20
192.3357369338721981
 30
0.0
 40
0.5511811024000001
 50
87.9325353951017092
 51
92.0674638386921771
  0
CIRCLE
  5
ADEA
  8
0
 10
4797.9298373912060924
 20
192.1368121559721942
 30
0.0
 40
0.3149606299
  0
ARC
  5
ADEB
  8
0
 10
4798.7251129818059781
 20
192.7471192425722109
 30
0.0
 40
0.0866141732
 50
89.9999999980198169
 51
179.9999999987998081
  0
ARC
  5
ADEC
  8
0
 10
4798.7251129818059781
 20
192.7471192425722109
 30
0.0
 40
0.0472440945
 50
90.0000000031787266
 51
179.9999999944990918
  0
ARC
  5
ADED
  8
0
 10
4798.6601523519066177
 20
191.6427885339722081
 30
0.0
 40
0.0393700787
 50
180.0
 51
236.6329870038630077
  0
ARC
  5
ADEE
  8
0
 10
4798.6601523519066177
 20
191.7412137307721878
 30
0.0
 40
0.0393700787
 50
123.3670129961370066
 51
180.0
  0
ARC
  5
ADEF
  8
0
 10
4795.0588925094052684
 20
193.8680483764721885
 30
0.0
 40
0.015
 50
180.0
 51
270.0
  0
ARC
  5
ADF0
  8
0
 10
4795.0588925094052684
 20
194.0920483764720927
 30
0.0
 40
0.015
 50
90.0
 51
180.0
  0
ARC
  5
ADF1
  8
0
 10
4795.0958925094064398
 20
194.0920483764720927
 30
0.0
 40
0.015
 50
0.0
 51
90.0
  0
ARC
  5
ADF2
  8
0
 10
4795.1258925094061851
 20
193.9350483764721957
 30
0.0
 40
0.015
 50
180.0
 51
270.0
  0
ARC
  5
ADF3
  8
0
 10
4795.4638925094050137
 20
193.9250483764722048
 30
0.0
 40
0.015
 50
90.0
 51
180.0
  0
ARC
  5
ADF4
  8
0
 10
4795.4738925094061415
 20
193.9250483764722048
 30
0.0
 40
0.015
 50
0.0
 51
90.0
  0
ARC
  5
ADF5
  8
0
 10
4799.0711806514063937
 20
192.8614076941721862
 30
0.0
 40
0.0137795276
 50
198.2162158959035025
 51
16.7837841057961796
  0
ARC
  5
ADF6
  8
0
 10
4799.1364792276062872
 20
192.8776884577721944
 30
0.0
 40
0.0137795276
 50
191.2162158915961072
 51
9.7837841051984391
  0
ARC
  5
ADF7
  8
0
 10
4799.4026673595062675
 20
192.8614076941721862
 30
0.0
 40
0.0137795276
 50
163.2162158955017901
 51
341.7837841029012225
  0
ARC
  5
ADF8
  8
0
 10
4799.3373687833063741
 20
192.8776884577721944
 30
0.0
 40
0.0137795276
 50
170.216215894899392
 51
348.7837841044021729
  0
ARC
  5
ADF9
  8
0
 10
4799.2705728067057862
 20
192.8858899723722118
 30
0.0
 40
0.0137795276
 50
177.21639006559829
 51
355.7837841063001747
  0
ARC
  5
ADFA
  8
0
 10
4799.2032752041059211
 20
192.8858899723722118
 30
0.0
 40
0.0137795276
 50
184.2162158934999923
 51
2.783608424801459
  0
ARC
  5
ADFB
  8
0
 10
4800.890467312506189
 20
191.057134722472199
 30
0.0
 40
0.5511811024000001
 50
246.867603600715313
 51
247.7347598498963066
  0
ARC
  5
ADFC
  8
0
 10
4800.890467312506189
 20
191.057134722472199
 30
0.0
 40
0.5511811024000001
 50
292.2650720688948809
 51
293.1323963992848007
  0
ARC
  5
ADFD
  8
0
 10
4804.1975539267059503
 20
191.0482653308721979
 30
0.0
 40
0.5511811024000001
 50
244.6230664747851051
 51
245.4140309941954001
  0
ARC
  5
ADFE
  8
0
 10
4804.1975539267059503
 20
191.0482653308721979
 30
0.0
 40
0.5511811024000001
 50
294.5859691212806979
 51
295.3769335251025723
  0
ARC
  5
ADFF
  8
0
 10
4802.5440106196056149
 20
191.057134722472199
 30
0.0
 40
0.5511811024000001
 50
246.8676036007784944
 51
247.7347598498963066
  0
ARC
  5
AE00
  8
0
 10
4802.5440106196056149
 20
191.057134722472199
 30
0.0
 40
0.5511811024000001
 50
292.2650720688948809
 51
293.1323963992848007
  0
ARC
  5
AE01
  8
0
 10
4804.7093649503058259
 20
190.6368830221722135
 30
0.0
 40
0.0866141732
 50
269.9999999980198027
 51
0.0
  0
ARC
  5
AE02
  8
0
 10
4804.7093649503058259
 20
190.6368830221722135
 30
0.0
 40
0.0472440945
 50
270.0000000031787977
 51
359.9999999944990918
  0
ARC
  5
AE03
  8
0
 10
4802.5440106196056149
 20
192.3268675422721969
 30
0.0
 40
0.5511811024000001
 50
66.8676036007152561
 51
71.6514607554016294
  0
ARC
  5
AE04
  8
0
 10
4802.5440106196056149
 20
192.3268675422721969
 30
0.0
 40
0.5511811024000001
 50
108.3486091591882001
 51
113.1323963992847013
  0
ARC
  5
AE05
  8
0
 10
4802.5440106196056149
 20
192.3268675422721969
 30
0.0
 40
0.5511811024000001
 50
101.4347707785075983
 51
106.1052857343134974
  0
ARC
  5
AE06
  8
0
 10
4802.5440106196056149
 20
192.3268675422721969
 30
0.0
 40
0.5511811024000001
 50
94.5335540879968477
 51
99.2344286128126924
  0
ARC
  5
AE07
  8
0
 10
4802.5440106196056149
 20
192.3268675422721969
 30
0.0
 40
0.5511811024000001
 50
87.6443457939963082
 51
92.3556542060036776
  0
ARC
  5
AE08
  8
0
 10
4802.5440106196056149
 20
192.3268675422721969
 30
0.0
 40
0.5511811024000001
 50
80.7655713871872933
 51
85.4664459120031665
  0
ARC
  5
AE09
  8
0
 10
4802.5440106196056149
 20
192.3268675422721969
 30
0.0
 40
0.5511811024000001
 50
73.8947142656864884
 51
78.5652292214923733
  0
ARC
  5
AE0A
  8
0
 10
4800.890467312506189
 20
192.3268675422721969
 30
0.0
 40
0.5511811024000001
 50
66.8676036007152561
 51
71.6514607554016294
  0
ARC
  5
AE0B
  8
0
 10
4800.890467312506189
 20
192.3268675422721969
 30
0.0
 40
0.5511811024000001
 50
108.3486091591882001
 51
113.1323963992847013
  0
ARC
  5
AE0C
  8
0
 10
4800.890467312506189
 20
192.3268675422721969
 30
0.0
 40
0.5511811024000001
 50
101.4347707785075983
 51
106.1052857343134974
  0
ARC
  5
AE0D
  8
0
 10
4800.890467312506189
 20
192.3268675422721969
 30
0.0
 40
0.5511811024000001
 50
94.5335540879968477
 51
99.2344286128126924
  0
ARC
  5
AE0E
  8
0
 10
4800.890467312506189
 20
192.3268675422721969
 30
0.0
 40
0.5511811024000001
 50
87.6443457939963082
 51
92.3556542060036776
  0
ARC
  5
AE0F
  8
0
 10
4800.890467312506189
 20
192.3268675422721969
 30
0.0
 40
0.5511811024000001
 50
80.7655713871872933
 51
85.4664459120031665
  0
ARC
  5
AE10
  8
0
 10
4800.890467312506189
 20
192.3268675422721969
 30
0.0
 40
0.5511811024000001
 50
73.8947142656864884
 51
78.5652292214923733
  0
ARC
  5
AE11
  8
0
 10
4800.7247239584057752
 20
192.8614076941721862
 30
0.0
 40
0.0137795276
 50
235.6892486701823941
 51
338.7646462203936721
  0
ARC
  5
AE12
  8
0
 10
4800.8568185112062565
 20
192.8858899723722118
 30
0.0
 40
0.0137795276
 50
223.964120196297813
 51
322.9250880964081034
  0
ARC
  5
AE13
  8
0
 10
4800.9909120903057556
 20
192.8776884577721944
 30
0.0
 40
0.0137795276
 50
209.4892406399875995
 51
309.8415599688127031
  0
ARC
  5
AE14
  8
0
 10
4801.0562106666056934
 20
192.8614076941721862
 30
0.0
 40
0.0137795276
 50
201.2353537796062994
 51
304.3080895917955218
  0
ARC
  5
AE15
  8
0
 10
4802.3782672655061106
 20
192.8614076941721862
 30
0.0
 40
0.0137795276
 50
235.6892486711143988
 51
338.7646462206059823
  0
ARC
  5
AE16
  8
0
 10
4802.5103618183056824
 20
192.8858899723722118
 30
0.0
 40
0.0137795276
 50
223.9641201965982873
 51
322.9250880964081034
  0
ARC
  5
AE17
  8
0
 10
4802.6444553974051814
 20
192.8776884577721944
 30
0.0
 40
0.0137795276
 50
209.4892406399875995
 51
309.8415599688127031
  0
ARC
  5
AE18
  8
0
 10
4802.7097539737060288
 20
192.8614076941721862
 30
0.0
 40
0.0137795276
 50
201.2353537794992917
 51
304.3080895928018208
  0
ARC
  5
AE19
  8
0
 10
4802.4435658418060484
 20
192.8776884577721944
 30
0.0
 40
0.0137795276
 50
230.1584400313080039
 51
330.5107593600124005
  0
ARC
  5
AE1A
  8
0
 10
4802.5776594209055474
 20
192.8858899723722118
 30
0.0
 40
0.0137795276
 50
217.0749119035918966
 51
316.0358798034894221
  0
ARC
  5
AE1B
  8
0
 10
4800.790022534705713
 20
192.8776884577721944
 30
0.0
 40
0.0137795276
 50
230.1584400313080039
 51
330.5107593601896951
  0
ARC
  5
AE1C
  8
0
 10
4800.9241161138061216
 20
192.8858899723722118
 30
0.0
 40
0.0137795276
 50
217.0749119035918966
 51
316.0358798034894221
  0
ARC
  5
AE1D
  8
0
 10
4804.7743255802060958
 20
191.6427885339722081
 30
0.0
 40
0.0393700787
 50
303.3670129961308248
 51
0.0
  0
ARC
  5
AE1E
  8
0
 10
4804.7743255802060958
 20
191.7412137307721878
 30
0.0
 40
0.0393700787
 50
0.0
 51
56.6329870038692604
  0
ARC
  5
AE1F
  8
0
 10
4804.1975539267059503
 20
192.3357369338721981
 30
0.0
 40
0.5511811024000001
 50
73.9324317925162404
 51
78.0675682075969348
  0
ARC
  5
AE20
  8
0
 10
4804.1975539267059503
 20
192.3357369338721981
 30
0.0
 40
0.5511811024000001
 50
80.9324317924250352
 51
85.0675682075985833
  0
ARC
  5
AE21
  8
0
 10
4804.1975539267059503
 20
192.3357369338721981
 30
0.0
 40
0.5511811024000001
 50
94.9324317924014167
 51
99.0675682075749506
  0
ARC
  5
AE22
  8
0
 10
4804.1975539267059503
 20
192.3357369338721981
 30
0.0
 40
0.5511811024000001
 50
101.9324317924029941
 51
106.0675682075916058
  0
ARC
  5
AE23
  8
0
 10
4804.1975539267059503
 20
192.3357369338721981
 30
0.0
 40
0.5511811024000001
 50
108.9324317923928049
 51
115.3769335251026007
  0
ARC
  5
AE24
  8
0
 10
4804.1975539267059503
 20
192.3357369338721981
 30
0.0
 40
0.5511811024000001
 50
64.6230664748973709
 51
71.0675682076071524
  0
ARC
  5
AE25
  8
0
 10
4804.1975539267059503
 20
192.3357369338721981
 30
0.0
 40
0.5511811024000001
 50
87.9325353952059743
 51
92.0674638387964137
  0
ARC
  5
AE26
  8
0
 10
4804.7093649503058259
 20
192.7471192425722109
 30
0.0
 40
0.0866141732
 50
0.0
 51
90.0000000030223788
  0
ARC
  5
AE27
  8
0
 10
4804.7093649503058259
 20
192.7471192425722109
 30
0.0
 40
0.0472440945
 50
0.0000000032992275
 51
89.9999999944763118
  0
ARC
  5
AE28
  8
0
 10
4804.0971091489063838
 20
192.8776884577721944
 30
0.0
 40
0.0137795276
 50
191.2162158915961072
 51
9.7837841051984391
  0
ARC
  5
AE29
  8
0
 10
4804.0318105726064459
 20
192.8614076941721862
 30
0.0
 40
0.0137795276
 50
198.2162158972062969
 51
16.7837841046971796
  0
ARC
  5
AE2A
  8
0
 10
4804.3632972807072292
 20
192.8614076941721862
 30
0.0
 40
0.0137795276
 50
163.2162158953948108
 51
341.7837841042040168
  0
ARC
  5
AE2B
  8
0
 10
4804.1639051254060178
 20
192.8858899723722118
 30
0.0
 40
0.0137795276
 50
184.2162158937989034
 51
2.783608424801459
  0
ARC
  5
AE2C
  8
0
 10
4804.2312027280058828
 20
192.8858899723722118
 30
0.0
 40
0.0137795276
 50
177.21639006559829
 51
355.7837841065988869
  0
ARC
  5
AE2D
  8
0
 10
4804.2979987045064263
 20
192.8776884577721944
 30
0.0
 40
0.0137795276
 50
170.216215894899392
 51
348.7837841044021729
  0
ARC
  5
AE2E
  8
0
 10
4814.1927018202059116
 20
188.9264908423722034
 30
0.0
 40
4.3337099381000002
 50
2.7055839774993782
 51
13.8642462654013503
  0
ARC
  5
AE2F
  8
0
 10
4814.2451208558049984
 20
189.032142864672096
 30
0.0
 40
0.03
 50
179.9999999993991082
 51
246.7273616918735968
  0
ARC
  5
AE30
  8
0
 10
4814.2451208558049984
 20
189.7161460917722025
 30
0.0
 40
0.03
 50
89.9999999993225543
 51
169.9663289412985137
  0
ARC
  5
AE31
  8
0
 10
4813.8794692117062368
 20
189.7929355513720964
 30
0.0
 40
0.0150442528
 50
163.6491446463049044
 51
179.955101656600192
  0
ARC
  5
AE32
  8
0
 10
4813.8794279436060606
 20
189.7673437237721998
 30
0.0
 40
0.0150027687
 50
180.0203764543990985
 51
234.4430029785889076
  0
ARC
  5
AE33
  8
0
 10
4818.4616477652061803
 20
189.1282261961721929
 30
0.0
 40
0.06
 50
286.7065412442975116
 51
2.7055839899001999
  0
ARC
  5
AE34
  8
0
 10
4818.0872533952060621
 20
189.1357852512722104
 30
0.0
 40
0.06
 50
177.2944160212001066
 51
253.2934587467817096
  0
ARC
  5
AE35
  8
0
 10
4818.1346208558061335
 20
189.0432631460722064
 30
0.0
 40
0.015
 50
52.5979537088975775
 51
54.9159733154145613
  0
ARC
  5
AE36
  8
0
 10
4818.1346208558061335
 20
189.0432631460722064
 30
0.0
 40
0.015
 50
18.3774853433082086
 51
20.6955058870958517
  0
ARC
  5
AE37
  8
0
 10
4818.414280304606109
 20
189.0095838095722058
 30
0.0
 40
0.015
 50
180.0000004019993014
 51
270.0000003631038794
  0
ARC
  5
AE38
  8
0
 10
4818.414280304606109
 20
189.0357040909721889
 30
0.0
 40
0.015
 50
106.7065416771023934
 51
180.0000000019996946
  0
ARC
  5
AE39
  8
0
 10
4818.1346208558061335
 20
189.0171428646721949
 30
0.0
 40
0.015
 50
303.0264035230053992
 51
0.0
  0
ARC
  5
AE3A
  8
0
 10
4818.1346208558061335
 20
189.0432631460722064
 30
0.0
 40
0.015
 50
0.0
 51
73.2934586918847941
  0
ARC
  5
AE3B
  8
0
 10
4818.1346208558061335
 20
189.0121428646721995
 30
0.0
 40
0.015
 50
329.7332858249085916
 51
0.0
  0
ARC
  5
AE3C
  8
0
 10
4817.3472271550062942
 20
189.7801428646722002
 30
0.0
 40
0.1397336045
 50
110.8198144084613972
 51
148.3758606684893948
  0
ARC
  5
AE3D
  8
0
 10
4817.3472271550062942
 20
189.7801428646722002
 30
0.0
 40
0.1397336045
 50
57.2793386731182892
 51
69.1539599017154529
  0
ARC
  5
AE3E
  8
0
 10
4817.3472271550062942
 20
189.7801428646722002
 30
0.0
 40
0.1228021916
 50
60.3684927753786269
 51
151.2958777483933943
  0
ARC
  5
AE3F
  8
0
 10
4817.3472271550062942
 20
189.7801428646722002
 30
0.0
 40
0.0977083704
 50
67.1925891865912917
 51
185.0983038606017033
  0
ARC
  5
AE40
  8
0
 10
4817.20544988700658
 20
189.7761460917722047
 30
0.0
 40
0.03
 50
270.0000000078165954
 51
306.1353579657833279
  0
ARC
  5
AE41
  8
0
 10
4817.1868731731055959
 20
189.8679754346721893
 30
0.0
 40
0.0600266544
 50
270.0229716473169219
 51
331.2738332748975267
  0
ARC
  5
AE42
  8
0
 10
4817.1771401313062597
 20
189.8848998481722106
 30
0.0
 40
0.0600210472
 50
270.0194818383869801
 51
328.3596533415895919
  0
ARC
  5
AE43
  8
0
 10
4817.5894076395061347
 20
189.9822042038721861
 30
0.0
 40
0.03
 50
90.0000000001042082
 51
126.135357957782702
  0
ARC
  5
AE44
  8
0
 10
4817.4209270783048851
 20
189.9004415972721915
 30
0.0
 40
0.0150056596
 50
90.0258424992952371
 51
156.9718828976068039
  0
ARC
  5
AE45
  8
0
 10
4817.273527226006081
 20
189.9004416120721999
 30
0.0
 40
0.0150056504
 50
23.3033341764191313
 51
89.9741544713817518
  0
ARC
  5
AE46
  8
0
 10
4817.1759257981066185
 20
189.9004442215722008
 30
0.0
 40
0.0150032318
 50
90.0209581928935307
 51
179.9790607875002024
  0
ARC
  5
AE47
  8
0
 10
4817.2806991558063601
 20
189.9076170930721901
 30
0.0
 40
0.0149900942
 50
8.9613557256987271
 51
89.9978814220821732
  0
ARC
  5
AE48
  8
0
 10
4817.4137508219073425
 20
189.9076278662722075
 30
0.0
 40
0.0149798602
 50
89.9855757390121909
 51
171.0804748334462033
  0
ARC
  5
AE49
  8
0
 10
4817.4587984558056633
 20
189.9376217258721908
 30
0.0
 40
0.0149584272
 50
348.594303980797406
 51
359.9583651490004854
  0
ARC
  5
AE4A
  8
0
 10
4818.1182778634065471
 20
189.9748328021721875
 30
0.0
 40
0.0313577862
 50
3.5353205651000481
 51
4.3487008343985201
  0
ARC
  5
AE4B
  8
0
 10
4818.118434767706276
 20
189.9748411900721976
 30
0.0
 40
0.0312006634
 50
0.0723702198998042
 51
3.5377139341008919
  0
ARC
  5
AE4C
  8
0
 10
4818.4301180523061703
 20
189.9722813870722007
 30
0.0
 40
0.0308521626
 50
180.1254070092005009
 51
183.4769044145998009
  0
ARC
  5
AE4D
  8
0
 10
4818.1188546068060532
 20
189.9748394035721901
 30
0.0
 40
0.030780827
 50
349.679011620997926
 51
0.0766827834994616
  0
ARC
  5
AE4E
  8
0
 10
4818.1193426095060204
 20
189.9747591011721966
 30
0.0
 40
0.0302863344
 50
346.1385963199001026
 51
349.6630660528986141
  0
ARC
  5
AE4F
  8
0
 10
4818.4292803046064364
 20
189.974645148772197
 30
0.0
 40
0.03
 50
90.0
 51
179.9999999547991933
  0
ARC
  5
AE50
  8
0
 10
4818.4292803046064364
 20
189.9721328310722015
 30
0.0
 40
0.03
 50
180.0
 51
193.8642461790983873
  0
ARC
  5
AE51
  8
0
 10
4818.1196208558058061
 20
189.9822042038721861
 30
0.0
 40
0.03
 50
0.0000000198002506
 51
90.0
  0
ARC
  5
AE52
  8
0
 10
4818.1196208558058061
 20
189.9796918861721906
 30
0.0
 40
0.03
 50
346.135753835699802
 51
0.0
  0
ARC
  5
AE53
  8
0
 10
4819.9273003046064332
 20
189.0245838095721922
 30
0.0
 40
0.03
 50
270.000000123605389
 51
0.0
  0
ARC
  5
AE54
  8
0
 10
4818.9594935209070172
 20
189.974645148772197
 30
0.0
 40
0.03
 50
53.864642178617558
 51
89.9999999998957776
  0
ARC
  5
AE55
  8
0
 10
4819.3434512735066164
 20
189.7685870366721872
 30
0.0
 40
0.03
 50
233.8646420342167005
 51
269.9999998782183752
  0
ARC
  5
AE56
  8
0
 10
4819.9273003046064332
 20
189.7085870366722133
 30
0.0
 40
0.03
 50
0.0000001231999306
 51
90.0000000002084306
  0
ARC
  5
AE57
  8
0
 10
4822.3561993403072847
 20
188.9340498974721925
 30
0.0
 40
4.3337099381000002
 50
166.1357537345053004
 51
177.2944160225997905
  0
ARC
  5
AE58
  8
0
 10
4822.3561993403072847
 20
188.929049897472197
 30
0.0
 40
4.3337099381000002
 50
166.1357526076033082
 51
177.2944160222012897
  0
ARC
  5
AE59
  8
0
 10
4824.2800303046060435
 20
189.7161428646722072
 30
0.0
 40
0.03
 50
90.0000000006774314
 51
169.9663289789004921
  0
ARC
  5
AE5A
  8
0
 10
4824.2800303046060435
 20
189.032142864672096
 30
0.0
 40
0.03
 50
180.0000000002002878
 51
269.9999999993746087
  0
ARC
  5
AE5B
  8
0
 10
4825.452751084006195
 20
189.7761428646722095
 30
0.0
 40
0.03
 50
270.0
 51
315.0000000020002062
  0
ARC
  5
AE5C
  8
0
 10
4825.7226038978060387
 20
189.9611428646722118
 30
0.0
 40
0.03
 50
89.999999999687347
 51
134.9999999986918908
  0
ARC
  5
AE5D
  8
0
 10
4828.1540303046058398
 20
189.9611428646722118
 30
0.0
 40
0.03
 50
0.0
 51
90.0000000001042082
  0
ARC
  5
AE5E
  8
0
 10
4828.1690303046061672
 20
189.0171428646721949
 30
0.0
 40
0.015
 50
270.0012004869864768
 51
0.0
  0
ARC
  5
AE5F
  8
0
 10
4813.3472271441060002
 20
284.8464110294722218
 30
0.0
 40
95.0582681653000066
 50
269.210538545027589
 51
270.301534423395708
  0
LINE
  5
AE60
  8
0
 10
4795.3030361839073521
 20
190.9901403078721955
 30
0.0
 11
4795.3024959119065898
 21
190.9907070781721927
 31
0.0
  0
ARC
  5
AE61
  8
0
 10
4797.4329666238636491
 20
189.3616110316951051
 30
0.0
 40
0.0158172963316076
 50
3.4823711282464149
 51
46.9964343551563033
  0
ARC
  5
AE62
  8
0
 10
4796.089542823148804
 20
189.3616110316951051
 30
0.0
 40
0.0158172963316076
 50
133.0036341289454072
 51
176.5187501992965906
  0
ARC
  5
AE63
  8
0
 10
4795.781507645559941
 20
190.214225092811688
 30
0.0
 40
0.0526616887925157
 50
272.895800051330184
 51
322.9512845978093765
  0
ARC
  5
AE64
  8
0
 10
4795.5823204531552619
 20
190.014435012139387
 30
0.0
 40
0.1472804408152876
 50
88.0555702152760773
 51
103.4963551269321016
  0
LINE
  5
AE65
  8
0
 10
4814.9796208558063881
 20
189.257142864672204
 30
0.0
 11
4814.9796208558063881
 21
189.3625714878853046
 31
0.0
  0
LINE
  5
AE66
  8
0
 10
4816.3546208558072976
 20
189.257142864672204
 30
0.0
 11
4816.3546208558072976
 21
189.3625717968722029
 31
0.0
  0
LINE
  5
AE67
  8
0
 10
4814.9846208558055878
 20
189.2521428646722086
 30
0.0
 11
4816.349620855806279
 21
189.2521428646722086
 31
0.0
  0
LINE
  5
AE68
  8
0
 10
4814.9846208558055878
 20
189.2642139324721882
 30
0.0
 11
4816.349620855806279
 21
189.2642139324721882
 31
0.0
  0
LINE
  5
AE69
  8
0
 10
4814.9846208609851601
 20
189.3731783856721904
 30
0.0
 11
4816.3496208556061902
 21
189.3731783985720938
 31
0.0
  0
ARC
  5
AE6A
  8
0
 10
4814.9846208558055878
 20
189.2692139324720983
 30
0.0
 40
0.005
 50
187.5000000000023022
 51
262.5000000000140972
  0
ARC
  5
AE6B
  8
0
 10
4814.9846208558055878
 20
189.2692139324720983
 30
0.0
 40
0.005
 50
180.0
 51
270.0
  0
ARC
  5
AE6C
  8
0
 10
4814.9846208558055878
 20
189.257142864672204
 30
0.0
 40
0.005
 50
180.0
 51
270.0
  0
ARC
  5
AE6D
  8
0
 10
4816.349620855806279
 20
189.2692139324720983
 30
0.0
 40
0.005
 50
270.0
 51
0.0
  0
ARC
  5
AE6E
  8
0
 10
4816.349620855806279
 20
189.2692139324720983
 30
0.0
 40
0.005
 50
270.0
 51
0.0
  0
ARC
  5
AE6F
  8
0
 10
4816.349620855806279
 20
189.257142864672204
 30
0.0
 40
0.005
 50
270.0
 51
0.0
  0
ARC
  5
AE70
  8
0
 10
4816.3388327655629837
 20
189.3616110316951051
 30
0.0
 40
0.0158172963316076
 50
3.4823711282464149
 51
46.9964343551563033
  0
ARC
  5
AE71
  8
0
 10
4814.9954089648490481
 20
189.3616110316951051
 30
0.0
 40
0.0158172963316076
 50
133.0036341289454072
 51
176.5187501992965906
  0
ARC
  5
AE72
  8
0
 10
4817.3471142591379248
 20
189.7650216075572018
 30
0.0
 40
0.1483098024286243
 50
77.371137953558943
 51
102.6149514427521012
  0
LINE
  5
AE73
  8
0
 10
4817.3889029736956218
 20
189.9114642760901859
 30
0.0
 11
4817.37953994606778
 21
189.9097433140273097
 31
0.0
  0
LINE
  5
AE74
  8
0
 10
4817.3056946408678414
 20
189.9114677653504941
 30
0.0
 11
4817.3147237095472519
 21
189.9097511822594129
 31
0.0
  0
ARC
  5
AE75
  8
0
 10
4817.3028930614173078
 20
189.8967317159232095
 30
0.0
 40
0.015
 50
79.2355407134292022
 51
110.8198144009353996
  0
ARC
  5
AE76
  8
0
 10
4817.39161460953801
 20
189.8967114109034924
 30
0.0
 40
0.015
 50
69.1539599095155779
 51
100.4149467083472018
  0
LINE
  5
AE77
  8
0
 10
4817.1771605397962048
 20
189.824878804441795
 30
0.0
 11
4816.7717084572514068
 21
189.824878804441795
 31
0.0
  0
LINE
  5
AE78
  8
0
 10
4817.4693634807226772
 20
189.9927702891899912
 30
0.0
 11
4817.4778337567240669
 21
190.0643899102900036
 31
0.0
  0
LINE
  5
AE79
  8
0
 10
4817.0950908292888926
 20
189.9927702891899912
 30
0.0
 11
4817.0866967172887598
 21
190.0643899102900036
 31
0.0
  0
LINE
  5
AE7A
  8
0
 10
4816.7717084572514068
 20
189.824878804441795
 30
0.0
 11
4815.9860017378041448
 21
189.8079450560906025
 31
0.0
  0
LINE
  5
AE7B
  8
0
 10
4828.1688925094058504
 20
190.552048376472186
 30
0.0
 11
4828.1688925094058504
 21
190.2620483764721939
 31
0.0
  0
LINE
  5
AE7C
  8
0
 10
4828.1673118008066012
 20
190.5867334158720894
 30
0.0
 11
4828.1673118008066012
 21
193.9725601874721974
 31
0.0
  0
LINE
  5
AE7D
  8
0
 10
4828.1476267614061726
 20
190.5670483764722007
 30
0.0
 11
4828.1476267614061726
 21
193.9922452268720861
 31
0.0
  0
LINE
  5
AE7E
  8
0
 10
4828.1018925094058432
 20
190.3290483764722012
 30
0.0
 11
4828.1018925094058432
 21
190.4850483764722071
 31
0.0
  0
LINE
  5
AE7F
  8
0
 10
4828.0683806984070543
 20
190.0108279692720998
 30
0.0
 11
4828.0683806984070543
 21
189.9911430041721871
 31
0.0
  0
LINE
  5
AE80
  8
0
 10
4828.0638925094071965
 20
190.5150483764720946
 30
0.0
 11
4828.0638925094071965
 21
190.552048376472186
 31
0.0
  0
LINE
  5
AE81
  8
0
 10
4828.0492015646059372
 20
190.5670483764722007
 30
0.0
 11
4828.0492015646059372
 21
193.9922452268720861
 31
0.0
  0
LINE
  5
AE82
  8
0
 10
4827.9916425094061196
 20
193.8370483764720973
 30
0.0
 11
4827.9916425094061196
 21
191.087048376472211
 31
0.0
  0
LINE
  5
AE83
  8
0
 10
4827.5644436905058683
 20
190.1092531008721949
 30
0.0
 11
4827.5644436905058683
 21
190.1486231795722119
 31
0.0
  0
LINE
  5
AE84
  8
0
 10
4827.4384594386074241
 20
189.9911428646722129
 30
0.0
 11
4827.4384594386074241
 21
190.0777570378722032
 31
0.0
  0
LINE
  5
AE85
  8
0
 10
4827.4188925094058504
 20
194.0920483764720927
 30
0.0
 11
4827.4188925094058504
 21
193.8680483764721885
 31
0.0
  0
LINE
  5
AE86
  8
0
 10
4827.3518925094058432
 20
193.9350483764721957
 30
0.0
 11
4827.3518925094058432
 21
194.0920483764720927
 31
0.0
  0
LINE
  5
AE87
  8
0
 10
4827.2290027457056567
 20
194.0460326284720907
 30
0.0
 11
4827.2290027457056567
 21
193.967292470972211
 31
0.0
  0
LINE
  5
AE88
  8
0
 10
4827.1738925094059596
 20
191.087048376472211
 30
0.0
 11
4827.1738925094059596
 21
191.0045310140721995
 31
0.0
  0
LINE
  5
AE89
  8
0
 10
4827.1707429031057472
 20
190.1879932583721882
 30
0.0
 11
4827.1707429031057472
 21
190.2470483764720939
 31
0.0
  0
LINE
  5
AE8A
  8
0
 10
4827.1707429031057472
 20
191.0344499512721939
 30
0.0
 11
4827.1707429031057472
 21
191.087048376472211
 31
0.0
  0
LINE
  5
AE8B
  8
0
 10
4827.1619016176073274
 20
190.992417773472198
 30
0.0
 11
4827.1619016176073274
 21
191.0344499512721939
 31
0.0
  0
LINE
  5
AE8C
  8
0
 10
4827.052892509405865
 20
193.8370483764720973
 30
0.0
 11
4827.052892509405865
 21
193.1720483764721905
 31
0.0
  0
LINE
  5
AE8D
  8
0
 10
4827.052892509405865
 20
193.1720483764721905
 30
0.0
 11
4827.052892509405865
 21
193.0620483764722053
 31
0.0
  0
LINE
  5
AE8E
  8
0
 10
4827.052892509405865
 20
193.0620483764722053
 30
0.0
 11
4827.052892509405865
 21
193.0320483764722042
 31
0.0
  0
LINE
  5
AE8F
  8
0
 10
4827.052892509405865
 20
193.0320483764722042
 30
0.0
 11
4827.052892509405865
 21
192.9220483764721905
 31
0.0
  0
LINE
  5
AE90
  8
0
 10
4827.052892509405865
 20
192.9220483764721905
 30
0.0
 11
4827.052892509405865
 21
191.1720483764721905
 31
0.0
  0
LINE
  5
AE91
  8
0
 10
4827.052892509405865
 20
191.1720483764721905
 30
0.0
 11
4827.052892509405865
 21
191.0620483764722053
 31
0.0
  0
LINE
  5
AE92
  8
0
 10
4827.052892509405865
 20
191.0320483764722042
 30
0.0
 11
4827.052892509405865
 21
190.9220483764721905
 31
0.0
  0
LINE
  5
AE93
  8
0
 10
4827.0408925094061487
 20
193.0500483764722048
 30
0.0
 11
4827.0408925094061487
 21
193.0440483764720909
 31
0.0
  0
LINE
  5
AE94
  8
0
 10
4827.0408925094061487
 20
192.9220483764721905
 30
0.0
 11
4827.0408925094061487
 21
191.1720483764721905
 31
0.0
  0
LINE
  5
AE95
  8
0
 10
4827.0408925094061487
 20
191.0500483764722048
 30
0.0
 11
4827.0408925094061487
 21
191.0440483764720909
 31
0.0
  0
LINE
  5
AE96
  8
0
 10
4827.0408925094061487
 20
190.9220483764721905
 30
0.0
 11
4827.0408925094061487
 21
190.3290483764722012
 31
0.0
  0
LINE
  5
AE97
  8
0
 10
4827.0408925094061487
 20
193.1720483764721905
 30
0.0
 11
4827.0408925094061487
 21
193.8530483764722021
 31
0.0
  0
LINE
  5
AE98
  8
0
 10
4827.0138925094051956
 20
193.9250483764722048
 30
0.0
 11
4827.0138925094051956
 21
193.9200483764722094
 31
0.0
  0
LINE
  5
AE99
  8
0
 10
4826.9738925094061415
 20
192.9926333874722104
 30
0.0
 11
4826.9738925094061415
 21
192.9256333874722031
 31
0.0
  0
LINE
  5
AE9A
  8
0
 10
4826.9738925094061415
 20
190.9910483764722073
 30
0.0
 11
4826.9738925094061415
 21
190.9240483764720864
 31
0.0
  0
LINE
  5
AE9B
  8
0
 10
4826.9738925094061415
 20
190.2470483764720939
 30
0.0
 11
4826.9738925094061415
 21
190.0974420772722056
 31
0.0
  0
LINE
  5
AE9C
  8
0
 10
4826.9738925094061415
 20
190.2470483764720939
 30
0.0
 11
4826.9738925094061415
 21
190.5320483764722042
 31
0.0
  0
LINE
  5
AE9D
  8
0
 10
4826.9738925094061415
 20
190.2620483764721939
 30
0.0
 11
4826.9738925094061415
 21
193.5675483764721889
 31
0.0
  0
LINE
  5
AE9E
  8
0
 10
4826.9738925094061415
 20
193.5675483764721889
 30
0.0
 11
4826.9738925094061415
 21
193.8095483764722076
 31
0.0
  0
LINE
  5
AE9F
  8
0
 10
4826.9738925094061415
 20
193.8095483764722076
 30
0.0
 11
4826.9738925094061415
 21
193.8330483764721919
 31
0.0
  0
LINE
  5
AEA0
  8
0
 10
4826.9738925094061415
 20
193.8330483764721919
 30
0.0
 11
4826.9738925094061415
 21
194.087048376472211
 31
0.0
  0
LINE
  5
AEA1
  8
0
 10
4826.9148373913058094
 20
190.1576482695693926
 30
0.0
 11
4826.9148373913058094
 21
190.2470483764720939
 31
0.0
  0
ARC
  5
AEA2
  8
0
 10
4826.9334373913061427
 20
190.1576482695693926
 30
0.0
 40
0.0186
 50
180.0
 51
270.0000001454916969
  0
LINE
  5
AEA3
  8
0
 10
4826.6392468402073064
 20
190.1092531008721949
 30
0.0
 11
4826.6392468402073064
 21
190.2470483764720939
 31
0.0
  0
LINE
  5
AEA4
  8
0
 10
4826.5723177063073308
 20
190.0777570378722032
 30
0.0
 11
4826.5723177063073308
 21
189.9911428646722129
 31
0.0
  0
LINE
  5
AEA5
  8
0
 10
4827.5015364963055617
 20
190.0108279040721868
 30
0.0
 11
4827.4857035331060615
 21
190.0698830221720925
 31
0.0
  0
LINE
  5
AEA6
  8
0
 10
4828.1476267614061726
 20
193.9922452268720861
 30
0.0
 11
4828.1673118008066012
 21
193.9725601874721974
 31
0.0
  0
LINE
  5
AEA7
  8
0
 10
4824.0211366039056884
 20
190.8987089826721899
 30
0.0
 11
4824.0211366039056884
 21
190.9910483764722073
 31
0.0
  0
LINE
  5
AEA8
  8
0
 10
4824.0211366039056884
 20
190.9922409524722013
 30
0.0
 11
4824.0211366039056884
 21
191.1480483764721896
 31
0.0
  0
LINE
  5
AEA9
  8
0
 10
4824.0211366039056884
 20
191.1501869038721964
 30
0.0
 11
4824.0211366039056884
 21
191.1553877702721991
 31
0.0
  0
LINE
  5
AEAA
  8
0
 10
4823.8420027457059405
 20
191.7412133750721921
 30
0.0
 11
4823.8420027457059405
 21
191.6427888896722038
 31
0.0
  0
LINE
  5
AEAB
  8
0
 10
4823.8262547142048788
 20
191.8357019197721911
 30
0.0
 11
4823.8262547142048788
 21
191.7727097936721918
 31
0.0
  0
LINE
  5
AEAC
  8
0
 10
4823.8262547142048788
 20
191.6112924710722041
 30
0.0
 11
4823.8262547142048788
 21
191.5483003449722048
 31
0.0
  0
LINE
  5
AEAD
  8
0
 10
4823.8242862102060826
 20
190.6368830221722135
 30
0.0
 11
4823.8242862102060826
 21
192.7471192425722109
 31
0.0
  0
LINE
  5
AEAE
  8
0
 10
4823.7849161315061792
 20
192.7471192425722109
 30
0.0
 11
4823.7849161315061792
 21
190.6368830221722135
 31
0.0
  0
LINE
  5
AEAF
  8
0
 10
4827.2290027457056567
 20
194.0460326284720907
 30
0.0
 11
4827.2093177063061376
 21
194.0657176677721907
 31
0.0
  0
LINE
  5
AEB0
  8
0
 10
4828.1476267614061726
 20
190.5670483764722007
 30
0.0
 11
4828.1673118008066012
 21
190.5867334158720894
 31
0.0
  0
LINE
  5
AEB1
  8
0
 10
4827.052892509405865
 20
193.0320483764722042
 30
0.0
 11
4827.0408925094061487
 21
193.0440483764720909
 31
0.0
  0
LINE
  5
AEB2
  8
0
 10
4827.0408925094061487
 20
191.0500483764722048
 30
0.0
 11
4827.052892509405865
 21
191.0620483764722053
 31
0.0
  0
LINE
  5
AEB3
  8
0
 10
4827.1597210121062744
 20
190.9901112863720982
 30
0.0
 11
4827.1738925094059596
 21
191.0045310140721995
 31
0.0
  0
LINE
  5
AEB4
  8
0
 10
4827.1597210121062744
 20
190.9901112863720982
 30
0.0
 11
4827.1597488349061678
 21
190.9901403078721955
 31
0.0
  0
LINE
  5
AEB5
  8
0
 10
4827.1617243227055951
 20
190.9922268311721893
 30
0.0
 11
4827.1619016414069847
 21
190.9924177739721927
 31
0.0
  0
LINE
  5
AEB6
  8
0
 10
4827.052892509405865
 20
191.0320483764722042
 30
0.0
 11
4827.0408925094061487
 21
191.0440483764720909
 31
0.0
  0
LINE
  5
AEB7
  8
0
 10
4827.0408925094061487
 20
193.0500483764722048
 30
0.0
 11
4827.052892509405865
 21
193.0620483764722053
 31
0.0
  0
LINE
  5
AEB8
  8
0
 10
4827.2290027457056567
 20
193.967292470972211
 30
0.0
 11
4827.2093177063061376
 21
193.9476074315722087
 31
0.0
  0
LINE
  5
AEB9
  8
0
 10
4817.706175974006328
 20
190.6368830221722135
 30
0.0
 11
4817.706175974006328
 21
192.7471192425722109
 31
0.0
  0
LINE
  5
AEBA
  8
0
 10
4817.6668058953064246
 20
192.7471192425722109
 30
0.0
 11
4817.6668058953064246
 21
190.6368830221722135
 31
0.0
  0
LINE
  5
AEBB
  8
0
 10
4817.6648373913058094
 20
191.5483003449722048
 30
0.0
 11
4817.6648373913058094
 21
191.6112924710722041
 31
0.0
  0
LINE
  5
AEBC
  8
0
 10
4817.6648373913058094
 20
191.7727097936721918
 30
0.0
 11
4817.6648373913058094
 21
191.8357019197721911
 31
0.0
  0
LINE
  5
AEBD
  8
0
 10
4817.6490893598056573
 20
191.6427885418721928
 30
0.0
 11
4817.6490893598056573
 21
191.7412137228722031
 31
0.0
  0
LINE
  5
AEBE
  8
0
 10
4827.4384594386074241
 20
190.0108279040721868
 30
0.0
 11
4828.0683806984070543
 21
190.0108279692720998
 31
0.0
  0
LINE
  5
AEBF
  8
0
 10
4827.4384594386074241
 20
190.0698830221720925
 30
0.0
 11
4827.5250736115058316
 21
190.0698830221720925
 31
0.0
  0
LINE
  5
AEC0
  8
0
 10
4826.5920027457059405
 20
190.0974420772722056
 30
0.0
 11
4827.4187743992051765
 21
190.0974420772722056
 31
0.0
  0
LINE
  5
AEC1
  8
0
 10
4826.9334373913534364
 20
190.1390482695694004
 30
0.0
 11
4826.9738925094061415
 21
190.1390482696722017
 31
0.0
  0
LINE
  5
AEC2
  8
0
 10
4826.9738925094061415
 20
190.1486231795722119
 30
0.0
 11
4827.5644436905058683
 21
190.1486231795722119
 31
0.0
  0
LINE
  5
AEC3
  8
0
 10
4826.6786169189063003
 20
190.1616306496721904
 30
0.0
 11
4826.875467312605906
 21
190.1616306496721904
 31
0.0
  0
LINE
  5
AEC4
  8
0
 10
4826.9738925094061415
 20
190.1879932583721882
 30
0.0
 11
4827.1707429031057472
 21
190.1879932583721882
 31
0.0
  0
LINE
  5
AEC5
  8
0
 10
4828.153892509407342
 20
190.2470483764720939
 30
0.0
 11
4826.9888925094055594
 21
190.2470483764720939
 31
0.0
  0
LINE
  5
AEC6
  8
0
 10
4827.0558925094055667
 20
190.3140483764721864
 30
0.0
 11
4828.0868925094073347
 21
190.3140483764721864
 31
0.0
  0
LINE
  5
AEC7
  8
0
 10
4828.0868925094073347
 20
190.5000483764721935
 30
0.0
 11
4828.0788925094057049
 21
190.5000483764721935
 31
0.0
  0
LINE
  5
AEC8
  8
0
 10
4817.7534200685049655
 20
190.5502688488722072
 30
0.0
 11
4823.7376720370057228
 21
190.5502688488722072
 31
0.0
  0
LINE
  5
AEC9
  8
0
 10
4827.0408925094061487
 20
190.5670483764722007
 30
0.0
 11
4826.9738925094061415
 21
190.5670483764722007
 31
0.0
  0
LINE
  5
AECA
  8
0
 10
4828.0492015646059372
 20
190.5670483764722007
 30
0.0
 11
4828.1476267614061726
 21
190.5670483764722007
 31
0.0
  0
LINE
  5
AECB
  8
0
 10
4828.1476267614061726
 20
190.5670483764722007
 30
0.0
 11
4828.153892509407342
 21
190.5670483764722007
 31
0.0
  0
LINE
  5
AECC
  8
0
 10
4823.7376720370057228
 20
190.5896389276722118
 30
0.0
 11
4817.7534200685049655
 21
190.5896389276722118
 31
0.0
  0
LINE
  5
AECD
  8
0
 10
4824.0211366039056884
 20
190.8987089826721899
 30
0.0
 11
4826.9738925094061415
 21
190.8987089826721899
 31
0.0
  0
LINE
  5
AECE
  8
0
 10
4827.052892509405865
 20
190.9220483764721905
 30
0.0
 11
4827.0408925094061487
 21
190.9220483764721905
 31
0.0
  0
LINE
  5
AECF
  8
0
 10
4826.9738925094061415
 20
190.9910483764722073
 30
0.0
 11
4824.0211366039056884
 21
190.9910483764722073
 31
0.0
  0
LINE
  5
AED0
  8
0
 10
4827.0504909346063869
 20
191.0344499512721939
 30
0.0
 11
4827.1707429031057472
 21
191.0344499512721939
 31
0.0
  0
LINE
  5
AED1
  8
0
 10
4826.9738925094061415
 20
191.0741860691722138
 30
0.0
 11
4824.0211366039056884
 21
191.0741860691722138
 31
0.0
  0
LINE
  5
AED2
  8
0
 10
4828.021642509405865
 20
191.087048376472211
 30
0.0
 11
4827.052892509405865
 21
191.087048376472211
 31
0.0
  0
LINE
  5
AED3
  8
0
 10
4828.021642509405865
 20
191.0890168803722133
 30
0.0
 11
4828.0492015646059372
 21
191.0890168803722133
 31
0.0
  0
LINE
  5
AED4
  8
0
 10
4826.9738925094061415
 20
191.1553877702721991
 30
0.0
 11
4824.0211366039056884
 21
191.1553877702721991
 31
0.0
  0
LINE
  5
AED5
  8
0
 10
4827.0408925094061487
 20
191.1720483764721905
 30
0.0
 11
4827.052892509405865
 21
191.1720483764721905
 31
0.0
  0
LINE
  5
AED6
  8
0
 10
4823.8262547142048788
 20
191.5483003449722048
 30
0.0
 11
4823.8242862102060826
 21
191.5483003449722048
 31
0.0
  0
LINE
  5
AED7
  8
0
 10
4817.6648373913058094
 20
191.5483003449722048
 30
0.0
 11
4817.6668058953064246
 21
191.5483003449722048
 31
0.0
  0
LINE
  5
AED8
  8
0
 10
4823.8262547142048788
 20
191.5837334158721035
 30
0.0
 11
4823.8242862102060826
 21
191.5837334158721035
 31
0.0
  0
LINE
  5
AED9
  8
0
 10
4817.6648373913058094
 20
191.5837334158721035
 30
0.0
 11
4817.6668058953064246
 21
191.5837334158721035
 31
0.0
  0
LINE
  5
AEDA
  8
0
 10
4827.1597210121062744
 20
190.9901112863720982
 30
0.0
 11
4827.052892509405865
 21
190.9882465878721973
 31
0.0
  0
LINE
  5
AEDB
  8
0
 10
4827.052892509405865
 20
190.9905126126722053
 30
0.0
 11
4827.1619016414069847
 21
190.9924177739721927
 31
0.0
  0
LINE
  5
AEDC
  8
0
 10
4823.8262547142048788
 20
191.8002688488720935
 30
0.0
 11
4823.8242862102060826
 21
191.8002688488720935
 31
0.0
  0
LINE
  5
AEDD
  8
0
 10
4817.6648373913058094
 20
191.8002688488720935
 30
0.0
 11
4817.6668058953064246
 21
191.8002688488720935
 31
0.0
  0
LINE
  5
AEDE
  8
0
 10
4823.8262547142048788
 20
191.8357019197721911
 30
0.0
 11
4823.8242862102060826
 21
191.8357019197721911
 31
0.0
  0
LINE
  5
AEDF
  8
0
 10
4817.6648373913058094
 20
191.8357019197721911
 30
0.0
 11
4817.6668058953064246
 21
191.8357019197721911
 31
0.0
  0
LINE
  5
AEE0
  8
0
 10
4817.7534200685049655
 20
192.7943633370722125
 30
0.0
 11
4823.7376720370057228
 21
192.7943633370722125
 31
0.0
  0
LINE
  5
AEE1
  8
0
 10
4817.7534200685049655
 20
192.8337334158721887
 30
0.0
 11
4823.7376720370057228
 21
192.8337334158721887
 31
0.0
  0
LINE
  5
AEE2
  8
0
 10
4827.052892509405865
 20
192.9220483764721905
 30
0.0
 11
4827.0408925094061487
 21
192.9220483764721905
 31
0.0
  0
LINE
  5
AEE3
  8
0
 10
4826.9738925094061415
 20
193.1350483764722128
 30
0.0
 11
4827.052892509405865
 21
193.1350483764722128
 31
0.0
  0
LINE
  5
AEE4
  8
0
 10
4827.052892509405865
 20
193.1720483764721905
 30
0.0
 11
4827.0408925094061487
 21
193.1720483764721905
 31
0.0
  0
LINE
  5
AEE5
  8
0
 10
4827.0408925094061487
 20
193.3282028496720955
 30
0.0
 11
4826.9738925094061415
 21
193.3282028496720955
 31
0.0
  0
LINE
  5
AEE6
  8
0
 10
4827.0408925094061487
 20
193.3879845411721874
 30
0.0
 11
4826.9738925094061415
 21
193.3879845334722063
 31
0.0
  0
LINE
  5
AEE7
  8
0
 10
4827.052892509405865
 20
193.8370483764720973
 30
0.0
 11
4828.0492015646059372
 21
193.8370483764720973
 31
0.0
  0
LINE
  5
AEE8
  8
0
 10
4827.403892509407342
 20
193.8530483764722021
 30
0.0
 11
4827.0408925094061487
 21
193.8530483764722021
 31
0.0
  0
LINE
  5
AEE9
  8
0
 10
4827.0138925094051956
 20
193.9200483764722094
 30
0.0
 11
4827.3368925094073347
 21
193.9200483764722094
 31
0.0
  0
LINE
  5
AEEA
  8
0
 10
4826.9888925094055594
 20
193.9400483764721059
 30
0.0
 11
4826.9988925094057777
 21
193.9400483764721059
 31
0.0
  0
LINE
  5
AEEB
  8
0
 10
4826.9738925094061415
 20
193.9476074315722087
 30
0.0
 11
4827.2093177063061376
 21
193.9476074315722087
 31
0.0
  0
LINE
  5
AEEC
  8
0
 10
4826.9738925094061415
 20
193.967292470972211
 30
0.0
 11
4827.2290027457056567
 21
193.967292470972211
 31
0.0
  0
LINE
  5
AEED
  8
0
 10
4828.0492015646059372
 20
193.9922452268720861
 30
0.0
 11
4828.1476267614061726
 21
193.9922452268720861
 31
0.0
  0
LINE
  5
AEEE
  8
0
 10
4827.2290027457056567
 20
194.0460326284720907
 30
0.0
 11
4826.9738925094061415
 21
194.0460326284720907
 31
0.0
  0
LINE
  5
AEEF
  8
0
 10
4827.2093177063061376
 20
194.0657176677721907
 30
0.0
 11
4826.9738925094061415
 21
194.0657176677721907
 31
0.0
  0
LINE
  5
AEF0
  8
0
 10
4827.3668925094061706
 20
194.1070483764721928
 30
0.0
 11
4827.403892509407342
 21
194.1070483764721928
 31
0.0
  0
ARC
  5
AEF1
  8
0
 10
4827.4049129226059449
 20
189.9911428646722129
 30
0.0
 40
0.0393700787
 50
30.0598605998017696
 51
31.4254926065979809
  0
ARC
  5
AEF2
  8
0
 10
4827.0579367475065737
 20
191.0888058322721861
 30
0.0
 40
0.1417722549
 50
316.2156450450062266
 51
317.0604412945970125
  0
ARC
  5
AEF3
  8
0
 10
4827.5250736118059649
 20
190.1092531008721949
 30
0.0
 40
0.0393700787
 50
270.0
 51
0.0
  0
ARC
  5
AEF4
  8
0
 10
4826.6786169189063003
 20
190.1092531008721949
 30
0.0
 40
0.0393700787
 50
180.0
 51
197.4648948735066085
  0
ARC
  5
AEF5
  8
0
 10
4827.4187743992051765
 20
190.0777570378722032
 30
0.0
 40
0.0196850394
 50
0.0
 51
90.0
  0
ARC
  5
AEF6
  8
0
 10
4826.5920027457059405
 20
190.0777570378722032
 30
0.0
 40
0.0196850394
 50
90.0
 51
180.0
  0
ARC
  5
AEF7
  8
0
 10
4828.0788925094057049
 20
190.552048376472186
 30
0.0
 40
0.015
 50
90.0
 51
180.0
  0
ARC
  5
AEF8
  8
0
 10
4828.0788925094057049
 20
190.5150483764720946
 30
0.0
 40
0.015
 50
180.0
 51
270.0
  0
ARC
  5
AEF9
  8
0
 10
4828.0868925094073347
 20
190.4850483764722071
 30
0.0
 40
0.015
 50
0.0
 51
90.0
  0
ARC
  5
AEFA
  8
0
 10
4828.0868925094073347
 20
190.3290483764722012
 30
0.0
 40
0.015
 50
270.0
 51
0.0
  0
ARC
  5
AEFB
  8
0
 10
4827.0558925094055667
 20
190.3290483764722012
 30
0.0
 40
0.015
 50
180.0
 51
270.0
  0
ARC
  5
AEFC
  8
0
 10
4826.9888925094055594
 20
190.2620483764721939
 30
0.0
 40
0.015
 50
180.0
 51
270.0
  0
ARC
  5
AEFD
  8
0
 10
4828.153892509407342
 20
190.2620483764721939
 30
0.0
 40
0.015
 50
270.0
 51
0.0
  0
ARC
  5
AEFE
  8
0
 10
4828.153892509407342
 20
190.552048376472186
 30
0.0
 40
0.015
 50
0.0
 51
90.0
  0
ARC
  5
AEFF
  8
0
 10
4823.2258610134058472
 20
191.0482653308721979
 30
0.0
 40
0.5511811024000001
 50
294.5859690058044862
 51
295.3769335251025723
  0
ARC
  5
AF00
  8
0
 10
4823.2258610134058472
 20
191.0482653308721979
 30
0.0
 40
0.5511811024000001
 50
244.6230664747851051
 51
245.4140308786074911
  0
ARC
  5
AF01
  8
0
 10
4823.7376720370057228
 20
190.6368830221722135
 30
0.0
 40
0.0866141732
 50
269.9999999979156087
 51
359.9999999987005026
  0
ARC
  5
AF02
  8
0
 10
4823.7376720370057228
 20
190.6368830221722135
 30
0.0
 40
0.0472440945
 50
270.0000000055237024
 51
359.9999999943004241
  0
ARC
  5
AF03
  8
0
 10
4823.2258610134058472
 20
192.3357369338721981
 30
0.0
 40
0.5511811024000001
 50
108.9324317923928049
 51
115.3769335252148949
  0
ARC
  5
AF04
  8
0
 10
4823.2258610134058472
 20
192.3357369338721981
 30
0.0
 40
0.5511811024000001
 50
64.6230664748973709
 51
71.0675682076071524
  0
ARC
  5
AF05
  8
0
 10
4823.2258610134058472
 20
192.3357369338721981
 30
0.0
 40
0.5511811024000001
 50
73.9324317924084369
 51
78.0675682075969348
  0
ARC
  5
AF06
  8
0
 10
4823.2258610134058472
 20
192.3357369338721981
 30
0.0
 40
0.5511811024000001
 50
80.9324317924250352
 51
85.0675682075985833
  0
ARC
  5
AF07
  8
0
 10
4823.2258610134058472
 20
192.3357369338721981
 30
0.0
 40
0.5511811024000001
 50
94.9324317924014167
 51
99.0675682075749506
  0
ARC
  5
AF08
  8
0
 10
4823.2258610134058472
 20
192.3357369338721981
 30
0.0
 40
0.5511811024000001
 50
101.9324317924029941
 51
106.0675682075916058
  0
ARC
  5
AF09
  8
0
 10
4823.2258610134058472
 20
192.3357369338721981
 30
0.0
 40
0.5511811024000001
 50
87.9325361613078513
 51
92.067464604898305
  0
CIRCLE
  5
AF0A
  8
0
 10
4824.5329476276074274
 20
192.1368121559721942
 30
0.0
 40
0.3149606299
  0
ARC
  5
AF0B
  8
0
 10
4823.7376720370057228
 20
192.7471192425722109
 30
0.0
 40
0.0866141732
 50
0.0000000012001632
 51
90.0000000019801831
  0
ARC
  5
AF0C
  8
0
 10
4823.7376720370057228
 20
192.7471192425722109
 30
0.0
 40
0.0472440945
 50
0.0000000055008838
 51
89.9999999968212734
  0
ARC
  5
AF0D
  8
0
 10
4823.8026326669059927
 20
191.6427885339722081
 30
0.0
 40
0.0393700787
 50
303.3670129961387829
 51
0.0
  0
ARC
  5
AF0E
  8
0
 10
4823.8026326669059927
 20
191.7412137307721878
 30
0.0
 40
0.0393700787
 50
0.0
 51
56.6329870038611887
  0
ARC
  5
AF0F
  8
0
 10
4827.403892509407342
 20
193.8680483764721885
 30
0.0
 40
0.015
 50
270.0
 51
0.0
  0
ARC
  5
AF10
  8
0
 10
4827.403892509407342
 20
194.0920483764720927
 30
0.0
 40
0.015
 50
0.0
 51
90.0
  0
ARC
  5
AF11
  8
0
 10
4827.3668925094061706
 20
194.0920483764720927
 30
0.0
 40
0.015
 50
90.0
 51
180.0
  0
ARC
  5
AF12
  8
0
 10
4827.3368925094073347
 20
193.9350483764721957
 30
0.0
 40
0.015
 50
270.0
 51
0.0
  0
ARC
  5
AF13
  8
0
 10
4826.9988925094057777
 20
193.9250483764722048
 30
0.0
 40
0.015
 50
0.0
 51
90.0
  0
ARC
  5
AF14
  8
0
 10
4826.9888925094055594
 20
193.9250483764722048
 30
0.0
 40
0.015
 50
90.0
 51
180.0
  0
ARC
  5
AF15
  8
0
 10
4823.3916043674062166
 20
192.8614076941721862
 30
0.0
 40
0.0137795276
 50
163.2162158942037991
 51
341.7837841040965259
  0
ARC
  5
AF16
  8
0
 10
4823.3263057912063232
 20
192.8776884577721944
 30
0.0
 40
0.0137795276
 50
170.2162158948015076
 51
348.7837841084038928
  0
ARC
  5
AF17
  8
0
 10
4823.0601176593063428
 20
192.8614076941721862
 30
0.0
 40
0.0137795276
 50
198.2162158970986923
 51
16.7837841044997198
  0
ARC
  5
AF18
  8
0
 10
4823.1254162355062363
 20
192.8776884577721944
 30
0.0
 40
0.0137795276
 50
191.2162158955977134
 51
9.7837841051005494
  0
ARC
  5
AF19
  8
0
 10
4823.1922122121059147
 20
192.8858899723722118
 30
0.0
 40
0.0137795276
 50
184.2162158936997969
 51
2.7836099344016461
  0
ARC
  5
AF1A
  8
0
 10
4823.2595098147066892
 20
192.8858899723722118
 30
0.0
 40
0.0137795276
 50
177.216391575198486
 51
355.7837841064983877
  0
ARC
  5
AF1B
  8
0
 10
4821.5723177063073308
 20
191.057134722472199
 30
0.0
 40
0.5511811024000001
 50
292.2652401501036934
 51
293.1323963992848007
  0
ARC
  5
AF1C
  8
0
 10
4821.5723177063073308
 20
191.057134722472199
 30
0.0
 40
0.5511811024000001
 50
246.867603600715313
 51
247.7349279311050907
  0
ARC
  5
AF1D
  8
0
 10
4818.2652310921066601
 20
191.0482653308721979
 30
0.0
 40
0.5511811024000001
 50
294.5859690058044862
 51
295.3769335252148949
  0
ARC
  5
AF1E
  8
0
 10
4818.2652310921066601
 20
191.0482653308721979
 30
0.0
 40
0.5511811024000001
 50
244.623066474897314
 51
245.4140308787191884
  0
ARC
  5
AF1F
  8
0
 10
4819.9187743992060859
 20
191.057134722472199
 30
0.0
 40
0.5511811024000001
 50
292.2652401501036934
 51
293.1323963992214772
  0
ARC
  5
AF20
  8
0
 10
4819.9187743992060859
 20
191.057134722472199
 30
0.0
 40
0.5511811024000001
 50
246.867603600715313
 51
247.7349279311050907
  0
ARC
  5
AF21
  8
0
 10
4817.7534200685049655
 20
190.6368830221722135
 30
0.0
 40
0.0866141732
 50
180.0
 51
270.0000000019801973
  0
ARC
  5
AF22
  8
0
 10
4817.7534200685049655
 20
190.6368830221722135
 30
0.0
 40
0.0472440945
 50
180.0000000054992029
 51
269.999999996821316
  0
ARC
  5
AF23
  8
0
 10
4819.9187743992060859
 20
192.3268675422721969
 30
0.0
 40
0.5511811024000001
 50
108.348539244598399
 51
113.1323963992847013
  0
ARC
  5
AF24
  8
0
 10
4819.9187743992060859
 20
192.3268675422721969
 30
0.0
 40
0.5511811024000001
 50
66.8676036007152561
 51
71.6513908408117288
  0
ARC
  5
AF25
  8
0
 10
4819.9187743992060859
 20
192.3268675422721969
 30
0.0
 40
0.5511811024000001
 50
73.8947142656864884
 51
78.5652292214923733
  0
ARC
  5
AF26
  8
0
 10
4819.9187743992060859
 20
192.3268675422721969
 30
0.0
 40
0.5511811024000001
 50
80.7655713871872933
 51
85.4664459120031665
  0
ARC
  5
AF27
  8
0
 10
4819.9187743992060859
 20
192.3268675422721969
 30
0.0
 40
0.5511811024000001
 50
87.6443457939963082
 51
92.3556542060036776
  0
ARC
  5
AF28
  8
0
 10
4819.9187743992060859
 20
192.3268675422721969
 30
0.0
 40
0.5511811024000001
 50
94.5335540879968477
 51
99.2344286128126924
  0
ARC
  5
AF29
  8
0
 10
4819.9187743992060859
 20
192.3268675422721969
 30
0.0
 40
0.5511811024000001
 50
101.4347707785075983
 51
106.1052857343134974
  0
ARC
  5
AF2A
  8
0
 10
4821.5723177063073308
 20
192.3268675422721969
 30
0.0
 40
0.5511811024000001
 50
108.348539244598399
 51
113.1323963992847013
  0
ARC
  5
AF2B
  8
0
 10
4821.5723177063073308
 20
192.3268675422721969
 30
0.0
 40
0.5511811024000001
 50
66.8676036007152561
 51
71.6513908408117288
  0
ARC
  5
AF2C
  8
0
 10
4821.5723177063073308
 20
192.3268675422721969
 30
0.0
 40
0.5511811024000001
 50
73.8947142656864884
 51
78.5652292214923733
  0
ARC
  5
AF2D
  8
0
 10
4821.5723177063073308
 20
192.3268675422721969
 30
0.0
 40
0.5511811024000001
 50
80.7655713871872933
 51
85.4664459120031665
  0
ARC
  5
AF2E
  8
0
 10
4821.5723177063073308
 20
192.3268675422721969
 30
0.0
 40
0.5511811024000001
 50
87.6443457939963082
 51
92.3556542060036776
  0
ARC
  5
AF2F
  8
0
 10
4821.5723177063073308
 20
192.3268675422721969
 30
0.0
 40
0.5511811024000001
 50
94.5335540879968477
 51
99.2344286128126924
  0
ARC
  5
AF30
  8
0
 10
4821.5723177063073308
 20
192.3268675422721969
 30
0.0
 40
0.5511811024000001
 50
101.4347707785075983
 51
106.1052857343134974
  0
ARC
  5
AF31
  8
0
 10
4821.7380610604059257
 20
192.8614076941721862
 30
0.0
 40
0.0137795276
 50
201.2353537796062994
 51
304.3107513298176059
  0
ARC
  5
AF32
  8
0
 10
4821.6059665076072633
 20
192.8858899723722118
 30
0.0
 40
0.0137795276
 50
217.0749119035918966
 51
316.0358798037023007
  0
ARC
  5
AF33
  8
0
 10
4821.4718729285059453
 20
192.8776884577721944
 30
0.0
 40
0.0137795276
 50
230.1584400311872969
 51
330.5107593600124005
  0
ARC
  5
AF34
  8
0
 10
4821.4065743522060075
 20
192.8614076941721862
 30
0.0
 40
0.0137795276
 50
235.6919104082045067
 51
338.7646462203936721
  0
ARC
  5
AF35
  8
0
 10
4820.0845177533074093
 20
192.8614076941721862
 30
0.0
 40
0.0137795276
 50
201.2353537793939893
 51
304.3107513288856012
  0
ARC
  5
AF36
  8
0
 10
4819.9524232005060185
 20
192.8858899723722118
 30
0.0
 40
0.0137795276
 50
217.0749119035918966
 51
316.0358798034017127
  0
ARC
  5
AF37
  8
0
 10
4819.8183296214074289
 20
192.8776884577721944
 30
0.0
 40
0.0137795276
 50
230.1584400311872969
 51
330.5107593600124005
  0
ARC
  5
AF38
  8
0
 10
4819.7530310451056721
 20
192.8614076941721862
 30
0.0
 40
0.0137795276
 50
235.6919104071982076
 51
338.7646462205005946
  0
ARC
  5
AF39
  8
0
 10
4820.0192191770056525
 20
192.8776884577721944
 30
0.0
 40
0.0137795276
 50
209.4892406399875995
 51
309.8415599686920245
  0
ARC
  5
AF3A
  8
0
 10
4819.8851255979061534
 20
192.8858899723722118
 30
0.0
 40
0.0137795276
 50
223.9641201965106063
 51
322.9250880964081034
  0
ARC
  5
AF3B
  8
0
 10
4821.6727624841059878
 20
192.8776884577721944
 30
0.0
 40
0.0137795276
 50
209.4892406398103049
 51
309.8415599686920245
  0
ARC
  5
AF3C
  8
0
 10
4821.5386689050055793
 20
192.8858899723722118
 30
0.0
 40
0.0137795276
 50
223.9641201965106063
 51
322.9250880964081034
  0
ARC
  5
AF3D
  8
0
 10
4817.6884594386056051
 20
191.6427885339722081
 30
0.0
 40
0.0393700787
 50
180.0
 51
236.6329870038692036
  0
ARC
  5
AF3E
  8
0
 10
4817.6884594386056051
 20
191.7412137307721878
 30
0.0
 40
0.0393700787
 50
123.3670129961306969
 51
180.0
  0
ARC
  5
AF3F
  8
0
 10
4818.2652310921066601
 20
192.3357369338721981
 30
0.0
 40
0.5511811024000001
 50
101.9324317924029941
 51
106.0675682074837027
  0
ARC
  5
AF40
  8
0
 10
4818.2652310921066601
 20
192.3357369338721981
 30
0.0
 40
0.5511811024000001
 50
94.9324317924014167
 51
99.0675682075749506
  0
ARC
  5
AF41
  8
0
 10
4818.2652310921066601
 20
192.3357369338721981
 30
0.0
 40
0.5511811024000001
 50
80.9324317924250352
 51
85.0675682075985833
  0
ARC
  5
AF42
  8
0
 10
4818.2652310921066601
 20
192.3357369338721981
 30
0.0
 40
0.5511811024000001
 50
73.9324317924084369
 51
78.0675682075969348
  0
ARC
  5
AF43
  8
0
 10
4818.2652310921066601
 20
192.3357369338721981
 30
0.0
 40
0.5511811024000001
 50
64.6230664748973709
 51
71.0675682076071524
  0
ARC
  5
AF44
  8
0
 10
4818.2652310921066601
 20
192.3357369338721981
 30
0.0
 40
0.5511811024000001
 50
108.9324317923928049
 51
115.3769335251026007
  0
ARC
  5
AF45
  8
0
 10
4818.2652310921066601
 20
192.3357369338721981
 30
0.0
 40
0.5511811024000001
 50
87.9325361612035863
 51
92.0674646047940399
  0
ARC
  5
AF46
  8
0
 10
4817.7534200685049655
 20
192.7471192425722109
 30
0.0
 40
0.0866141732
 50
89.999999996977607
 51
180.0
  0
ARC
  5
AF47
  8
0
 10
4817.7534200685049655
 20
192.7471192425722109
 30
0.0
 40
0.0472440945
 50
90.000000005523674
 51
179.9999999966991027
  0
ARC
  5
AF48
  8
0
 10
4818.3656758699062266
 20
192.8776884577721944
 30
0.0
 40
0.0137795276
 50
170.2162158948015076
 51
348.7837841084038928
  0
ARC
  5
AF49
  8
0
 10
4818.4309744462061644
 20
192.8614076941721862
 30
0.0
 40
0.0137795276
 50
163.2162158953028097
 51
341.7837841027936747
  0
ARC
  5
AF4A
  8
0
 10
4818.0994877381062906
 20
192.8614076941721862
 30
0.0
 40
0.0137795276
 50
198.2162158957958979
 51
16.7837841046051892
  0
ARC
  5
AF4B
  8
0
 10
4818.2988798934065926
 20
192.8858899723722118
 30
0.0
 40
0.0137795276
 50
177.216391575198486
 51
355.7837841062010966
  0
ARC
  5
AF4C
  8
0
 10
4818.231582290805818
 20
192.8858899723722118
 30
0.0
 40
0.0137795276
 50
184.2162158934009994
 51
2.7836099344016461
  0
ARC
  5
AF4D
  8
0
 10
4818.1647863143061841
 20
192.8776884577721944
 30
0.0
 40
0.0137795276
 50
191.2162158955977134
 51
9.7837841051005494
  0
LINE
  5
AF4E
  8
0
 10
4827.1597488349061678
 20
190.9901403078721955
 30
0.0
 11
4827.1602891069060206
 21
190.9907070781721927
 31
0.0
  0
ARC
  5
AF4F
  8
0
 10
4826.6812773732517599
 20
190.214225092811688
 30
0.0
 40
0.0526616887925157
 50
217.0487154021905951
 51
267.104199948669816
  0
ARC
  5
AF50
  8
0
 10
4826.8804645656582579
 20
190.014435012139387
 30
0.0
 40
0.1472804408152876
 50
76.5036448730678842
 51
91.9444297847239369
  0
LINE
  5
AF51
  8
0
 10
4825.0140303046073313
 20
189.257142864672204
 30
0.0
 11
4825.0140303046073313
 21
189.3625714878853046
 31
0.0
  0
LINE
  5
AF52
  8
0
 10
4826.3890303046073313
 20
189.257142864672204
 30
0.0
 11
4826.3890303046073313
 21
189.3625717968722029
 31
0.0
  0
LINE
  5
AF53
  8
0
 10
4825.0190303046056215
 20
189.2521428646722086
 30
0.0
 11
4826.3840303046063127
 21
189.2521428646722086
 31
0.0
  0
LINE
  5
AF54
  8
0
 10
4825.0190303046056215
 20
189.2642139324721882
 30
0.0
 11
4826.3840303046063127
 21
189.2642139324721882
 31
0.0
  0
LINE
  5
AF55
  8
0
 10
4825.0190303097851938
 20
189.3731783856721904
 30
0.0
 11
4826.3840303044062239
 21
189.3731783985720938
 31
0.0
  0
ARC
  5
AF56
  8
0
 10
4825.0190303046056215
 20
189.2692139324720983
 30
0.0
 40
0.005
 50
187.5000000000023022
 51
262.5000000000140972
  0
ARC
  5
AF57
  8
0
 10
4825.0190303046056215
 20
189.2692139324720983
 30
0.0
 40
0.005
 50
180.0
 51
270.0
  0
ARC
  5
AF58
  8
0
 10
4825.0190303046056215
 20
189.257142864672204
 30
0.0
 40
0.005
 50
180.0
 51
270.0
  0
ARC
  5
AF59
  8
0
 10
4826.3840303046063127
 20
189.2692139324720983
 30
0.0
 40
0.005
 50
270.0
 51
0.0
  0
ARC
  5
AF5A
  8
0
 10
4826.3840303046063127
 20
189.2692139324720983
 30
0.0
 40
0.005
 50
270.0
 51
0.0
  0
ARC
  5
AF5B
  8
0
 10
4826.3840303046063127
 20
189.257142864672204
 30
0.0
 40
0.005
 50
270.0
 51
0.0
  0
ARC
  5
AF5C
  8
0
 10
4826.3732422143630174
 20
189.3616110316951051
 30
0.0
 40
0.0158172963316076
 50
3.4823711282464149
 51
46.9964343551563033
  0
ARC
  5
AF5D
  8
0
 10
4825.0298184136490818
 20
189.3616110316951051
 30
0.0
 40
0.0158172963316076
 50
133.0036341289454072
 51
176.5187501992965906
  0
LINE
  5
AF5F
  8
0
 10
4827.0408925094061487
 20
193.0440483764720909
 30
0.0
 11
4827.052892509405865
 21
193.0440483764722046
 31
0.0
  0
LINE
  5
AF60
  8
0
 10
4827.0408925094061487
 20
193.0500483764722048
 30
0.0
 11
4827.052892509405865
 21
193.0500483764720911
 31
0.0
  0
ENDSEC
  0
EOF
