  0
SECTION
  2
HEADER
  9
$ACADVER
  1
AC1009
  9
$INSBASE
 10
4500.104753545470885
 20
156.6571388762947095
 30
0.0
  9
$EXTMIN
 10
4492.0878121425948848
 20
131.0506658414446974
 30
-0.0015258207003583
  9
$EXTMAX
 10
4508.1681236628346596
 20
156.6724861246902947
 30
0.0000000349246037
  9
$LIMMIN
 10
0.0
 20
0.0
  9
$LIMMAX
 10
11.6929133858000007
 20
8.2677165353999982
  9
$ORTHOMODE
 70
     0
  9
$REGENMODE
 70
     1
  9
$FILLMODE
 70
     1
  9
$QTEXTMODE
 70
     0
  9
$MIRRTEXT
 70
     0
  9
$DRAGMODE
 70
     2
  9
$LTSCALE
 40
0.6431102362
  9
$OSMODE
 70
  4095
  9
$ATTMODE
 70
     1
  9
$TEXTSIZE
 40
0.2
  9
$TRACEWID
 40
0.05
  9
$TEXTSTYLE
  7
STANDARD
  9
$CLAYER
  8
0
  9
$CELTYPE
  6
BYLAYER
  9
$CECOLOR
 62
   256
  9
$DIMSCALE
 40
1.0
  9
$DIMASZ
 40
0.1875
  9
$DIMEXO
 40
0.0625
  9
$DIMDLI
 40
0.4443307087
  9
$DIMRND
 40
0.0
  9
$DIMDLE
 40
0.0
  9
$DIMEXE
 40
0.125
  9
$DIMTP
 40
0.01
  9
$DIMTM
 40
0.01
  9
$DIMTXT
 40
2.0
  9
$DIMCEN
 40
0.1052362205
  9
$DIMTSZ
 40
0.0
  9
$DIMTOL
 70
     1
  9
$DIMLIM
 70
     0
  9
$DIMTIH
 70
     1
  9
$DIMTOH
 70
     1
  9
$DIMSE1
 70
     0
  9
$DIMSE2
 70
     0
  9
$DIMTAD
 70
     0
  9
$DIMZIN
 70
     0
  9
$DIMBLK
  1

  9
$DIMASO
 70
     1
  9
$DIMSHO
 70
     1
  9
$DIMPOST
  1
\X
  9
$DIMAPOST
  1

  9
$DIMALT
 70
     1
  9
$DIMALTD
 70
     2
  9
$DIMALTF
 40
25.3999999999999986
  9
$DIMLFAC
 40
1.0
  9
$DIMTOFL
 70
     0
  9
$DIMTVP
 40
0.0
  9
$DIMTIX
 70
     0
  9
$DIMSOXD
 70
     0
  9
$DIMSAH
 70
     0
  9
$DIMBLK1
  1

  9
$DIMBLK2
  1

  9
$DIMSTYLE
  2
STANDARD
  9
$DIMCLRD
 70
     0
  9
$DIMCLRE
 70
     0
  9
$DIMCLRT
 70
     0
  9
$DIMTFAC
 40
1.0
  9
$DIMGAP
 40
0.09
  9
$LUNITS
 70
     2
  9
$LUPREC
 70
     4
  9
$SKETCHINC
 40
0.1
  9
$FILLETRAD
 40
0.0
  9
$AUNITS
 70
     0
  9
$AUPREC
 70
     0
  9
$MENU
  1
.
  9
$ELEVATION
 40
0.0
  9
$PELEVATION
 40
0.0
  9
$THICKNESS
 40
0.0
  9
$LIMCHECK
 70
     0
  9
$BLIPMODE
 70
     0
  9
$CHAMFERA
 40
0.0
  9
$CHAMFERB
 40
0.0
  9
$SKPOLY
 70
     0
  9
$TDCREATE
 40
2458060.468368056230247
  9
$TDUPDATE
 40
2459544.4398726858198643
  9
$TDINDWG
 40
0.413108912
  9
$TDUSRTIMER
 40
0.413108912
  9
$USRTIMER
 70
     1
  9
$ANGBASE
 50
0.0
  9
$ANGDIR
 70
     0
  9
$PDMODE
 70
     0
  9
$PDSIZE
 40
0.3125
  9
$PLINEWID
 40
0.0
  9
$COORDS
 70
     1
  9
$SPLFRAME
 70
     0
  9
$SPLINETYPE
 70
     6
  9
$SPLINESEGS
 70
     8
  9
$ATTDIA
 70
     1
  9
$ATTREQ
 70
     1
  9
$HANDLING
 70
     1
  9
$HANDSEED
  5
11B1C
  9
$SURFTAB1
 70
     6
  9
$SURFTAB2
 70
     6
  9
$SURFTYPE
 70
     6
  9
$SURFU
 70
     6
  9
$SURFV
 70
     6
  9
$UCSNAME
  2

  9
$UCSORG
 10
0.0
 20
0.0
 30
0.0
  9
$UCSXDIR
 10
1.0
 20
0.0
 30
0.0
  9
$UCSYDIR
 10
0.0
 20
1.0
 30
0.0
  9
$PUCSNAME
  2

  9
$PUCSORG
 10
0.0
 20
0.0
 30
0.0
  9
$PUCSXDIR
 10
1.0
 20
0.0
 30
0.0
  9
$PUCSYDIR
 10
0.0
 20
1.0
 30
0.0
  9
$USERI1
 70
     0
  9
$USERI2
 70
     0
  9
$USERI3
 70
     0
  9
$USERI4
 70
     0
  9
$USERI5
 70
     0
  9
$USERR1
 40
0.0
  9
$USERR2
 40
0.0
  9
$USERR3
 40
0.0
  9
$USERR4
 40
0.0
  9
$USERR5
 40
0.0
  9
$WORLDVIEW
 70
     1
  9
$SHADEDGE
 70
     3
  9
$SHADEDIF
 70
    70
  9
$TILEMODE
 70
     1
  9
$MAXACTVP
 70
    64
  9
$PLIMCHECK
 70
     0
  9
$PEXTMIN
 10
1.0000000000000000E+20
 20
1.0000000000000000E+20
 30
1.0000000000000000E+20
  9
$PEXTMAX
 10
-1.0000000000000000E+20
 20
-1.0000000000000000E+20
 30
-1.0000000000000000E+20
  9
$PLIMMIN
 10
0.0
 20
0.0
  9
$PLIMMAX
 10
12.0
 20
9.0
  9
$UNITMODE
 70
     0
  9
$VISRETAIN
 70
     1
  9
$PLINEGEN
 70
     0
  9
$PSLTSCALE
 70
     1
  0
ENDSEC
  0
SECTION
  2
TABLES
  0
TABLE
  2
VPORT
 70
     1
  0
VPORT
  2
*ACTIVE
 70
     0
 10
0.0
 20
0.0
 11
1.0
 21
1.0
 12
235.1216202464657101
 22
39.5575636844835401
 13
0.0
 23
0.0
 14
1.0
 24
1.0
 15
0.0
 25
0.0
 16
0.0
 26
0.0
 36
122.0237731519760018
 17
4265.00634765625
 27
104.3040122985839986
 37
0.0
 40
25.8248994400480214
 41
2.0410052910052912
 42
50.0
 43
0.0
 44
0.0
 50
0.0
 51
0.0
 71
     0
 72
   100
 73
     1
 74
     1
 75
     0
 76
     0
 77
     0
 78
     0
  0
ENDTAB
  0
TABLE
  2
LTYPE
 70
     2
  0
LTYPE
  2
CONTINUOUS
 70
     0
  3
Solid line
 72
    65
 73
     0
 40
0.0
  0
LTYPE
  2
PHANTOM2
 70
     0
  3
___ _ _ ___ _ _ ___ _ _ ___ _ _
 72
    65
 73
     6
 40
1.25
 49
0.625
 49
-0.125
 49
0.125
 49
-0.125
 49
0.125
 49
-0.125
  0
ENDTAB
  0
TABLE
  2
LAYER
 70
     2
  0
LAYER
  2
0
 70
     0
 62
   255
  6
CONTINUOUS
  0
LAYER
  2
DEFPOINTS
 70
     0
 62
     7
  6
CONTINUOUS
  0
ENDTAB
  0
TABLE
  2
STYLE
 70
     1
  0
STYLE
  2
STANDARD
 70
     0
 40
0.0
 41
0.8
 50
0.0
 71
     0
 42
0.2
  3
txt
  4

  0
ENDTAB
  0
TABLE
  2
VIEW
 70
     0
  0
ENDTAB
  0
TABLE
  2
UCS
 70
     0
  0
ENDTAB
  0
TABLE
  2
APPID
 70
     9
  0
APPID
  2
ACAD
 70
     0
  0
APPID
  2
ACAD_MLEADERVER
 70
     0
  0
APPID
  2
ACAD_EXEMPT_FROM_CAD_STANDARDS
 70
     0
  0
APPID
  2
ACAD_NAV_VCDISPLAY
 70
     0
  0
APPID
  2
ACAECLAYERSTANDARD
 70
     0
  0
APPID
  2
ACCMTRANSPARENCY
 70
     0
  0
APPID
  2
ACAD_DSTYLE_DIMJAG
 70
     0
  0
APPID
  2
ACAD_DSTYLE_DIMTALN
 70
     0
  0
APPID
  2
ACDBATTR
 70
     0
  0
ENDTAB
  0
TABLE
  2
DIMSTYLE
 70
     1
  0
DIMSTYLE
  2
STANDARD
 70
     0
  3

  4

  5

  6

  7

 40
1.0
 41
0.1875
 42
0.0625
 43
0.38
 44
0.125
 45
0.0
 46
0.0
 47
0.01
 48
0.01
140
0.15625
141
0.09
142
0.0
143
25.3999999999999986
144
1.0
145
0.0
146
1.0
147
0.09
 71
     1
 72
     0
 73
     1
 74
     1
 75
     0
 76
     0
 77
     0
 78
     4
170
     0
171
     2
172
     0
173
     0
174
     0
175
     0
176
     0
177
     0
178
     0
  0
ENDTAB
  0
ENDSEC
  0
SECTION
  2
BLOCKS
  0
BLOCK
  8
0
  2
$MODEL_SPACE
 70
     0
 10
0.0
 20
0.0
 30
0.0
  3
$MODEL_SPACE
  1

  0
ENDBLK
  5
21
  8
0
  0
BLOCK
 67
     1
  8
0
  2
$PAPER_SPACE
 70
     0
 10
0.0
 20
0.0
 30
0.0
  3
$PAPER_SPACE
  1

  0
ENDBLK
  5
1D
 67
     1
  8
0
  0
ENDSEC
  0
SECTION
  2
ENTITIES
  0
ATTDEF
  5
FDB2
  8
DEFPOINTS
 10
4500.1011357159513864
 20
156.6618681416559866
 30
0.0
 40
0.001
  1
K-78319K-TF
  3

  2
MODELNUMBER
 70
     0
1001
ACDBATTR
1070
     0
1070
     1
  0
ATTDEF
  5
FDB3
  8
DEFPOINTS
 10
4500.1011357159513864
 20
156.660201474989293
 30
0.0
 40
0.001
  1

  3

  2
TRADENAME
 70
     0
1001
ACDBATTR
1070
     0
1070
     1
  0
ATTDEF
  5
FDB4
  8
DEFPOINTS
 10
4500.1011357159513864
 20
156.6585348083225995
 30
0.0
 40
0.001
  1
TOILET
  3

  2
PRODUCT
 70
     0
1001
ACDBATTR
1070
     0
1070
     1
  0
LINE
  5
11A61
  8
0
 10
4492.6325564762482827
 20
156.6571388762947095
 30
0.0
 11
4507.5769506146953063
 21
156.6571388762947095
 31
0.0
  0
ARC
  5
11A62
  8
0
 10
4492.6722395593733381
 20
156.3345360199870129
 30
0.0
 40
0.3250343668596607
 50
97.0126502398814523
 51
178.0047835378601917
  0
ARC
  5
11A63
  8
0
 10
5286.9574545836912876
 20
171.8724569482845936
 30
0.0
 40
794.7617320426520564
 50
181.1194116059373869
 51
181.3202588012032095
  0
ARC
  5
11A64
  8
0
 10
4500.0238323797129851
 20
153.7345218571516057
 30
0.0
 40
7.6191082423911087
 50
181.3088216531182013
 51
190.5079291274167872
  0
ARC
  5
11A65
  8
0
 10
4495.1445318766200216
 20
153.0351795847535925
 30
0.0
 40
2.701674592120034
 50
194.8007752441361049
 51
212.9495873370346999
  0
ARC
  5
11A66
  8
0
 10
4494.3912250553757985
 20
152.6561157312868886
 30
0.0
 40
1.8656161300173659
 50
215.7649036674638126
 51
240.6152121055037867
  0
ARC
  5
11A67
  8
0
 10
4495.3092896546595512
 20
154.6967569291549864
 30
0.0
 40
4.0991332937151252
 50
243.4305284359230939
 51
262.1652582905251165
  0
ARC
  5
11A68
  8
0
 10
4497.6885420925564176
 20
171.9877418070786064
 30
0.0
 40
21.5530440363485809
 50
262.1652582905251165
 51
268.6732104015118807
  0
ARC
  5
11A69
  8
0
 10
4500.1508120070202494
 20
278.2988159426063248
 30
0.0
 40
127.8926286555361003
 50
268.6732101770650729
 51
269.9793658513290211
  0
ARC
  5
11A6A
  8
0
 10
4498.3680594853267394
 20
136.1117265721800891
 30
0.0
 40
4.8138722545720523
 50
206.1327424268930883
 51
246.1301696939046053
  0
ARC
  5
11A6B
  8
0
 10
4503.0989819358237582
 20
138.5404446167615049
 30
0.0
 40
10.1313768870833201
 50
195.7828651009052123
 51
206.6796118657968009
  0
ARC
  5
11A6C
  8
0
 10
4506.6448424820373475
 20
139.124217140116599
 30
0.0
 40
13.7082537612370992
 50
183.3181710204640922
 51
194.0995448400366001
  0
ARC
  5
11A6D
  8
0
 10
4264.1174712182801159
 20
150.6941693966788876
 30
0.0
 40
228.895143387312487
 50
358.7664793346111765
 51
0.1767670994881104
  0
ARC
  5
11A6E
  8
0
 10
4499.7739578196769799
 20
144.805690791580588
 30
0.0
 40
6.905282422662772
 50
164.1392013679435138
 51
170.5016188669829944
  0
ARC
  5
11A6F
  8
0
 10
4495.3011346775374477
 20
145.9963559795936021
 30
0.0
 40
2.278640610086704
 50
148.3395747496543891
 51
162.2003533473493064
  0
ARC
  5
11A70
  8
0
 10
4495.4900024301850863
 20
145.8798890146894109
 30
0.0
 40
2.5005315335253071
 50
127.1216313425665021
 51
148.3395747496543891
  0
ARC
  5
11A71
  8
0
 10
4495.3419972934252655
 20
146.0754333924942898
 30
0.0
 40
2.2552905822173241
 50
101.8255916932403977
 51
127.1216313425665021
  0
ARC
  5
11A72
  8
0
 10
4495.3793772658709713
 20
145.8970032426099124
 30
0.0
 40
2.43759412125257
 50
90.0217652946614209
 51
101.8260699569567009
  0
LINE
  5
11A73
  8
0
 10
4495.3784512822549004
 20
148.3345971879830074
 30
0.0
 11
4504.8311192820110591
 21
148.3345971879830074
 31
0.0
  0
LINE
  5
11A74
  8
0
 10
4496.3547535457291815
 20
148.4047602558829908
 30
0.0
 11
4503.854753545730091
 21
148.4047601129877876
 31
0.0
  0
LINE
  5
11A75
  8
0
 10
4495.830658591471547
 20
148.3345971879830074
 30
0.0
 11
4495.8331000023790693
 21
148.4047602565829891
 31
0.0
  0
LINE
  5
11A76
  8
0
 10
4495.8331000023790693
 20
148.4047602565829891
 30
0.0
 11
4496.3449110260798989
 21
148.4047602565829891
 31
0.0
  0
LINE
  5
11A77
  8
0
 10
4496.3449110260798989
 20
148.4047602565829891
 30
0.0
 11
4496.3505741757508076
 21
148.3345971879830074
 31
0.0
  0
LINE
  5
11A78
  8
0
 10
4492.9595704668436156
 20
145.7666672090747113
 30
0.0
 11
4492.9595704668436156
 21
138.3307746074436864
 31
0.0
  0
CIRCLE
  5
11A79
  8
0
 10
4496.1273450358821719
 20
153.531705812628303
 30
0.0
 40
0.7874015748000005
  0
ARC
  5
11A7A
  8
0
 10
4507.5372677922441653
 20
156.3345360199870129
 30
0.0
 40
0.3250343668596607
 50
1.995216462139821
 51
82.9873497601185477
  0
ARC
  5
11A7B
  8
0
 10
3713.2520527679271254
 20
171.8724569482845936
 30
0.0
 40
794.7617320426520564
 50
358.6797411987967052
 51
358.8805883940626131
  0
ARC
  5
11A7C
  8
0
 10
4500.1856749719054278
 20
153.7345218571516057
 30
0.0
 40
7.6191082423911087
 50
349.4920708725816212
 51
358.6911783468817134
  0
ARC
  5
11A7D
  8
0
 10
4505.0649754749983913
 20
153.0351795847535925
 30
0.0
 40
2.701674592120034
 50
327.0504126629654138
 51
345.1992247558638951
  0
ARC
  5
11A7E
  8
0
 10
4505.8182822962417049
 20
152.6561157312868886
 30
0.0
 40
1.8656161300173659
 50
299.3847878944961849
 51
324.2350963325362159
  0
ARC
  5
11A7F
  8
0
 10
4504.9002176969579523
 20
154.6967569291549864
 30
0.0
 40
4.0991332937151252
 50
277.8347417094748835
 51
296.5694715640768777
  0
ARC
  5
11A80
  8
0
 10
4502.5209652590610858
 20
171.9877418070786064
 30
0.0
 40
21.5530440363485809
 50
271.3267895984881193
 51
277.8347417094748835
  0
ARC
  5
11A81
  8
0
 10
4500.058695357211036
 20
278.2988152201562002
 30
0.0
 40
127.8926279329875939
 50
270.0206340263683273
 51
271.3267898248113283
  0
ARC
  5
11A82
  8
0
 10
4501.5973435251662522
 20
136.3977859522744041
 30
0.0
 40
5.1847030397848934
 50
303.971990986384526
 51
332.3500400486595936
  0
ARC
  5
11A83
  8
0
 10
4501.8068942129148127
 20
136.6361281122935907
 30
0.0
 40
5.1189868721633518
 50
328.8964352886098936
 51
350.4291997644754133
  0
ARC
  5
11A84
  8
0
 10
4494.1269634017462522
 20
139.0649463206993062
 30
0.0
 40
13.1434942515595203
 50
345.5492325354833838
 51
356.7978951944015193
  0
ARC
  5
11A85
  8
0
 10
4736.0920361333382971
 20
150.6941693966788876
 30
0.0
 40
228.895143387312487
 50
179.823232900511897
 51
181.2335206653887951
  0
ARC
  5
11A86
  8
0
 10
4500.4356127447372273
 20
144.805690791580588
 30
0.0
 40
6.905282422662772
 50
9.5020087709102192
 51
15.86079863205652
  0
ARC
  5
11A87
  8
0
 10
4504.9084358868767595
 20
145.9963559795936021
 30
0.0
 40
2.278640610086704
 50
17.7996466526507398
 51
31.6604252503456109
  0
ARC
  5
11A88
  8
0
 10
4504.7195681342282114
 20
145.8798890146894109
 30
0.0
 40
2.5005315335253071
 50
31.6604252503456109
 51
52.8783686574334908
  0
ARC
  5
11A89
  8
0
 10
4504.8675732709871227
 20
146.0754333924942898
 30
0.0
 40
2.2552905822173241
 50
52.8783686574334908
 51
78.1744083067596165
  0
ARC
  5
11A8A
  8
0
 10
4504.8301932985423264
 20
145.8970032426099124
 30
0.0
 40
2.43759412125257
 50
78.1739300430432564
 51
89.9782347053385934
  0
LINE
  5
11A8B
  8
0
 10
4504.3789119729408412
 20
148.3345971879830074
 30
0.0
 11
4504.3764705620333189
 21
148.4047602565829891
 31
0.0
  0
LINE
  5
11A8C
  8
0
 10
4504.3764705620333189
 20
148.4047602565829891
 30
0.0
 11
4503.8646595383333988
 21
148.4047602565829891
 31
0.0
  0
LINE
  5
11A8D
  8
0
 10
4503.8646595383333988
 20
148.4047602565829891
 30
0.0
 11
4503.8609114816763395
 21
148.3345971879830074
 31
0.0
  0
LINE
  5
11A8E
  8
0
 10
4507.2499368847738879
 20
145.7666672090747113
 30
0.0
 11
4507.2499368847738879
 21
138.3307746074436864
 31
0.0
  0
CIRCLE
  5
11A8F
  8
0
 10
4496.1273450358821719
 20
153.531705812628303
 30
0.0
 40
0.7874015748000005
  0
CIRCLE
  5
11A91
  8
0
 10
4504.4757730543706202
 20
153.5317058112447057
 30
0.0
 40
0.3937007874000002
  0
LINE
  5
11A92
  8
0
 10
4503.854753545730091
 20
148.4047602558829908
 30
0.0
 11
4503.854753545730091
 21
148.3345971879830074
 31
0.0
  0
LINE
  5
11A93
  8
0
 10
4496.3547535457291815
 20
148.4047602558829908
 30
0.0
 11
4496.3547535457291815
 21
148.3345971879830074
 31
0.0
  0
ARC
  5
11A94
  8
0
 10
4499.4650197969112924
 20
138.7662574495898866
 30
0.0
 40
7.6855780673484499
 50
246.6598426880698867
 51
264.257065759581792
  0
ARC
  5
11A95
  8
0
 10
4500.170326591545745
 20
147.9339807654125991
 30
0.0
 40
16.8792411854933597
 50
264.9889457889921118
 51
269.7774148613107741
  0
ARC
  5
11A96
  8
0
 10
4501.0324077022232814
 20
137.6912807108232073
 30
0.0
 40
6.5780079937166187
 50
277.4940747097309099
 51
301.7565967439093129
  0
ARC
  5
11A97
  8
0
 10
4500.0549483739705465
 20
145.7996754755006066
 30
0.0
 40
14.7448926408889598
 50
270.1935335590815725
 51
277.1505041063662134
  0
ENDSEC
  0
EOF
