  0
SECTION
  2
HEADER
  9
$ACADVER
  1
AC1009
  9
$INSBASE
 10
4013.0095901908907763
 20
64.069416486598584
 30
0.0
  9
$EXTMIN
 10
3999.5279287820958416
 20
57.8061634505389179
 30
-0.0000000000112498
  9
$EXTMAX
 10
4026.3487109355078246
 20
64.0721925924100617
 30
0.0000000000002956
  9
$LIMMIN
 10
0.0
 20
0.0
  9
$LIMMAX
 10
11.6929133858000007
 20
8.2677165353999982
  9
$ORTHOMODE
 70
     0
  9
$REGENMODE
 70
     1
  9
$FILLMODE
 70
     1
  9
$QTEXTMODE
 70
     0
  9
$MIRRTEXT
 70
     0
  9
$DRAGMODE
 70
     2
  9
$LTSCALE
 40
0.6431102362
  9
$OSMODE
 70
  4095
  9
$ATTMODE
 70
     1
  9
$TEXTSIZE
 40
0.2
  9
$TRACEWID
 40
0.05
  9
$TEXTSTYLE
  7
STANDARD
  9
$CLAYER
  8
0
  9
$CELTYPE
  6
BYLAYER
  9
$CECOLOR
 62
   256
  9
$DIMSCALE
 40
1.0
  9
$DIMASZ
 40
0.1875
  9
$DIMEXO
 40
0.0625
  9
$DIMDLI
 40
0.4443307087
  9
$DIMRND
 40
0.0
  9
$DIMDLE
 40
0.0
  9
$DIMEXE
 40
0.125
  9
$DIMTP
 40
0.01
  9
$DIMTM
 40
0.01
  9
$DIMTXT
 40
2.0
  9
$DIMCEN
 40
0.1052362205
  9
$DIMTSZ
 40
0.0
  9
$DIMTOL
 70
     1
  9
$DIMLIM
 70
     0
  9
$DIMTIH
 70
     1
  9
$DIMTOH
 70
     1
  9
$DIMSE1
 70
     0
  9
$DIMSE2
 70
     0
  9
$DIMTAD
 70
     0
  9
$DIMZIN
 70
     0
  9
$DIMBLK
  1

  9
$DIMASO
 70
     1
  9
$DIMSHO
 70
     1
  9
$DIMPOST
  1
\X
  9
$DIMAPOST
  1

  9
$DIMALT
 70
     1
  9
$DIMALTD
 70
     2
  9
$DIMALTF
 40
25.3999999999999986
  9
$DIMLFAC
 40
1.0
  9
$DIMTOFL
 70
     0
  9
$DIMTVP
 40
0.0
  9
$DIMTIX
 70
     0
  9
$DIMSOXD
 70
     0
  9
$DIMSAH
 70
     0
  9
$DIMBLK1
  1

  9
$DIMBLK2
  1

  9
$DIMSTYLE
  2
STANDARD
  9
$DIMCLRD
 70
     0
  9
$DIMCLRE
 70
     0
  9
$DIMCLRT
 70
     0
  9
$DIMTFAC
 40
1.0
  9
$DIMGAP
 40
0.09
  9
$LUNITS
 70
     2
  9
$LUPREC
 70
     4
  9
$SKETCHINC
 40
0.1
  9
$FILLETRAD
 40
0.0
  9
$AUNITS
 70
     0
  9
$AUPREC
 70
     0
  9
$MENU
  1
.
  9
$ELEVATION
 40
0.0
  9
$PELEVATION
 40
0.0
  9
$THICKNESS
 40
0.0
  9
$LIMCHECK
 70
     0
  9
$BLIPMODE
 70
     0
  9
$CHAMFERA
 40
0.0
  9
$CHAMFERB
 40
0.0
  9
$SKPOLY
 70
     0
  9
$TDCREATE
 40
2458060.468368056230247
  9
$TDUPDATE
 40
2459690.7854861109517515
  9
$TDINDWG
 40
1.1466621528000001
  9
$TDUSRTIMER
 40
1.1466621528000001
  9
$USRTIMER
 70
     1
  9
$ANGBASE
 50
0.0
  9
$ANGDIR
 70
     0
  9
$PDMODE
 70
     0
  9
$PDSIZE
 40
0.3125
  9
$PLINEWID
 40
0.0
  9
$COORDS
 70
     1
  9
$SPLFRAME
 70
     0
  9
$SPLINETYPE
 70
     6
  9
$SPLINESEGS
 70
     8
  9
$ATTDIA
 70
     1
  9
$ATTREQ
 70
     1
  9
$HANDLING
 70
     1
  9
$HANDSEED
  5
8169
  9
$SURFTAB1
 70
     6
  9
$SURFTAB2
 70
     6
  9
$SURFTYPE
 70
     6
  9
$SURFU
 70
     6
  9
$SURFV
 70
     6
  9
$UCSNAME
  2

  9
$UCSORG
 10
0.0
 20
0.0
 30
0.0
  9
$UCSXDIR
 10
1.0
 20
0.0
 30
0.0
  9
$UCSYDIR
 10
0.0
 20
1.0
 30
0.0
  9
$PUCSNAME
  2

  9
$PUCSORG
 10
0.0
 20
0.0
 30
0.0
  9
$PUCSXDIR
 10
1.0
 20
0.0
 30
0.0
  9
$PUCSYDIR
 10
0.0
 20
1.0
 30
0.0
  9
$USERI1
 70
     0
  9
$USERI2
 70
     0
  9
$USERI3
 70
     0
  9
$USERI4
 70
     0
  9
$USERI5
 70
     0
  9
$USERR1
 40
0.0
  9
$USERR2
 40
0.0
  9
$USERR3
 40
0.0
  9
$USERR4
 40
0.0
  9
$USERR5
 40
0.0
  9
$WORLDVIEW
 70
     1
  9
$SHADEDGE
 70
     3
  9
$SHADEDIF
 70
    70
  9
$TILEMODE
 70
     1
  9
$MAXACTVP
 70
    64
  9
$PLIMCHECK
 70
     0
  9
$PEXTMIN
 10
1.0000000000000000E+20
 20
1.0000000000000000E+20
 30
1.0000000000000000E+20
  9
$PEXTMAX
 10
-1.0000000000000000E+20
 20
-1.0000000000000000E+20
 30
-1.0000000000000000E+20
  9
$PLIMMIN
 10
0.0
 20
0.0
  9
$PLIMMAX
 10
12.0
 20
9.0
  9
$UNITMODE
 70
     0
  9
$VISRETAIN
 70
     1
  9
$PLINEGEN
 70
     0
  9
$PSLTSCALE
 70
     1
  0
ENDSEC
  0
SECTION
  2
TABLES
  0
TABLE
  2
VPORT
 70
     1
  0
VPORT
  2
*ACTIVE
 70
     0
 10
0.0
 20
0.0
 11
1.0
 21
1.0
 12
220.5804097025520889
 22
-59.2414784116309718
 13
0.0
 23
0.0
 14
1.0
 24
1.0
 15
0.0
 25
0.0
 16
0.0
 26
0.0
 36
5.1040778033513332
 17
3792.35791015625
 27
120.1806564331053977
 37
0.0
 40
16.1304113468325987
 41
1.67063492063492
 42
50.0
 43
0.0
 44
0.0
 50
0.0
 51
0.0
 71
     0
 72
   100
 73
     1
 74
     1
 75
     0
 76
     0
 77
     0
 78
     0
  0
ENDTAB
  0
TABLE
  2
LTYPE
 70
     2
  0
LTYPE
  2
CONTINUOUS
 70
     0
  3
Solid line
 72
    65
 73
     0
 40
0.0
  0
LTYPE
  2
PHANTOM2
 70
     0
  3
___ _ _ ___ _ _ ___ _ _ ___ _ _
 72
    65
 73
     6
 40
1.25
 49
0.625
 49
-0.125
 49
0.125
 49
-0.125
 49
0.125
 49
-0.125
  0
ENDTAB
  0
TABLE
  2
LAYER
 70
     2
  0
LAYER
  2
0
 70
     0
 62
   255
  6
CONTINUOUS
  0
LAYER
  2
DEFPOINTS
 70
     0
 62
     7
  6
CONTINUOUS
  0
ENDTAB
  0
TABLE
  2
STYLE
 70
     1
  0
STYLE
  2
STANDARD
 70
     0
 40
0.0
 41
0.8
 50
0.0
 71
     0
 42
0.2
  3
txt
  4

  0
ENDTAB
  0
TABLE
  2
VIEW
 70
     0
  0
ENDTAB
  0
TABLE
  2
UCS
 70
     0
  0
ENDTAB
  0
TABLE
  2
APPID
 70
     9
  0
APPID
  2
ACAD
 70
     0
  0
APPID
  2
ACAD_MLEADERVER
 70
     0
  0
APPID
  2
ACAD_EXEMPT_FROM_CAD_STANDARDS
 70
     0
  0
APPID
  2
ACAD_NAV_VCDISPLAY
 70
     0
  0
APPID
  2
ACAECLAYERSTANDARD
 70
     0
  0
APPID
  2
ACCMTRANSPARENCY
 70
     0
  0
APPID
  2
ACAD_DSTYLE_DIMJAG
 70
     0
  0
APPID
  2
ACAD_DSTYLE_DIMTALN
 70
     0
  0
APPID
  2
ACDBATTR
 70
     0
  0
ENDTAB
  0
TABLE
  2
DIMSTYLE
 70
     1
  0
DIMSTYLE
  2
STANDARD
 70
     0
  3

  4

  5

  6

  7

 40
1.0
 41
0.1875
 42
0.0625
 43
0.38
 44
0.125
 45
0.0
 46
0.0
 47
0.01
 48
0.01
140
0.15625
141
0.09
142
0.0
143
25.3999999999999986
144
1.0
145
0.0
146
1.0
147
0.09
 71
     1
 72
     0
 73
     1
 74
     1
 75
     0
 76
     0
 77
     0
 78
     4
170
     0
171
     2
172
     0
173
     0
174
     0
175
     0
176
     0
177
     0
178
     0
  0
ENDTAB
  0
ENDSEC
  0
SECTION
  2
BLOCKS
  0
BLOCK
  8
0
  2
$MODEL_SPACE
 70
     0
 10
0.0
 20
0.0
 30
0.0
  3
$MODEL_SPACE
  1

  0
ENDBLK
  5
21
  8
0
  0
BLOCK
 67
     1
  8
0
  2
$PAPER_SPACE
 70
     0
 10
0.0
 20
0.0
 30
0.0
  3
$PAPER_SPACE
  1

  0
ENDBLK
  5
1D
 67
     1
  8
0
  0
ENDSEC
  0
SECTION
  2
ENTITIES
  0
ATTDEF
  5
3930
  8
DEFPOINTS
 10
4013.0041828764128695
 20
64.068097132298675
 30
0.0
 40
0.001
  1
K-78375T
  3

  2
MODELNUMBER
 70
     0
1001
ACDBATTR
1070
     0
1070
     1
  0
ATTDEF
  5
3931
  8
DEFPOINTS
 10
4013.0041828764128695
 20
64.066430465632024
 30
0.0
 40
0.001
  1
COMPONENTS
  3

  2
TRADENAME
 70
     0
1001
ACDBATTR
1070
     0
1070
     1
  0
ATTDEF
  5
3932
  8
DEFPOINTS
 10
4013.0041828764128695
 20
64.0647637989653589
 30
0.0
 40
0.001
  1
TOWEL BAR
  3

  2
PRODUCT
 70
     0
1001
ACDBATTR
1070
     0
1070
     1
  0
LINE
  5
80B8
  8
0
 10
4024.585251614992103
 20
60.7039158327985788
 30
0.0
 11
4001.4339287667899043
 21
60.7039158327985788
 31
0.0
  0
LINE
  5
80B9
  8
0
 10
4024.5852515938900069
 20
61.688167801298583
 30
0.0
 11
4001.4339287878920004
 21
61.688167801298583
 31
0.0
  0
LINE
  5
80BA
  8
0
 10
3999.8286673082511697
 20
64.069416486598584
 30
0.0
 11
3999.8286673082511697
 21
63.844500624898572
 31
0.0
  0
LINE
  5
80BB
  8
0
 10
4000.7037781903509313
 20
57.8461487413775188
 30
0.0
 11
4000.7037781903509313
 21
63.6176436865635679
 31
0.0
  0
LINE
  5
80BC
  8
0
 10
4001.3158183478499268
 20
58.9327627289986893
 30
0.0
 11
4001.3158183478499268
 21
60.5858055965966003
 31
0.0
  0
LINE
  5
80BD
  8
0
 10
4001.3158183478499268
 20
61.8062780374974992
 30
0.0
 11
4001.3158183478499268
 21
63.6176265024619383
 31
0.0
  0
LINE
  5
80BE
  8
0
 10
4002.190872031111212
 20
63.844500624898572
 30
0.0
 11
4002.1908720327510309
 21
64.069416486598584
 31
0.0
  0
LINE
  5
80BF
  8
0
 10
4000.6968062918508622
 20
63.6041313586985808
 30
0.0
 11
3999.8588243453509676
 21
63.8062352883985824
 31
0.0
  0
LINE
  5
80C0
  8
0
 10
4025.276031725150915
 20
57.80677849129858
 30
0.0
 11
4000.7431486566301828
 21
57.8067784770985824
 31
0.0
  0
LINE
  5
80C1
  8
0
 10
4024.5616295122558768
 20
58.7910304455985795
 30
0.0
 11
4001.4575508695261306
 21
58.7910304454986132
 31
0.0
  0
LINE
  5
80C2
  8
0
 10
4002.1908720327510309
 20
64.069416486598584
 30
0.0
 11
3999.8286673082511697
 21
64.069416486598584
 31
0.0
  0
LINE
  5
80C3
  8
0
 10
4001.3227902439512036
 20
63.6041465468985834
 30
0.0
 11
4002.1607149645510617
 21
63.8062364917985789
 31
0.0
  0
ARC
  5
80C4
  8
0
 10
4001.4575506312507969
 20
58.9327627289986893
 30
0.0
 40
0.141732283500275
 50
179.9999999957452133
 51
270.0000963231918831
  0
ARC
  5
80C5
  8
0
 10
4000.7436884994840511
 20
57.8466887890013268
 30
0.0
 40
0.0399139628010113
 50
180.7752523575491068
 51
269.2250416147970213
  0
ARC
  5
80C6
  8
0
 10
4000.949956467460197
 20
63.4820693306329815
 30
0.0
 40
0.2810411893411508
 50
139.9367735418298082
 51
154.2579181840287106
  0
ARC
  5
80C7
  8
0
 10
4001.067318052741939
 20
63.4805580604893009
 30
0.0
 40
0.2837959732873787
 50
25.8160688082609404
 51
39.9961519149538418
  0
ARC
  5
80C8
  8
0
 10
4000.9333754160238641
 20
76.056004409130594
 30
0.0
 40
12.3980200519740702
 50
270.3512398742188907
 51
271.6239582257401253
  0
ARC
  5
80C9
  8
0
 10
4001.0870166076570058
 20
76.1079042840673026
 30
0.0
 40
12.4499290453710696
 50
268.3791521786383214
 51
269.6426992533731095
  0
ARC
  5
80CA
  8
0
 10
3999.8680862572778096
 20
63.8445507296765484
 30
0.0
 40
0.0394189808704524
 50
180.0728276840476099
 51
256.4106929348317863
  0
ARC
  5
80CB
  8
0
 10
4002.1514496736008368
 20
63.844554628126879
 30
0.0
 40
0.0394223944993435
 50
283.5931602644427016
 51
359.9215126815839767
  0
LINE
  5
80CC
  8
0
 10
4026.1905130735299281
 20
64.069416486598584
 30
0.0
 11
4026.1905130735299281
 21
63.844500624898572
 31
0.0
  0
LINE
  5
80CD
  8
0
 10
4025.3154021914301666
 20
57.8461487413777533
 30
0.0
 11
4025.3154021914301666
 21
63.6176436865635679
 31
0.0
  0
LINE
  5
80CE
  8
0
 10
4024.703362033931171
 20
58.9327627289280116
 30
0.0
 11
4024.703362033931171
 21
60.5858055966165381
 31
0.0
  0
LINE
  5
80CF
  8
0
 10
4024.703362033931171
 20
61.8062780374964689
 30
0.0
 11
4024.703362033931171
 21
63.6176265024619383
 31
0.0
  0
LINE
  5
80D0
  8
0
 10
4023.8283083506698858
 20
63.844500624898572
 30
0.0
 11
4023.8283083490300669
 21
64.069416486598584
 31
0.0
  0
LINE
  5
80D1
  8
0
 10
4025.3223740899297809
 20
63.6041313586985808
 30
0.0
 11
4026.1603560364301302
 21
63.8062352883985824
 31
0.0
  0
LINE
  5
80D2
  8
0
 10
4023.8283083490300669
 20
64.069416486598584
 30
0.0
 11
4026.1905130735299281
 21
64.069416486598584
 31
0.0
  0
LINE
  5
80D3
  8
0
 10
4024.6963901378298942
 20
63.6041465468985834
 30
0.0
 11
4023.8584654172300361
 21
63.8062364917985789
 31
0.0
  0
ARC
  5
80D4
  8
0
 10
4024.5616297507008312
 20
58.9327627289280116
 30
0.0
 40
0.141732283329638
 50
269.9999036078140762
 51
0.0000000328265812
  0
ARC
  5
80D5
  8
0
 10
4025.2754919072090161
 20
57.8466887784846904
 30
0.0
 40
0.0399139377497084
 50
270.7749231086287978
 51
359.2247622536897893
  0
ARC
  5
80D6
  8
0
 10
4025.0692239143209008
 20
63.4820693306329815
 30
0.0
 40
0.2810411893411508
 50
25.7420818159712894
 51
40.0632264581701989
  0
ARC
  5
80D7
  8
0
 10
4024.9518623290391588
 20
63.4805580604893009
 30
0.0
 40
0.2837959732873787
 50
140.0038480850462008
 51
154.1839311917389921
  0
ARC
  5
80D8
  8
0
 10
4025.0858049657581432
 20
76.056004409130594
 30
0.0
 40
12.3980200519740702
 50
268.3760417742598747
 51
269.6487601257809956
  0
ARC
  5
80D9
  8
0
 10
4024.932163774124092
 20
76.1079042840673026
 30
0.0
 40
12.4499290453710696
 50
270.3573007466268905
 51
271.6208478213616786
  0
ARC
  5
80DA
  8
0
 10
4026.1510941245041977
 20
63.8445507296765484
 30
0.0
 40
0.0394189808704524
 50
283.5893070651682137
 51
359.9271723159524186
  0
ARC
  5
80DB
  8
0
 10
4023.8677307081811705
 20
63.844554628126879
 30
0.0
 40
0.0394223944993421
 50
180.0784873184155117
 51
256.4068397355572984
  0
LINE
  5
80DC
  8
0
 10
3999.8286673082511697
 20
63.844500624898572
 30
0.0
 11
4002.190872031111212
 21
63.844500624898572
 31
0.0
  0
LINE
  5
80DD
  8
0
 10
4023.8283083506698858
 20
63.844500624898572
 30
0.0
 11
4026.1905130735299281
 21
63.844500624898572
 31
0.0
  0
LINE
  5
80DE
  8
0
 10
4001.7103673082510795
 20
57.806778477658419
 30
0.0
 11
4001.7103673082510795
 21
58.7910304454997004
 31
0.0
  0
LINE
  5
80DF
  8
0
 10
4001.7103673082510795
 20
60.7039158327985788
 30
0.0
 11
4001.7103673082510795
 21
61.688167801298583
 31
0.0
  0
LINE
  5
80E0
  8
0
 10
4024.3088130735300183
 20
61.688167801298583
 30
0.0
 11
4024.3088130735300183
 21
60.7039158327985788
 31
0.0
  0
LINE
  5
80E1
  8
0
 10
4024.3088130735300183
 20
58.7910304455974781
 30
0.0
 11
4024.3088130735300183
 21
57.8067784907387505
 31
0.0
  0
ARC
  5
80E2
  8
0
 10
4024.5853684481839991
 20
61.8061613868440105
 30
0.0
 40
0.1179936434084214
 50
269.9432574608738946
 51
0.0566436543457804
  0
ARC
  5
80E3
  8
0
 10
4024.5854015197492117
 20
60.5859553188495923
 30
0.0
 40
0.1179606091987676
 50
359.927276957838103
 51
90.0728116983865874
  0
ARC
  5
80E4
  8
0
 10
4001.4340793352380388
 20
61.8064287889455102
 30
0.0
 40
0.1182610834709889
 50
180.0730369091045873
 51
269.9270619746686179
  0
ARC
  5
80E5
  8
0
 10
4001.4340793399069298
 20
60.5856548405094273
 30
0.0
 40
0.1182610881460132
 50
90.072950507794701
 51
179.9269608439352055
  0
ENDSEC
  0
EOF
