  0
SECTION
  2
HEADER
  9
$ACADVER
  1
AC1009
  9
$INSBASE
 10
24.055394390704478
 20
12.192909629574761
 30
0.0
  9
$EXTMIN
 10
20.079016437904482
 20
11.011817942222111
 30
0.0
  9
$EXTMAX
 10
24.0732814610346
 20
13.37400131692741
 30
0.0
  9
$LIMMIN
 10
0.0
 20
0.0
  9
$LIMMAX
 10
12.0
 20
9.0
  9
$ORTHOMODE
 70
     0
  9
$REGENMODE
 70
     1
  9
$FILLMODE
 70
     1
  9
$QTEXTMODE
 70
     0
  9
$MIRRTEXT
 70
     0
  9
$DRAGMODE
 70
     2
  9
$LTSCALE
 40
1.0
  9
$OSMODE
 70
  3071
  9
$ATTMODE
 70
     1
  9
$TEXTSIZE
 40
0.2
  9
$TRACEWID
 40
0.05
  9
$TEXTSTYLE
  7
STANDARD
  9
$CLAYER
  8
0
  9
$CELTYPE
  6
BYLAYER
  9
$CECOLOR
 62
   256
  9
$DIMSCALE
 40
1.0
  9
$DIMASZ
 40
0.18
  9
$DIMEXO
 40
0.0625
  9
$DIMDLI
 40
0.38
  9
$DIMRND
 40
0.0
  9
$DIMDLE
 40
0.0
  9
$DIMEXE
 40
0.18
  9
$DIMTP
 40
0.0
  9
$DIMTM
 40
0.0
  9
$DIMTXT
 40
0.18
  9
$DIMCEN
 40
0.09
  9
$DIMTSZ
 40
0.0
  9
$DIMTOL
 70
     0
  9
$DIMLIM
 70
     0
  9
$DIMTIH
 70
     1
  9
$DIMTOH
 70
     1
  9
$DIMSE1
 70
     0
  9
$DIMSE2
 70
     0
  9
$DIMTAD
 70
     0
  9
$DIMZIN
 70
     0
  9
$DIMBLK
  1

  9
$DIMASO
 70
     1
  9
$DIMSHO
 70
     1
  9
$DIMPOST
  1

  9
$DIMAPOST
  1

  9
$DIMALT
 70
     0
  9
$DIMALTD
 70
     2
  9
$DIMALTF
 40
25.399999999999999
  9
$DIMLFAC
 40
1.0
  9
$DIMTOFL
 70
     0
  9
$DIMTVP
 40
0.0
  9
$DIMTIX
 70
     0
  9
$DIMSOXD
 70
     0
  9
$DIMSAH
 70
     0
  9
$DIMBLK1
  1

  9
$DIMBLK2
  1

  9
$DIMSTYLE
  2
STANDARD
  9
$DIMCLRD
 70
     0
  9
$DIMCLRE
 70
     0
  9
$DIMCLRT
 70
     0
  9
$DIMTFAC
 40
1.0
  9
$DIMGAP
 40
0.09
  9
$LUNITS
 70
     2
  9
$LUPREC
 70
     4
  9
$SKETCHINC
 40
0.1
  9
$FILLETRAD
 40
0.0
  9
$AUNITS
 70
     0
  9
$AUPREC
 70
     0
  9
$MENU
  1
.
  9
$ELEVATION
 40
0.0
  9
$PELEVATION
 40
0.0
  9
$THICKNESS
 40
0.0
  9
$LIMCHECK
 70
     0
  9
$BLIPMODE
 70
     0
  9
$CHAMFERA
 40
0.0
  9
$CHAMFERB
 40
0.0
  9
$SKPOLY
 70
     0
  9
$TDCREATE
 40
2458292.6814677892
  9
$TDUPDATE
 40
2458292.6849510539
  9
$TDINDWG
 40
0.0019385532
  9
$TDUSRTIMER
 40
0.0019385301
  9
$USRTIMER
 70
     1
  9
$ANGBASE
 50
0.0
  9
$ANGDIR
 70
     0
  9
$PDMODE
 70
     0
  9
$PDSIZE
 40
0.0
  9
$PLINEWID
 40
0.0
  9
$COORDS
 70
     1
  9
$SPLFRAME
 70
     0
  9
$SPLINETYPE
 70
     6
  9
$SPLINESEGS
 70
     8
  9
$ATTDIA
 70
     1
  9
$ATTREQ
 70
     1
  9
$HANDLING
 70
     1
  9
$HANDSEED
  5
32B
  9
$SURFTAB1
 70
     6
  9
$SURFTAB2
 70
     6
  9
$SURFTYPE
 70
     6
  9
$SURFU
 70
     6
  9
$SURFV
 70
     6
  9
$UCSNAME
  2

  9
$UCSORG
 10
0.0
 20
0.0
 30
0.0
  9
$UCSXDIR
 10
1.0
 20
0.0
 30
0.0
  9
$UCSYDIR
 10
0.0
 20
1.0
 30
0.0
  9
$PUCSNAME
  2

  9
$PUCSORG
 10
0.0
 20
0.0
 30
0.0
  9
$PUCSXDIR
 10
1.0
 20
0.0
 30
0.0
  9
$PUCSYDIR
 10
0.0
 20
1.0
 30
0.0
  9
$USERI1
 70
     0
  9
$USERI2
 70
     0
  9
$USERI3
 70
     0
  9
$USERI4
 70
     0
  9
$USERI5
 70
     0
  9
$USERR1
 40
0.0
  9
$USERR2
 40
0.0
  9
$USERR3
 40
0.0
  9
$USERR4
 40
0.0
  9
$USERR5
 40
0.0
  9
$WORLDVIEW
 70
     1
  9
$SHADEDGE
 70
     3
  9
$SHADEDIF
 70
    70
  9
$TILEMODE
 70
     1
  9
$MAXACTVP
 70
    64
  9
$PLIMCHECK
 70
     0
  9
$PEXTMIN
 10
0.0
 20
0.0
 30
0.0
  9
$PEXTMAX
 10
0.0
 20
0.0
 30
0.0
  9
$PLIMMIN
 10
0.0
 20
0.0
  9
$PLIMMAX
 10
12.0
 20
9.0
  9
$UNITMODE
 70
     0
  9
$VISRETAIN
 70
     1
  9
$PLINEGEN
 70
     0
  9
$PSLTSCALE
 70
     1
  0
ENDSEC
  0
SECTION
  2
TABLES
  0
TABLE
  2
VPORT
 70
     1
  0
VPORT
  2
*ACTIVE
 70
     0
 10
0.0
 20
0.0
 11
1.0
 21
1.0
 12
0.0
 22
0.0
 13
0.0
 23
0.0
 14
0.5
 24
0.5
 15
0.5
 25
0.5
 16
-0.0000000000000036
 26
0.0
 36
13.060663847921759
 17
22.076186015606059
 27
12.192909629574761
 37
0.0
 40
4.6421599106696547
 41
2.1006711409395971
 42
50.0
 43
0.0
 44
0.0
 50
0.0
 51
0.0
 71
     0
 72
  1000
 73
     1
 74
     3
 75
     0
 76
     0
 77
     0
 78
     0
  0
ENDTAB
  0
TABLE
  2
LTYPE
 70
     1
  0
LTYPE
  2
CONTINUOUS
 70
     0
  3
Solid line
 72
    65
 73
     0
 40
0.0
  0
ENDTAB
  0
TABLE
  2
LAYER
 70
     2
  0
LAYER
  2
0
 70
     0
 62
     7
  6
CONTINUOUS
  0
LAYER
  2
DEFPOINTS
 70
     0
 62
     7
  6
CONTINUOUS
  0
ENDTAB
  0
TABLE
  2
STYLE
 70
     2
  0
STYLE
  2
STANDARD
 70
     0
 40
0.0
 41
1.0
 50
0.0
 71
     0
 42
0.2
  3
txt
  4

  0
ENDTAB
  0
TABLE
  2
VIEW
 70
     0
  0
ENDTAB
  0
TABLE
  2
UCS
 70
     0
  0
ENDTAB
  0
TABLE
  2
APPID
 70
     8
  0
APPID
  2
ACAD
 70
     0
  0
APPID
  2
ACADANNOPO
 70
     0
  0
APPID
  2
ACADANNOTATIVE
 70
     0
  0
APPID
  2
ACAD_DSTYLE_DIMJAG
 70
     0
  0
APPID
  2
ACAD_DSTYLE_DIMTALN
 70
     0
  0
APPID
  2
ACAD_MLEADERVER
 70
     0
  0
APPID
  2
ACAD_NAV_VCDISPLAY
 70
     0
  0
APPID
  2
ACDBATTR
 70
     0
  0
ENDTAB
  0
TABLE
  2
DIMSTYLE
 70
     2
  0
DIMSTYLE
  2
STANDARD
 70
     0
  3

  4

  5

  6

  7

 40
1.0
 41
0.18
 42
0.0625
 43
0.38
 44
0.18
 45
0.0
 46
0.0
 47
0.0
 48
0.0
140
0.18
141
0.09
142
0.0
143
25.399999999999999
144
1.0
145
0.0
146
1.0
147
0.09
 71
     0
 72
     0
 73
     1
 74
     1
 75
     0
 76
     0
 77
     0
 78
     0
170
     0
171
     2
172
     0
173
     0
174
     0
175
     0
176
     0
177
     0
178
     0
  0
ENDTAB
  0
ENDSEC
  0
SECTION
  2
BLOCKS
  0
BLOCK
  8
0
  2
$MODEL_SPACE
 70
     0
 10
0.0
 20
0.0
 30
0.0
  3
$MODEL_SPACE
  1

  0
ENDBLK
  5
21
  8
0
  0
BLOCK
 67
     1
  8
0
  2
$PAPER_SPACE
 70
     0
 10
0.0
 20
0.0
 30
0.0
  3
$PAPER_SPACE
  1

  0
ENDBLK
  5
5B
 67
     1
  8
0
  0
ENDSEC
  0
SECTION
  2
ENTITIES
  0
LINE
  5
1F2
  8
0
 10
20.079016437904482
 20
11.925232748716461
 30
0.0
 11
20.079016437904482
 21
12.85585349991646
 31
0.0
  0
LINE
  5
1F3
  8
0
 10
21.063268406404479
 20
12.578775653816461
 30
0.0
 11
21.063268406404479
 21
12.85585349991646
 31
0.0
  0
LINE
  5
1F4
  8
0
 10
20.118387054704488
 20
11.88586228881646
 30
0.0
 11
23.602126354000251
 21
11.88586228881646
 31
0.0
  0
LINE
  5
1F5
  8
0
 10
21.142008499704481
 20
12.50003551721646
 30
0.0
 11
23.602108900041749
 21
12.50003551721646
 31
0.0
  0
LINE
  5
1F6
  8
0
 10
21.063268406404479
 20
12.85585349991646
 30
0.0
 11
20.079016437904482
 21
12.85585349991646
 31
0.0
  0
ARC
  5
1F7
  8
0
 10
20.571142422204481
 20
6.732318981716463
 30
0.0
 40
6.1614173227999993
 50
85.588274214200027
 51
94.411725785799959
  0
ARC
  5
1F8
  8
0
 10
21.043583367004491
 20
12.85585349991646
 30
0.0
 40
0.0196850394
 50
0.0
 51
85.588274214399917
  0
ARC
  5
1F9
  8
0
 10
20.098701477304491
 20
12.85585349991646
 30
0.0
 40
0.0196850394
 50
94.411725785799959
 51
180.0
  0
LINE
  5
1FA
  8
0
 10
24.055394390704478
 20
13.37400131692741
 30
0.0
 11
23.830478529015171
 21
13.37400131692741
 31
0.0
  0
LINE
  5
1FB
  8
0
 10
23.830479739104479
 20
11.011817942222111
 30
0.0
 11
24.055394390704478
 21
11.011817942222111
 31
0.0
  0
LINE
  5
1FC
  8
0
 10
23.590098904273511
 20
12.50594683337467
 30
0.0
 11
23.792213390304489
 21
13.34386563621646
 31
0.0
  0
LINE
  5
1FD
  8
0
 10
23.830479739104479
 20
11.011817942222111
 30
0.0
 11
23.830478529015171
 21
13.37400131692741
 31
0.0
  0
LINE
  5
1FE
  8
0
 10
24.055394390704478
 20
11.011817942222111
 30
0.0
 11
24.055394390704478
 21
13.37400131692741
 31
0.0
  0
LINE
  5
1FF
  8
0
 10
23.590082532504489
 20
11.87995677701646
 30
0.0
 11
23.792214395904491
 21
11.04197454041646
 31
0.0
  0
ARC
  5
200
  8
0
 10
23.830674944809811
 20
11.05142115137874
 30
0.0
 40
0.0396036902418372
 50
193.79971068859791
 51
269.71758923798308
  0
ARC
  5
201
  8
0
 10
23.83063703289104
 20
13.33443840708436
 30
0.0
 40
0.0395632273548037
 50
90.229547183717116
 51
166.21479915615481
  0
ARC
  5
202
  8
0
 10
23.505532458557841
 20
12.067623890134129
 30
0.0
 40
0.2058340602288712
 50
294.25309725505213
 51
314.67950310994638
  0
ARC
  5
203
  8
0
 10
23.50437427676324
 20
12.31662448751837
 30
0.0
 40
0.2078260387976099
 50
45.411898749086369
 51
65.639115638458264
  0
ARC
  5
204
  8
0
 10
29.74167128322178
 20
12.19287561454251
 30
0.0
 40
6.0974610033874752
 50
177.44554775265991
 51
182.55307449218591
  0
ARC
  5
205
  8
0
 10
21.142095166884818
 20
12.578862277649151
 30
0.0
 40
0.0788268080763974
 50
180.06296311037559
 51
269.93700538208731
  0
ARC
  5
206
  8
0
 10
20.118386060705578
 20
11.92523191161391
 30
0.0
 40
0.0393696228099926
 50
179.99878173983089
 51
270.00144659608378
  0
ATTDEF
  5
207
  8
DEFPOINTS
 10
24.062259632930921
 20
12.19442364809075
 30
0.0
 40
0.001
  1
K-78378
  3

  2
MODELNUMBER
 70
     0
1001
ACDBATTR
1070
     0
1070
     1
  0
ATTDEF
  5
208
  8
DEFPOINTS
 10
24.062259632930921
 20
12.192756981424081
 30
0.0
 40
0.001
  1
COMPONENTS
  3

  2
TRADENAME
 70
     0
1001
ACDBATTR
1070
     0
1070
     1
  0
ATTDEF
  5
209
  8
DEFPOINTS
 10
24.062259632930921
 20
12.1910903147574
 30
0.0
 40
0.001
  1
ROBE HOOK
  3

  2
PRODUCT
 70
     0
1001
ACDBATTR
1070
     0
1070
     1
  0
ATTDEF
  5
20A
  8
DEFPOINTS
 10
24.062259632930921
 20
12.18942364809074
 30
0.0
 40
0.001
  1
METAL
  3

  2
MATERIAL
 70
     0
1001
ACDBATTR
1070
     0
1070
     1
  0
ENDSEC
  0
EOF
