  0
SECTION
  2
HEADER
  9
$ACADVER
  1
AC1009
  9
$INSBASE
 10
33.933546751496948
 20
14.1663036781
 30
0.0
  9
$EXTMIN
 10
30.12741579013462
 20
10.359498263100001
 30
0.0
  9
$EXTMAX
 10
37.739677712859283
 20
14.17279566652722
 30
0.0
  9
$LIMMIN
 10
0.0
 20
0.0
  9
$LIMMAX
 10
11.692913385800001
 20
8.2677165353999982
  9
$ORTHOMODE
 70
     0
  9
$REGENMODE
 70
     1
  9
$FILLMODE
 70
     1
  9
$QTEXTMODE
 70
     0
  9
$MIRRTEXT
 70
     0
  9
$DRAGMODE
 70
     2
  9
$LTSCALE
 40
0.6431102362
  9
$OSMODE
 70
  3071
  9
$ATTMODE
 70
     1
  9
$TEXTSIZE
 40
0.2
  9
$TRACEWID
 40
0.05
  9
$TEXTSTYLE
  7
STANDARD
  9
$CLAYER
  8
0
  9
$CELTYPE
  6
BYLAYER
  9
$CECOLOR
 62
   256
  9
$DIMSCALE
 40
1.0
  9
$DIMASZ
 40
0.1875
  9
$DIMEXO
 40
0.0625
  9
$DIMDLI
 40
0.4443307087
  9
$DIMRND
 40
0.0
  9
$DIMDLE
 40
0.0
  9
$DIMEXE
 40
0.125
  9
$DIMTP
 40
0.01
  9
$DIMTM
 40
0.01
  9
$DIMTXT
 40
1.0
  9
$DIMCEN
 40
0.1052362205
  9
$DIMTSZ
 40
0.0
  9
$DIMTOL
 70
     1
  9
$DIMLIM
 70
     0
  9
$DIMTIH
 70
     1
  9
$DIMTOH
 70
     1
  9
$DIMSE1
 70
     0
  9
$DIMSE2
 70
     0
  9
$DIMTAD
 70
     0
  9
$DIMZIN
 70
     0
  9
$DIMBLK
  1

  9
$DIMASO
 70
     1
  9
$DIMSHO
 70
     1
  9
$DIMPOST
  1
\X
  9
$DIMAPOST
  1

  9
$DIMALT
 70
     1
  9
$DIMALTD
 70
     2
  9
$DIMALTF
 40
25.399999999999999
  9
$DIMLFAC
 40
1.0
  9
$DIMTOFL
 70
     0
  9
$DIMTVP
 40
0.0
  9
$DIMTIX
 70
     0
  9
$DIMSOXD
 70
     0
  9
$DIMSAH
 70
     0
  9
$DIMBLK1
  1

  9
$DIMBLK2
  1

  9
$DIMSTYLE
  2
STANDARD
  9
$DIMCLRD
 70
     0
  9
$DIMCLRE
 70
     0
  9
$DIMCLRT
 70
     0
  9
$DIMTFAC
 40
1.0
  9
$DIMGAP
 40
0.09
  9
$LUNITS
 70
     2
  9
$LUPREC
 70
     4
  9
$SKETCHINC
 40
0.1
  9
$FILLETRAD
 40
0.0
  9
$AUNITS
 70
     0
  9
$AUPREC
 70
     0
  9
$MENU
  1
.
  9
$ELEVATION
 40
0.0
  9
$PELEVATION
 40
0.0
  9
$THICKNESS
 40
0.0
  9
$LIMCHECK
 70
     0
  9
$BLIPMODE
 70
     0
  9
$CHAMFERA
 40
0.0
  9
$CHAMFERB
 40
0.0
  9
$SKPOLY
 70
     0
  9
$TDCREATE
 40
2458171.4966634838
  9
$TDUPDATE
 40
2458292.6557519208
  9
$TDINDWG
 40
0.0274910995
  9
$TDUSRTIMER
 40
0.0274910995
  9
$USRTIMER
 70
     1
  9
$ANGBASE
 50
0.0
  9
$ANGDIR
 70
     0
  9
$PDMODE
 70
     0
  9
$PDSIZE
 40
0.3125
  9
$PLINEWID
 40
0.0
  9
$COORDS
 70
     1
  9
$SPLFRAME
 70
     0
  9
$SPLINETYPE
 70
     6
  9
$SPLINESEGS
 70
     8
  9
$ATTDIA
 70
     1
  9
$ATTREQ
 70
     1
  9
$HANDLING
 70
     1
  9
$HANDSEED
  5
91F
  9
$SURFTAB1
 70
     6
  9
$SURFTAB2
 70
     6
  9
$SURFTYPE
 70
     6
  9
$SURFU
 70
     6
  9
$SURFV
 70
     6
  9
$UCSNAME
  2

  9
$UCSORG
 10
0.0
 20
0.0
 30
0.0
  9
$UCSXDIR
 10
1.0
 20
0.0
 30
0.0
  9
$UCSYDIR
 10
0.0
 20
1.0
 30
0.0
  9
$PUCSNAME
  2

  9
$PUCSORG
 10
0.0
 20
0.0
 30
0.0
  9
$PUCSXDIR
 10
1.0
 20
0.0
 30
0.0
  9
$PUCSYDIR
 10
0.0
 20
1.0
 30
0.0
  9
$USERI1
 70
     0
  9
$USERI2
 70
     0
  9
$USERI3
 70
     0
  9
$USERI4
 70
     0
  9
$USERI5
 70
     0
  9
$USERR1
 40
0.0
  9
$USERR2
 40
0.0
  9
$USERR3
 40
0.0
  9
$USERR4
 40
0.0
  9
$USERR5
 40
0.0
  9
$WORLDVIEW
 70
     1
  9
$SHADEDGE
 70
     3
  9
$SHADEDIF
 70
    70
  9
$TILEMODE
 70
     1
  9
$MAXACTVP
 70
    64
  9
$PLIMCHECK
 70
     0
  9
$PEXTMIN
 10
1.0000000000000000E+020
 20
1.0000000000000000E+020
 30
1.0000000000000000E+020
  9
$PEXTMAX
 10
-1.0000000000000000E+020
 20
-1.0000000000000000E+020
 30
-1.0000000000000000E+020
  9
$PLIMMIN
 10
0.0
 20
0.0
  9
$PLIMMAX
 10
12.0
 20
9.0
  9
$UNITMODE
 70
     0
  9
$VISRETAIN
 70
     1
  9
$PLINEGEN
 70
     0
  9
$PSLTSCALE
 70
     1
  0
ENDSEC
  0
SECTION
  2
TABLES
  0
TABLE
  2
VPORT
 70
     1
  0
VPORT
  2
*ACTIVE
 70
     0
 10
0.0
 20
0.0
 11
1.0
 21
1.0
 12
0.0
 22
0.0
 13
0.0
 23
0.0
 14
1.0
 24
1.0
 15
0.0
 25
0.0
 16
-0.0000000000000071
 26
0.0
 36
23.962308350261591
 17
33.933546751496948
 27
12.266146964813609
 37
0.0
 40
8.5146542030814825
 41
2.1006711409395971
 42
50.0
 43
0.0
 44
0.0
 50
0.0
 51
0.0
 71
     0
 72
   100
 73
     1
 74
     1
 75
     0
 76
     0
 77
     0
 78
     0
  0
ENDTAB
  0
TABLE
  2
LTYPE
 70
     2
  0
LTYPE
  2
CONTINUOUS
 70
     0
  3
Solid line
 72
    65
 73
     0
 40
0.0
  0
LTYPE
  2
PHANTOM2
 70
     0
  3
___ _ _ ___ _ _ ___ _ _ ___ _ _
 72
    65
 73
     6
 40
1.25
 49
0.625
 49
-0.125
 49
0.125
 49
-0.125
 49
0.125
 49
-0.125
  0
ENDTAB
  0
TABLE
  2
LAYER
 70
     2
  0
LAYER
  2
0
 70
     0
 62
   255
  6
CONTINUOUS
  0
LAYER
  2
DEFPOINTS
 70
     0
 62
     7
  6
CONTINUOUS
  0
ENDTAB
  0
TABLE
  2
STYLE
 70
     1
  0
STYLE
  2
STANDARD
 70
     0
 40
0.0
 41
0.8
 50
0.0
 71
     0
 42
0.2
  3
txt
  4

  0
ENDTAB
  0
TABLE
  2
VIEW
 70
     0
  0
ENDTAB
  0
TABLE
  2
UCS
 70
     0
  0
ENDTAB
  0
TABLE
  2
APPID
 70
    10
  0
APPID
  2
ACAD
 70
     0
  0
APPID
  2
ACAD_MLEADERVER
 70
     0
  0
APPID
  2
ACAD_EXEMPT_FROM_CAD_STANDARDS
 70
     0
  0
APPID
  2
ACAD_DSTYLE_DIMJAG
 70
     0
  0
APPID
  2
ACAD_DSTYLE_DIMTALN
 70
     0
  0
APPID
  2
ACAD_NAV_VCDISPLAY
 70
     0
  0
APPID
  2
ACAECLAYERSTANDARD
 70
     0
  0
APPID
  2
ACCMTRANSPARENCY
 70
     0
  0
APPID
  2
DCO15
 70
     0
  0
APPID
  2
AcDbAttr
 70
     0
  0
ENDTAB
  0
TABLE
  2
DIMSTYLE
 70
     1
  0
DIMSTYLE
  2
STANDARD
 70
     0
  3

  4

  5

  6

  7

 40
1.0
 41
0.1875
 42
0.0625
 43
0.38
 44
0.125
 45
0.0
 46
0.0
 47
0.01
 48
0.01
140
0.15625
141
0.09
142
0.0
143
25.399999999999999
144
1.0
145
0.0
146
1.0
147
0.09
 71
     1
 72
     0
 73
     1
 74
     1
 75
     0
 76
     0
 77
     0
 78
     4
170
     0
171
     2
172
     0
173
     0
174
     0
175
     0
176
     0
177
     0
178
     0
  0
ENDTAB
  0
ENDSEC
  0
SECTION
  2
BLOCKS
  0
BLOCK
  8
0
  2
$MODEL_SPACE
 70
     0
 10
0.0
 20
0.0
 30
0.0
  3
$MODEL_SPACE
  1

  0
ENDBLK
  5
21
  8
0
  0
BLOCK
 67
     1
  8
0
  2
$PAPER_SPACE
 70
     0
 10
0.0
 20
0.0
 30
0.0
  3
$PAPER_SPACE
  1

  0
ENDBLK
  5
1D
 67
     1
  8
0
  0
ENDSEC
  0
SECTION
  2
ENTITIES
  0
LINE
  5
59B
  8
0
 10
31.002526672846951
 20
10.3791837958
 30
0.0
 11
31.002526672846951
 21
11.4697344836
 31
0.0
  0
LINE
  5
59C
  8
0
 10
31.614566830346948
 20
11.461860467799999
 30
0.0
 11
31.614566830346948
 21
11.4697344836
 31
0.0
  0
LINE
  5
59D
  8
0
 10
31.022212006246949
 20
10.359498263100001
 30
0.0
 11
36.844881503186642
 21
10.359498263100001
 31
0.0
  0
LINE
  5
59E
  8
0
 10
31.73267707278664
 20
11.3437502316
 30
0.0
 11
36.134416436646951
 21
11.3437502316
 31
0.0
  0
LINE
  5
59F
  8
0
 10
31.614566830346948
 20
11.4697344836
 30
0.0
 11
31.002526673146949
 21
11.4697344836
 31
0.0
  0
LINE
  5
5A0
  8
0
 10
31.002526680246941
 20
11.489419523
 30
0.0
 11
31.614566830346948
 21
11.489419523
 31
0.0
  0
ARC
  5
5A3
  8
0
 10
31.732677066546952
 20
11.461860467799999
 30
0.0
 40
0.1181102362
 50
179.99999999830001
 51
270.0000030269
  0
ARC
  5
5A4
  8
0
 10
31.081184546846949
 20
11.489419523
 30
0.0
 40
0.0196850394
 50
180.0
 51
270.0
  0
ARC
  5
5A5
  8
0
 10
31.535908956246949
 20
11.489419523
 30
0.0
 40
0.0196850394
 50
270.0
 51
0.0
  0
LINE
  5
5A9
  8
0
 10
30.12741579013462
 20
14.1663036781
 30
0.0
 11
30.12741579013462
 21
13.941387816400001
 31
0.0
  0
LINE
  5
5AA
  8
0
 10
31.002526680246941
 20
11.489419523
 30
0.0
 11
31.00252667284769
 21
13.71452370555625
 31
0.0
  0
LINE
  5
5AB
  8
0
 10
31.614566830346948
 20
11.489419523
 30
0.0
 11
31.614566830346948
 21
13.714534404008671
 31
0.0
  0
LINE
  5
5AC
  8
0
 10
32.489620515146953
 20
13.9413890265
 30
0.0
 11
32.489620515146953
 21
14.1663036781
 31
0.0
  0
LINE
  5
5AD
  8
0
 10
30.995632834246951
 20
13.7011621458
 30
0.0
 11
30.157572351246952
 21
13.903122677700001
 31
0.0
  0
LINE
  5
5AE
  8
0
 10
32.489620515146953
 20
13.9413890265
 30
0.0
 11
30.12741579013462
 21
13.941387816400001
 31
0.0
  0
LINE
  5
5AF
  8
0
 10
32.489620515146953
 20
14.1663036781
 30
0.0
 11
30.12741579013462
 21
14.1663036781
 31
0.0
  0
LINE
  5
5B0
  8
0
 10
31.62153887754695
 20
13.701006808600001
 30
0.0
 11
32.45946344704695
 21
13.9031236833
 31
0.0
  0
ARC
  5
5B1
  8
0
 10
32.450016200205837
 20
13.941585219681709
 30
0.0
 40
0.0396048008922944
 50
283.8002632989681
 51
359.71616857037139
  0
ARC
  5
5B2
  8
0
 10
30.167027824989709
 20
13.9415901739826
 30
0.0
 40
0.0396125517222986
 50
180.292692224039
 51
256.1902370697635
  0
ARC
  5
5B3
  8
0
 10
31.248281959494431
 20
13.5792681321595
 30
0.0
 40
0.2805168997577657
 50
139.92987712219909
 51
154.24438122216549
  0
ARC
  5
5B4
  8
0
 10
31.043974182561868
 20
13.733800369532361
 30
0.0
 40
0.0280282825050881
 50
82.796548584448672
 51
111.69214035070139
  0
ARC
  5
5B5
  8
0
 10
31.30850487972366
 20
18.99671910882692
 30
0.0
 40
5.241614610899032
 50
267.14566743340299
 51
272.85524871364652
  0
ARC
  5
5B6
  8
0
 10
31.573106827201968
 20
13.73365835495278
 30
0.0
 40
0.0281717720767725
 50
68.396573272618909
 51
97.141032676286144
  0
ARC
  5
5B7
  8
0
 10
31.369088889470191
 20
13.57945596804141
 30
0.0
 40
0.2801885138981578
 50
25.710109708032569
 51
40.07839616554638
  0
ARC
  5
5B8
  8
0
 10
31.022213007141779
 20
10.379184597385709
 30
0.0
 40
0.0196863343111516
 50
180.00233296240799
 51
269.99708696149918
  0
LINE
  5
5B9
  8
0
 10
36.86456683658664
 20
10.3791837958
 30
0.0
 11
36.86456683658664
 21
11.4697344836
 31
0.0
  0
LINE
  5
5BA
  8
0
 10
36.252526679086643
 20
11.461860467799999
 30
0.0
 11
36.252526679086643
 21
11.4697344836
 31
0.0
  0
LINE
  5
5BB
  8
0
 10
36.252526679086643
 20
11.4697344836
 30
0.0
 11
36.864566836286642
 21
11.4697344836
 31
0.0
  0
LINE
  5
5BC
  8
0
 10
36.864566829186643
 20
11.489419523
 30
0.0
 11
36.252526679086643
 21
11.489419523
 31
0.0
  0
ARC
  5
5BD
  8
0
 10
36.134416442886639
 20
11.461860467799999
 30
0.0
 40
0.1181102362
 50
269.9999969731
 51
0.0000000017000008
  0
ARC
  5
5BE
  8
0
 10
36.785908962586639
 20
11.489419523
 30
0.0
 40
0.0196850394
 50
270.0
 51
0.000000000000007
  0
ARC
  5
5BF
  8
0
 10
36.331184553186638
 20
11.489419523
 30
0.0
 40
0.0196850394
 50
180.0
 51
270.0
  0
LINE
  5
5C0
  8
0
 10
37.739677712859283
 20
14.1663036781
 30
0.0
 11
37.739677712859283
 21
13.941387816400001
 31
0.0
  0
LINE
  5
5C1
  8
0
 10
36.864566829186643
 20
11.489419523
 30
0.0
 11
36.864566836585901
 21
13.71452370555625
 31
0.0
  0
LINE
  5
5C2
  8
0
 10
36.252526679086643
 20
11.489419523
 30
0.0
 11
36.252526679086643
 21
13.714534404008671
 31
0.0
  0
LINE
  5
5C3
  8
0
 10
35.377472994286641
 20
13.9413890265
 30
0.0
 11
35.377472994286641
 21
14.1663036781
 31
0.0
  0
LINE
  5
5C4
  8
0
 10
36.87146067518664
 20
13.7011621458
 30
0.0
 11
37.709521158186639
 21
13.903122677700001
 31
0.0
  0
LINE
  5
5C5
  8
0
 10
35.377472994286641
 20
13.9413890265
 30
0.0
 11
37.739677712859283
 21
13.941387816400001
 31
0.0
  0
LINE
  5
5C6
  8
0
 10
35.377472994286641
 20
14.1663036781
 30
0.0
 11
37.739677712859283
 21
14.1663036781
 31
0.0
  0
LINE
  5
5C7
  8
0
 10
36.245554631886641
 20
13.701006808600001
 30
0.0
 11
35.407630062386637
 21
13.9031236833
 31
0.0
  0
ARC
  5
5C8
  8
0
 10
35.417077309227743
 20
13.941585219681709
 30
0.0
 40
0.0396048008922944
 50
180.28383142962861
 51
256.19973670103201
  0
ARC
  5
5C9
  8
0
 10
37.700065693163261
 20
13.94159016044453
 30
0.0
 40
0.0396125364942523
 50
283.80975535713043
 51
359.7073272452534
  0
ARC
  5
5CA
  8
0
 10
36.61881154993916
 20
13.5792681321595
 30
0.0
 40
0.2805168997577657
 50
25.755618777834499
 51
40.07012287780082
  0
ARC
  5
5CB
  8
0
 10
36.823119326871719
 20
13.733800369532361
 30
0.0
 40
0.0280282825050881
 50
68.307859649298564
 51
97.203451415551328
  0
ARC
  5
5CC
  8
0
 10
36.558588629709931
 20
18.99671910882692
 30
0.0
 40
5.241614610899032
 50
267.14475128635348
 51
272.85433256659701
  0
ARC
  5
5CD
  8
0
 10
36.293986682231619
 20
13.73365835495278
 30
0.0
 40
0.0281717720767725
 50
82.85896732371387
 51
111.60342672738111
  0
ARC
  5
5CE
  8
0
 10
36.49800461996341
 20
13.57945596804141
 30
0.0
 40
0.2801885138981578
 50
139.92160383445361
 51
154.2898902919674
  0
ARC
  5
5CF
  8
0
 10
36.844880502291808
 20
10.379184597385709
 30
0.0
 40
0.0196863343111516
 50
270.00291303850082
 51
359.99766703759201
  0
ATTDEF
  5
811
  8
DEFPOINTS
 10
33.930755433296063
 20
14.17179566652722
 30
0.0
 40
0.001
  1
K-78382
  3

  2
MODELNUMBER
 70
     0
1001
AcDbAttr
1070
     0
1070
     1
  0
ATTDEF
  5
812
  8
DEFPOINTS
 10
33.930755433296063
 20
14.170128999860561
 30
0.0
 40
0.001
  1
COMPONENTS
  3

  2
TRADENAME
 70
     0
1001
AcDbAttr
1070
     0
1070
     1
  0
ATTDEF
  5
813
  8
DEFPOINTS
 10
33.930755433296063
 20
14.168462333193879
 30
0.0
 40
0.001
  1
TISSUE HOLDER
  3

  2
PRODUCT
 70
     0
1001
AcDbAttr
1070
     0
1070
     1
  0
ATTDEF
  5
814
  8
DEFPOINTS
 10
33.930755433296063
 20
14.166795666527211
 30
0.0
 40
0.001
  1
METAL
  3

  2
MATERIAL
 70
     0
1001
AcDbAttr
1070
     0
1070
     1
  0
ENDSEC
  0
EOF
