  0
SECTION
  2
HEADER
  9
$ACADVER
  1
AC1009
  9
$INSBASE
 10
47.94627442814695
 20
4.6701636092795056
 30
0.0
  9
$EXTMIN
 10
44.139469013726597
 20
3.4897605600220678
 30
0.0
  9
$EXTMAX
 10
47.966547132332217
 20
5.8505666586369411
 30
0.0
  9
$LIMMIN
 10
0.0
 20
0.0
  9
$LIMMAX
 10
11.692913385800001
 20
8.2677165353999982
  9
$ORTHOMODE
 70
     0
  9
$REGENMODE
 70
     1
  9
$FILLMODE
 70
     1
  9
$QTEXTMODE
 70
     0
  9
$MIRRTEXT
 70
     0
  9
$DRAGMODE
 70
     2
  9
$LTSCALE
 40
0.6431102362
  9
$OSMODE
 70
  3071
  9
$ATTMODE
 70
     1
  9
$TEXTSIZE
 40
0.2
  9
$TRACEWID
 40
0.05
  9
$TEXTSTYLE
  7
STANDARD
  9
$CLAYER
  8
0
  9
$CELTYPE
  6
BYLAYER
  9
$CECOLOR
 62
   256
  9
$DIMSCALE
 40
1.0
  9
$DIMASZ
 40
0.1875
  9
$DIMEXO
 40
0.0625
  9
$DIMDLI
 40
0.4443307087
  9
$DIMRND
 40
0.0
  9
$DIMDLE
 40
0.0
  9
$DIMEXE
 40
0.125
  9
$DIMTP
 40
0.01
  9
$DIMTM
 40
0.01
  9
$DIMTXT
 40
1.0
  9
$DIMCEN
 40
0.1052362205
  9
$DIMTSZ
 40
0.0
  9
$DIMTOL
 70
     1
  9
$DIMLIM
 70
     0
  9
$DIMTIH
 70
     1
  9
$DIMTOH
 70
     1
  9
$DIMSE1
 70
     0
  9
$DIMSE2
 70
     0
  9
$DIMTAD
 70
     0
  9
$DIMZIN
 70
     0
  9
$DIMBLK
  1

  9
$DIMASO
 70
     1
  9
$DIMSHO
 70
     1
  9
$DIMPOST
  1
\X
  9
$DIMAPOST
  1

  9
$DIMALT
 70
     1
  9
$DIMALTD
 70
     2
  9
$DIMALTF
 40
25.399999999999999
  9
$DIMLFAC
 40
1.0
  9
$DIMTOFL
 70
     0
  9
$DIMTVP
 40
0.0
  9
$DIMTIX
 70
     0
  9
$DIMSOXD
 70
     0
  9
$DIMSAH
 70
     0
  9
$DIMBLK1
  1

  9
$DIMBLK2
  1

  9
$DIMSTYLE
  2
STANDARD
  9
$DIMCLRD
 70
     0
  9
$DIMCLRE
 70
     0
  9
$DIMCLRT
 70
     0
  9
$DIMTFAC
 40
1.0
  9
$DIMGAP
 40
0.09
  9
$LUNITS
 70
     2
  9
$LUPREC
 70
     4
  9
$SKETCHINC
 40
0.1
  9
$FILLETRAD
 40
0.0
  9
$AUNITS
 70
     0
  9
$AUPREC
 70
     0
  9
$MENU
  1
.
  9
$ELEVATION
 40
0.0
  9
$PELEVATION
 40
0.0
  9
$THICKNESS
 40
0.0
  9
$LIMCHECK
 70
     0
  9
$BLIPMODE
 70
     0
  9
$CHAMFERA
 40
0.0
  9
$CHAMFERB
 40
0.0
  9
$SKPOLY
 70
     0
  9
$TDCREATE
 40
2458171.4966634838
  9
$TDUPDATE
 40
2458292.6558560999
  9
$TDINDWG
 40
0.027589838
  9
$TDUSRTIMER
 40
0.027589838
  9
$USRTIMER
 70
     1
  9
$ANGBASE
 50
0.0
  9
$ANGDIR
 70
     0
  9
$PDMODE
 70
     0
  9
$PDSIZE
 40
0.3125
  9
$PLINEWID
 40
0.0
  9
$COORDS
 70
     1
  9
$SPLFRAME
 70
     0
  9
$SPLINETYPE
 70
     6
  9
$SPLINESEGS
 70
     8
  9
$ATTDIA
 70
     1
  9
$ATTREQ
 70
     1
  9
$HANDLING
 70
     1
  9
$HANDSEED
  5
91F
  9
$SURFTAB1
 70
     6
  9
$SURFTAB2
 70
     6
  9
$SURFTYPE
 70
     6
  9
$SURFU
 70
     6
  9
$SURFV
 70
     6
  9
$UCSNAME
  2

  9
$UCSORG
 10
0.0
 20
0.0
 30
0.0
  9
$UCSXDIR
 10
1.0
 20
0.0
 30
0.0
  9
$UCSYDIR
 10
0.0
 20
1.0
 30
0.0
  9
$PUCSNAME
  2

  9
$PUCSORG
 10
0.0
 20
0.0
 30
0.0
  9
$PUCSXDIR
 10
1.0
 20
0.0
 30
0.0
  9
$PUCSYDIR
 10
0.0
 20
1.0
 30
0.0
  9
$USERI1
 70
     0
  9
$USERI2
 70
     0
  9
$USERI3
 70
     0
  9
$USERI4
 70
     0
  9
$USERI5
 70
     0
  9
$USERR1
 40
0.0
  9
$USERR2
 40
0.0
  9
$USERR3
 40
0.0
  9
$USERR4
 40
0.0
  9
$USERR5
 40
0.0
  9
$WORLDVIEW
 70
     1
  9
$SHADEDGE
 70
     3
  9
$SHADEDIF
 70
    70
  9
$TILEMODE
 70
     1
  9
$MAXACTVP
 70
    64
  9
$PLIMCHECK
 70
     0
  9
$PEXTMIN
 10
1.0000000000000000E+020
 20
1.0000000000000000E+020
 30
1.0000000000000000E+020
  9
$PEXTMAX
 10
-1.0000000000000000E+020
 20
-1.0000000000000000E+020
 30
-1.0000000000000000E+020
  9
$PLIMMIN
 10
0.0
 20
0.0
  9
$PLIMMAX
 10
12.0
 20
9.0
  9
$UNITMODE
 70
     0
  9
$VISRETAIN
 70
     1
  9
$PLINEGEN
 70
     0
  9
$PSLTSCALE
 70
     1
  0
ENDSEC
  0
SECTION
  2
TABLES
  0
TABLE
  2
VPORT
 70
     1
  0
VPORT
  2
*ACTIVE
 70
     0
 10
0.0
 20
0.0
 11
1.0
 21
1.0
 12
0.0
 22
0.0
 13
0.0
 23
0.0
 14
1.0
 24
1.0
 15
0.0
 25
0.0
 16
0.0
 26
0.0
 36
12.65569896592145
 17
46.053008073029432
 27
4.6701636093295038
 37
0.0
 40
4.4971528365658049
 41
2.1006711409395971
 42
50.0
 43
0.0
 44
0.0
 50
0.0
 51
0.0
 71
     0
 72
   100
 73
     1
 74
     1
 75
     0
 76
     0
 77
     0
 78
     0
  0
ENDTAB
  0
TABLE
  2
LTYPE
 70
     2
  0
LTYPE
  2
CONTINUOUS
 70
     0
  3
Solid line
 72
    65
 73
     0
 40
0.0
  0
LTYPE
  2
PHANTOM2
 70
     0
  3
___ _ _ ___ _ _ ___ _ _ ___ _ _
 72
    65
 73
     6
 40
1.25
 49
0.625
 49
-0.125
 49
0.125
 49
-0.125
 49
0.125
 49
-0.125
  0
ENDTAB
  0
TABLE
  2
LAYER
 70
     2
  0
LAYER
  2
0
 70
     0
 62
   255
  6
CONTINUOUS
  0
LAYER
  2
DEFPOINTS
 70
     0
 62
     7
  6
CONTINUOUS
  0
ENDTAB
  0
TABLE
  2
STYLE
 70
     1
  0
STYLE
  2
STANDARD
 70
     0
 40
0.0
 41
0.8
 50
0.0
 71
     0
 42
0.2
  3
txt
  4

  0
ENDTAB
  0
TABLE
  2
VIEW
 70
     0
  0
ENDTAB
  0
TABLE
  2
UCS
 70
     0
  0
ENDTAB
  0
TABLE
  2
APPID
 70
    10
  0
APPID
  2
ACAD
 70
     0
  0
APPID
  2
ACAD_MLEADERVER
 70
     0
  0
APPID
  2
ACAD_EXEMPT_FROM_CAD_STANDARDS
 70
     0
  0
APPID
  2
ACAD_DSTYLE_DIMJAG
 70
     0
  0
APPID
  2
ACAD_DSTYLE_DIMTALN
 70
     0
  0
APPID
  2
ACAD_NAV_VCDISPLAY
 70
     0
  0
APPID
  2
ACAECLAYERSTANDARD
 70
     0
  0
APPID
  2
ACCMTRANSPARENCY
 70
     0
  0
APPID
  2
DCO15
 70
     0
  0
APPID
  2
AcDbAttr
 70
     0
  0
ENDTAB
  0
TABLE
  2
DIMSTYLE
 70
     1
  0
DIMSTYLE
  2
STANDARD
 70
     0
  3

  4

  5

  6

  7

 40
1.0
 41
0.1875
 42
0.0625
 43
0.38
 44
0.125
 45
0.0
 46
0.0
 47
0.01
 48
0.01
140
0.15625
141
0.09
142
0.0
143
25.399999999999999
144
1.0
145
0.0
146
1.0
147
0.09
 71
     1
 72
     0
 73
     1
 74
     1
 75
     0
 76
     0
 77
     0
 78
     4
170
     0
171
     2
172
     0
173
     0
174
     0
175
     0
176
     0
177
     0
178
     0
  0
ENDTAB
  0
ENDSEC
  0
SECTION
  2
BLOCKS
  0
BLOCK
  8
0
  2
$MODEL_SPACE
 70
     0
 10
0.0
 20
0.0
 30
0.0
  3
$MODEL_SPACE
  1

  0
ENDBLK
  5
21
  8
0
  0
BLOCK
 67
     1
  8
0
  2
$PAPER_SPACE
 70
     0
 10
0.0
 20
0.0
 30
0.0
  3
$PAPER_SPACE
  1

  0
ENDBLK
  5
1D
 67
     1
  8
0
  0
ENDSEC
  0
SECTION
  2
ENTITIES
  0
LINE
  5
5A1
  8
0
 10
45.249705233646949
 20
4.1369796027999977
 30
0.0
 11
45.249705233646949
 21
5.2016698891999988
 31
0.0
  0
LINE
  5
5A2
  8
0
 10
45.269390273046938
 20
5.2016698891999988
 30
0.0
 11
45.269390273046938
 21
4.1369796027999959
 31
0.0
  0
ARC
  5
5A6
  8
0
 10
44.631595141359611
 20
4.6701772349872899
 30
0.0
 40
0.4921261282127082
 50
90.000007915932926
 51
269.99443007564759
  0
ARC
  5
5A7
  8
0
 10
45.269390273046938
 20
4.2174208237000004
 30
0.0
 40
0.0196850394
 50
180.0
 51
270.0
  0
ARC
  5
5A8
  8
0
 10
45.269390273046938
 20
5.1229326346999997
 30
0.0
 40
0.0196850394
 50
90.0
 51
180.0
  0
LINE
  5
5E8
  8
0
 10
47.94627442814695
 20
3.4897605600220709
 30
0.0
 11
47.72137078404694
 21
3.4897605600220678
 31
0.0
  0
LINE
  5
5E9
  8
0
 10
45.269390273046938
 20
4.1369796027999959
 30
0.0
 11
47.535885237589518
 21
4.1369796027999959
 31
0.0
  0
LINE
  5
5EA
  8
0
 10
47.536161711891523
 20
5.2016698891999988
 30
0.0
 11
45.269390273046938
 21
5.2016698891999988
 31
0.0
  0
LINE
  5
5EB
  8
0
 10
47.683098525652611
 20
5.8211285735175817
 30
0.0
 11
47.53507522745268
 21
5.207534250190073
 31
0.0
  0
LINE
  5
5EC
  8
0
 10
47.535090369328877
 20
4.1327309819634381
 30
0.0
 11
47.683098594946941
 21
3.5191987511704932
 31
0.0
  0
LINE
  5
5ED
  8
0
 10
47.721370803989551
 20
5.8505666585369411
 30
0.0
 11
47.94627442814695
 21
5.8505666585369411
 31
0.0
  0
LINE
  5
5EE
  8
0
 10
47.94627442814695
 20
3.4897605600220709
 30
0.0
 11
47.94627442814695
 21
5.8505666586369411
 31
0.0
  0
ARC
  5
5EF
  8
0
 10
47.723563429051318
 20
3.5322088577532562
 30
0.0
 40
0.0425048899820901
 50
197.8234482338689
 51
267.04304398878128
  0
ARC
  5
5F0
  8
0
 10
47.722362205635953
 20
5.8096799205470449
 30
0.0
 40
0.0408987557350933
 50
91.389007892205186
 51
163.74417111837599
  0
ARC
  5
5F1
  8
0
 10
46.24170644284672
 20
4.964880250941869
 30
0.0
 40
1.315934563853485
 50
8.9603954607876108
 51
10.62596109973857
  0
ARC
  5
5F2
  8
0
 10
49.566198689809347
 20
4.670879543891294
 30
0.0
 40
2.0851942335978859
 50
166.15554073233869
 51
193.8570099781675
  0
ARC
  5
5F3
  8
0
 10
46.474888578480623
 20
4.3332812507392067
 30
0.0
 40
1.079003358485912
 50
349.28836127646417
 51
351.37551988349571
  0
LINE
  5
5F4
  8
0
 10
47.721370803989551
 20
5.8505666585369411
 30
0.0
 11
47.721370784046947
 21
3.4897605600220709
 31
0.0
  0
ARC
  5
5F5
  8
0
 10
44.427286353707743
 20
13.242524672549701
 30
0.0
 40
8.0828038737184738
 50
271.44841746018182
 51
275.83990647636398
  0
ARC
  5
5F6
  8
0
 10
44.314610637094368
 20
-5.2645040183215981
 30
0.0
 40
9.4478725744327985
 50
84.319902873124633
 51
88.077605243331519
  0
ATTDEF
  5
811
  8
DEFPOINTS
 10
47.955880465665587
 20
4.671746342614929
 30
0.0
 40
0.001
  1
K-78382
  3

  2
MODELNUMBER
 70
     0
1001
AcDbAttr
1070
     0
1070
     1
  0
ATTDEF
  5
812
  8
DEFPOINTS
 10
47.955880465665587
 20
4.670079675948263
 30
0.0
 40
0.001
  1
COMPONENTS
  3

  2
TRADENAME
 70
     0
1001
AcDbAttr
1070
     0
1070
     1
  0
ATTDEF
  5
813
  8
DEFPOINTS
 10
47.955880465665587
 20
4.6684130092815836
 30
0.0
 40
0.001
  1
TISSUE HOLDER
  3

  2
PRODUCT
 70
     0
1001
AcDbAttr
1070
     0
1070
     1
  0
ATTDEF
  5
814
  8
DEFPOINTS
 10
47.955880465665587
 20
4.6667463426149194
 30
0.0
 40
0.001
  1
METAL
  3

  2
MATERIAL
 70
     0
1001
AcDbAttr
1070
     0
1070
     1
  0
ENDSEC
  0
EOF
