  0
SECTION
  2
HEADER
  9
$ACADVER
  1
AC1009
  9
$INSBASE
 10
304.79930911409713
 20
27.484705156017661
 30
0.0
  9
$EXTMIN
 10
303.61820911409711
 20
26.30360515601766
 30
0.0
  9
$EXTMAX
 10
305.98040911409709
 20
32.947531779417659
 30
0.0
  9
$LIMMIN
 10
0.0
 20
0.0
  9
$LIMMAX
 10
11.692913385800001
 20
8.2677165353999982
  9
$ORTHOMODE
 70
     1
  9
$REGENMODE
 70
     1
  9
$FILLMODE
 70
     1
  9
$QTEXTMODE
 70
     0
  9
$MIRRTEXT
 70
     0
  9
$DRAGMODE
 70
     2
  9
$LTSCALE
 40
0.6431102362
  9
$OSMODE
 70
  3071
  9
$ATTMODE
 70
     1
  9
$TEXTSIZE
 40
0.2
  9
$TRACEWID
 40
0.05
  9
$TEXTSTYLE
  7
STANDARD
  9
$CLAYER
  8
0
  9
$CELTYPE
  6
BYLAYER
  9
$CECOLOR
 62
   256
  9
$DIMSCALE
 40
1.0
  9
$DIMASZ
 40
0.1875
  9
$DIMEXO
 40
0.0625
  9
$DIMDLI
 40
0.4443307087
  9
$DIMRND
 40
0.0
  9
$DIMDLE
 40
0.0
  9
$DIMEXE
 40
0.125
  9
$DIMTP
 40
0.01
  9
$DIMTM
 40
0.01
  9
$DIMTXT
 40
1.0
  9
$DIMCEN
 40
0.1052362205
  9
$DIMTSZ
 40
0.0
  9
$DIMTOL
 70
     1
  9
$DIMLIM
 70
     0
  9
$DIMTIH
 70
     1
  9
$DIMTOH
 70
     1
  9
$DIMSE1
 70
     0
  9
$DIMSE2
 70
     0
  9
$DIMTAD
 70
     0
  9
$DIMZIN
 70
     0
  9
$DIMBLK
  1

  9
$DIMASO
 70
     1
  9
$DIMSHO
 70
     1
  9
$DIMPOST
  1
\X
  9
$DIMAPOST
  1

  9
$DIMALT
 70
     1
  9
$DIMALTD
 70
     2
  9
$DIMALTF
 40
25.399999999999999
  9
$DIMLFAC
 40
1.0
  9
$DIMTOFL
 70
     0
  9
$DIMTVP
 40
0.0
  9
$DIMTIX
 70
     0
  9
$DIMSOXD
 70
     0
  9
$DIMSAH
 70
     0
  9
$DIMBLK1
  1

  9
$DIMBLK2
  1

  9
$DIMSTYLE
  2
STANDARD
  9
$DIMCLRD
 70
     0
  9
$DIMCLRE
 70
     0
  9
$DIMCLRT
 70
     0
  9
$DIMTFAC
 40
1.0
  9
$DIMGAP
 40
0.09
  9
$LUNITS
 70
     2
  9
$LUPREC
 70
     4
  9
$SKETCHINC
 40
0.1
  9
$FILLETRAD
 40
0.0
  9
$AUNITS
 70
     0
  9
$AUPREC
 70
     0
  9
$MENU
  1
.
  9
$ELEVATION
 40
0.0
  9
$PELEVATION
 40
0.0
  9
$THICKNESS
 40
0.0
  9
$LIMCHECK
 70
     0
  9
$BLIPMODE
 70
     0
  9
$CHAMFERA
 40
0.0
  9
$CHAMFERB
 40
0.0
  9
$SKPOLY
 70
     0
  9
$TDCREATE
 40
2458306.609456806
  9
$TDUPDATE
 40
2458320.7801719438
  9
$TDINDWG
 40
0.0441571759
  9
$TDUSRTIMER
 40
0.0441571759
  9
$USRTIMER
 70
     1
  9
$ANGBASE
 50
0.0
  9
$ANGDIR
 70
     0
  9
$PDMODE
 70
     0
  9
$PDSIZE
 40
0.3125
  9
$PLINEWID
 40
0.0
  9
$COORDS
 70
     1
  9
$SPLFRAME
 70
     0
  9
$SPLINETYPE
 70
     6
  9
$SPLINESEGS
 70
     8
  9
$ATTDIA
 70
     1
  9
$ATTREQ
 70
     1
  9
$HANDLING
 70
     1
  9
$HANDSEED
  5
14E8
  9
$SURFTAB1
 70
     6
  9
$SURFTAB2
 70
     6
  9
$SURFTYPE
 70
     6
  9
$SURFU
 70
     6
  9
$SURFV
 70
     6
  9
$UCSNAME
  2

  9
$UCSORG
 10
0.0
 20
0.0
 30
0.0
  9
$UCSXDIR
 10
1.0
 20
0.0
 30
0.0
  9
$UCSYDIR
 10
0.0
 20
1.0
 30
0.0
  9
$PUCSNAME
  2

  9
$PUCSORG
 10
0.0
 20
0.0
 30
0.0
  9
$PUCSXDIR
 10
1.0
 20
0.0
 30
0.0
  9
$PUCSYDIR
 10
0.0
 20
1.0
 30
0.0
  9
$USERI1
 70
     0
  9
$USERI2
 70
     0
  9
$USERI3
 70
     0
  9
$USERI4
 70
     0
  9
$USERI5
 70
     0
  9
$USERR1
 40
0.0
  9
$USERR2
 40
0.0
  9
$USERR3
 40
0.0
  9
$USERR4
 40
0.0
  9
$USERR5
 40
0.0
  9
$WORLDVIEW
 70
     1
  9
$SHADEDGE
 70
     3
  9
$SHADEDIF
 70
    70
  9
$TILEMODE
 70
     1
  9
$MAXACTVP
 70
    64
  9
$PLIMCHECK
 70
     0
  9
$PEXTMIN
 10
1.0000000000000000E+020
 20
1.0000000000000000E+020
 30
1.0000000000000000E+020
  9
$PEXTMAX
 10
-1.0000000000000000E+020
 20
-1.0000000000000000E+020
 30
-1.0000000000000000E+020
  9
$PLIMMIN
 10
0.0
 20
0.0
  9
$PLIMMAX
 10
12.0
 20
9.0
  9
$UNITMODE
 70
     0
  9
$VISRETAIN
 70
     1
  9
$PLINEGEN
 70
     0
  9
$PSLTSCALE
 70
     1
  0
ENDSEC
  0
SECTION
  2
TABLES
  0
TABLE
  2
VPORT
 70
     1
  0
VPORT
  2
*ACTIVE
 70
     0
 10
0.0
 20
0.0
 11
1.0
 21
1.0
 12
0.0
 22
0.0
 13
0.0
 23
0.0
 14
1.0
 24
1.0
 15
0.0
 25
0.0
 16
0.0
 26
0.0
 36
19.831038719917721
 17
304.79930911409713
 27
29.628359378324841
 37
0.0
 40
7.046863104218775
 41
2.1006711409395971
 42
50.0
 43
0.0
 44
0.0
 50
0.0
 51
0.0
 71
     0
 72
   100
 73
     1
 74
     1
 75
     0
 76
     0
 77
     0
 78
     0
  0
ENDTAB
  0
TABLE
  2
LTYPE
 70
     2
  0
LTYPE
  2
CONTINUOUS
 70
     0
  3
Solid line
 72
    65
 73
     0
 40
0.0
  0
LTYPE
  2
PHANTOM2
 70
     0
  3
___ _ _ ___ _ _ ___ _ _ ___ _ _
 72
    65
 73
     6
 40
1.25
 49
0.625
 49
-0.125
 49
0.125
 49
-0.125
 49
0.125
 49
-0.125
  0
ENDTAB
  0
TABLE
  2
LAYER
 70
     2
  0
LAYER
  2
0
 70
     0
 62
   255
  6
CONTINUOUS
  0
LAYER
  2
DEFPOINTS
 70
     0
 62
     7
  6
CONTINUOUS
  0
ENDTAB
  0
TABLE
  2
STYLE
 70
     1
  0
STYLE
  2
STANDARD
 70
     0
 40
0.0
 41
0.8
 50
0.0
 71
     0
 42
0.2
  3
txt
  4

  0
ENDTAB
  0
TABLE
  2
VIEW
 70
     0
  0
ENDTAB
  0
TABLE
  2
UCS
 70
     0
  0
ENDTAB
  0
TABLE
  2
APPID
 70
     9
  0
APPID
  2
ACAD
 70
     0
  0
APPID
  2
ACAD_MLEADERVER
 70
     0
  0
APPID
  2
ACAD_EXEMPT_FROM_CAD_STANDARDS
 70
     0
  0
APPID
  2
ACAD_DSTYLE_DIMJAG
 70
     0
  0
APPID
  2
ACAD_DSTYLE_DIMTALN
 70
     0
  0
APPID
  2
ACAD_NAV_VCDISPLAY
 70
     0
  0
APPID
  2
ACAECLAYERSTANDARD
 70
     0
  0
APPID
  2
ACCMTRANSPARENCY
 70
     0
  0
APPID
  2
ACDBATTR
 70
     0
  0
ENDTAB
  0
TABLE
  2
DIMSTYLE
 70
     1
  0
DIMSTYLE
  2
STANDARD
 70
     0
  3

  4

  5

  6

  7

 40
1.0
 41
0.1875
 42
0.0625
 43
0.38
 44
0.125
 45
0.0
 46
0.0
 47
0.01
 48
0.01
140
0.15625
141
0.09
142
0.0
143
25.399999999999999
144
1.0
145
0.0
146
1.0
147
0.09
 71
     1
 72
     0
 73
     1
 74
     1
 75
     0
 76
     0
 77
     0
 78
     4
170
     0
171
     2
172
     0
173
     0
174
     0
175
     0
176
     0
177
     0
178
     0
  0
ENDTAB
  0
ENDSEC
  0
SECTION
  2
BLOCKS
  0
BLOCK
  8
0
  2
$MODEL_SPACE
 70
     0
 10
0.0
 20
0.0
 30
0.0
  3
$MODEL_SPACE
  1

  0
ENDBLK
  5
21
  8
0
  0
BLOCK
 67
     1
  8
0
  2
$PAPER_SPACE
 70
     0
 10
0.0
 20
0.0
 30
0.0
  3
$PAPER_SPACE
  1

  0
ENDBLK
  5
1D
 67
     1
  8
0
  0
ENDSEC
  0
SECTION
  2
ENTITIES
  0
ATTDEF
  5
659
  8
DEFPOINTS
 10
304.79423733602101
 20
27.48305948708348
 30
0.0
 40
0.001
  1
K-78383
  3

  2
MODELNUMBER
 70
     0
1001
ACDBATTR
1070
     0
1070
     1
  0
ATTDEF
  5
65A
  8
DEFPOINTS
 10
304.79423733602101
 20
27.481392820416819
 30
0.0
 40
0.001
  1
COMPONENTS
  3

  2
TRADENAME
 70
     0
1001
ACDBATTR
1070
     0
1070
     1
  0
ATTDEF
  5
65B
  8
DEFPOINTS
 10
304.79423733602101
 20
27.47972615375016
 30
0.0
 40
0.001
  1
TISSUE HOLDER
  3

  2
PRODUCT
 70
     0
1001
ACDBATTR
1070
     0
1070
     1
  0
ATTDEF
  5
65C
  8
DEFPOINTS
 10
304.79423733602101
 20
27.478059487083492
 30
0.0
 40
0.001
  1
METAL
  3

  2
MATERIAL
 70
     0
1001
ACDBATTR
1070
     0
1070
     1
  0
LINE
  5
11AB
  8
0
 10
304.30701514919713
 20
27.251717485017661
 30
0.0
 11
304.30701514919713
 21
27.887295558917661
 31
0.0
  0
LINE
  5
11AC
  8
0
 10
305.29126711769709
 20
27.251721216717659
 30
0.0
 11
305.29126678962763
 21
27.887295558917661
 31
0.0
  0
ARC
  5
11AD
  8
0
 10
304.41387604319709
 20
27.484645558917659
 30
0.0
 40
0.9228346456999998
 50
343.56740832739979
 51
16.432591672600179
  0
ARC
  5
11AE
  8
0
 10
304.34638785209052
 20
27.251721799508619
 30
0.0
 40
0.0393727031297923
 50
180.00627851540591
 51
256.04664185234651
  0
ARC
  5
11AF
  8
0
 10
304.3184833368972
 20
27.740134931617661
 30
0.0
 40
0.0196850394
 50
125.6324884639004
 51
163.56740832739979
  0
ARC
  5
11B0
  8
0
 10
304.3184833368972
 20
27.22915618631766
 30
0.0
 40
0.0196850394
 50
196.43259167249991
 51
261.00570714220129
  0
ARC
  5
11B1
  8
0
 10
304.79971833165058
 20
30.266180764257829
 30
0.0
 40
3.087555644713277
 50
261.37887032781441
 51
278.57788123329698
  0
ARC
  5
11B2
  8
0
 10
305.18474218489712
 20
27.484645558917659
 30
0.0
 40
0.9228346456999998
 50
163.56740832739979
 51
196.43259167260021
  0
ARC
  5
11B3
  8
0
 10
305.25192931889097
 20
27.251612798458321
 30
0.0
 40
0.0393379482107608
 50
282.1941192219669
 51
0.1579115543331582
  0
ARC
  5
11B4
  8
0
 10
305.28013489129711
 20
27.740134931617661
 30
0.0
 40
0.0196850394
 50
16.432591672600179
 51
55.562712232850558
  0
ARC
  5
11B5
  8
0
 10
305.28013489129711
 20
27.22915618631766
 30
0.0
 40
0.0196850394
 50
278.9942928577986
 51
343.56740832750012
  0
ARC
  5
11B6
  8
0
 10
304.79930911409713
 20
30.266929023517651
 30
0.0
 40
3.0952755906
 50
261.00570714220129
 51
278.9942928577986
  0
LINE
  5
11B7
  8
0
 10
303.61820911409711
 20
28.155012094417661
 30
0.0
 11
303.61820911409711
 21
28.06193658211766
 31
0.0
  0
LINE
  5
11B8
  8
0
 10
304.29930911409713
 20
27.887295558917661
 30
0.0
 11
303.6272313004971
 21
28.050458958817661
 31
0.0
  0
LINE
  5
11B9
  8
0
 10
304.05127761799707
 20
32.801862488117663
 30
0.0
 11
304.05127761799707
 21
32.879147621317657
 31
0.0
  0
LINE
  5
11BA
  8
0
 10
305.29930911409713
 20
27.887295558917661
 30
0.0
 11
305.9713869276971
 21
28.050458958817661
 31
0.0
  0
LINE
  5
11BB
  8
0
 10
304.29930911409713
 20
27.887295558917661
 30
0.0
 11
305.29930911409713
 21
27.887295558917661
 31
0.0
  0
LINE
  5
11BC
  8
0
 10
303.61820911409711
 20
28.06193658211766
 30
0.0
 11
305.98040911409709
 21
28.06193658211766
 31
0.0
  0
LINE
  5
11BD
  8
0
 10
304.30718312979712
 20
28.16682311801765
 30
0.0
 11
304.30718312979712
 21
32.790051464517653
 31
0.0
  0
LINE
  5
11BE
  8
0
 10
303.63001777549709
 20
28.16682311801765
 30
0.0
 11
305.9686004526971
 21
28.16682311801765
 31
0.0
  0
LINE
  5
11BF
  8
0
 10
305.29143509829709
 20
28.16682311801765
 30
0.0
 11
305.29143509829709
 21
32.79005146451766
 31
0.0
  0
LINE
  5
11C0
  8
0
 10
305.54734061009719
 20
32.801862488117663
 30
0.0
 11
305.54734061009719
 21
32.879147621317657
 31
0.0
  0
LINE
  5
11C1
  8
0
 10
305.98040911409709
 20
28.155012094417661
 30
0.0
 11
305.98040911409709
 21
28.06193658211766
 31
0.0
  0
LINE
  5
11C2
  8
0
 10
304.06308864159882
 20
32.790051464517653
 30
0.0
 11
305.53552958649709
 21
32.79005146451766
 31
0.0
  0
LINE
  5
11C3
  8
0
 10
305.54734061009719
 20
32.879147621317657
 30
0.0
 11
304.05127761799707
 21
32.879147621317657
 31
0.0
  0
LINE
  5
11C4
  8
0
 10
305.29930911409713
 20
32.947531779417659
 30
0.0
 11
304.29930911409713
 21
32.947531779417659
 31
0.0
  0
LINE
  5
11C5
  8
0
 10
305.29930911409713
 20
32.947531779417659
 30
0.0
 11
305.5382652619972
 21
32.890637458517659
 31
0.0
  0
LINE
  5
11C6
  8
0
 10
304.29930911409713
 20
32.947531779417659
 30
0.0
 11
304.06035296609713
 21
32.890637458517659
 31
0.0
  0
ARC
  5
11C7
  8
0
 10
305.96860307920872
 20
28.155017082367749
 30
0.0
 40
0.0118060359420671
 50
359.97579301817888
 51
90.012746702841497
  0
ARC
  5
11C8
  8
0
 10
305.96860501529369
 20
28.06193056503507
 30
0.0
 40
0.0118041003369744
 50
283.63132047342998
 51
0.029206245488591
  0
ARC
  5
11C9
  8
0
 10
303.63001514898548
 20
28.15501708236776
 30
0.0
 40
0.0118060359420585
 50
89.987253297122678
 51
180.0242069818643
  0
ARC
  5
11CA
  8
0
 10
303.63001321290051
 20
28.06193056503508
 30
0.0
 40
0.0118041003369883
 50
179.9707937545393
 51
256.36867952647953
  0
ARC
  5
11CB
  8
0
 10
304.06308864159712
 20
32.801862488117663
 30
0.0
 40
0.0118110236
 50
180.0
 51
270.0
  0
ARC
  5
11CC
  8
0
 10
304.06308864159712
 20
32.879147621317657
 30
0.0
 40
0.0118110236
 50
103.3924977537994
 51
180.0
  0
ARC
  5
11CD
  8
0
 10
305.53552958649709
 20
32.801862488117663
 30
0.0
 40
0.0118110236
 50
270.0
 51
0.0
  0
ARC
  5
11CE
  8
0
 10
305.53552958649709
 20
32.879147621317657
 30
0.0
 40
0.0118110236
 50
0.0
 51
76.607502246200596
  0
ARC
  5
11CF
  8
0
 10
304.79930911409713
 20
27.484705156017661
 30
0.0
 40
1.181100000000002
 50
35.276841175151112
 51
65.375629127538005
  0
ARC
  5
11D0
  8
0
 10
304.79930911409713
 20
27.484705156017661
 30
0.0
 40
1.181100000000002
 50
114.62437087779701
 51
144.7231588248487
  0
ARC
  5
11D1
  8
0
 10
304.79930911409713
 20
27.484705156017661
 30
0.0
 40
1.181100000000002
 50
152.9765931296337
 51
27.023406870366291
  0
ENDSEC
  0
EOF
