  0
SECTION
  2
HEADER
  9
$ACADVER
  1
AC1009
  9
$INSBASE
 10
342.8495554934542042
 20
32.3662593361544566
 30
0.0
  9
$EXTMIN
 10
337.0607690008278041
 20
26.182695212599441
 30
-0.0000000349181948
  9
$EXTMAX
 10
348.6582381276385263
 20
32.3747990849748319
 30
0.0000000814935746
  9
$LIMMIN
 10
0.0
 20
0.0
  9
$LIMMAX
 10
11.6929133858000007
 20
8.2677165353999982
  9
$ORTHOMODE
 70
     1
  9
$REGENMODE
 70
     1
  9
$FILLMODE
 70
     1
  9
$QTEXTMODE
 70
     0
  9
$MIRRTEXT
 70
     0
  9
$DRAGMODE
 70
     2
  9
$LTSCALE
 40
0.6431102362
  9
$OSMODE
 70
  4095
  9
$ATTMODE
 70
     1
  9
$TEXTSIZE
 40
0.2
  9
$TRACEWID
 40
0.05
  9
$TEXTSTYLE
  7
STANDARD
  9
$CLAYER
  8
0
  9
$CELTYPE
  6
BYLAYER
  9
$CECOLOR
 62
   256
  9
$DIMSCALE
 40
1.0
  9
$DIMASZ
 40
0.1875
  9
$DIMEXO
 40
0.0625
  9
$DIMDLI
 40
0.4443307087
  9
$DIMRND
 40
0.0
  9
$DIMDLE
 40
0.0
  9
$DIMEXE
 40
0.125
  9
$DIMTP
 40
0.01
  9
$DIMTM
 40
0.01
  9
$DIMTXT
 40
1.0
  9
$DIMCEN
 40
0.1052362205
  9
$DIMTSZ
 40
0.0
  9
$DIMTOL
 70
     1
  9
$DIMLIM
 70
     0
  9
$DIMTIH
 70
     1
  9
$DIMTOH
 70
     1
  9
$DIMSE1
 70
     0
  9
$DIMSE2
 70
     0
  9
$DIMTAD
 70
     0
  9
$DIMZIN
 70
     0
  9
$DIMBLK
  1

  9
$DIMASO
 70
     1
  9
$DIMSHO
 70
     1
  9
$DIMPOST
  1
\X
  9
$DIMAPOST
  1

  9
$DIMALT
 70
     1
  9
$DIMALTD
 70
     2
  9
$DIMALTF
 40
25.3999999999999986
  9
$DIMLFAC
 40
1.0
  9
$DIMTOFL
 70
     0
  9
$DIMTVP
 40
0.0
  9
$DIMTIX
 70
     0
  9
$DIMSOXD
 70
     0
  9
$DIMSAH
 70
     0
  9
$DIMBLK1
  1

  9
$DIMBLK2
  1

  9
$DIMSTYLE
  2
STANDARD
  9
$DIMCLRD
 70
     0
  9
$DIMCLRE
 70
     0
  9
$DIMCLRT
 70
     0
  9
$DIMTFAC
 40
1.0
  9
$DIMGAP
 40
0.09
  9
$LUNITS
 70
     2
  9
$LUPREC
 70
     4
  9
$SKETCHINC
 40
0.1
  9
$FILLETRAD
 40
0.0
  9
$AUNITS
 70
     0
  9
$AUPREC
 70
     0
  9
$MENU
  1
.
  9
$ELEVATION
 40
0.0
  9
$PELEVATION
 40
0.0
  9
$THICKNESS
 40
0.0
  9
$LIMCHECK
 70
     0
  9
$BLIPMODE
 70
     0
  9
$CHAMFERA
 40
0.0
  9
$CHAMFERB
 40
0.0
  9
$SKPOLY
 70
     0
  9
$TDCREATE
 40
2458306.6094560190103948
  9
$TDUPDATE
 40
2459821.7585995369590819
  9
$TDINDWG
 40
0.0523159838
  9
$TDUSRTIMER
 40
0.0523159838
  9
$USRTIMER
 70
     1
  9
$ANGBASE
 50
0.0
  9
$ANGDIR
 70
     0
  9
$PDMODE
 70
     0
  9
$PDSIZE
 40
0.3125
  9
$PLINEWID
 40
0.0
  9
$COORDS
 70
     1
  9
$SPLFRAME
 70
     0
  9
$SPLINETYPE
 70
     6
  9
$SPLINESEGS
 70
     8
  9
$ATTDIA
 70
     1
  9
$ATTREQ
 70
     1
  9
$HANDLING
 70
     1
  9
$HANDSEED
  5
189B
  9
$SURFTAB1
 70
     6
  9
$SURFTAB2
 70
     6
  9
$SURFTYPE
 70
     6
  9
$SURFU
 70
     6
  9
$SURFV
 70
     6
  9
$UCSNAME
  2

  9
$UCSORG
 10
0.0
 20
0.0
 30
0.0
  9
$UCSXDIR
 10
1.0
 20
0.0
 30
0.0
  9
$UCSYDIR
 10
0.0
 20
1.0
 30
0.0
  9
$PUCSNAME
  2

  9
$PUCSORG
 10
0.0
 20
0.0
 30
0.0
  9
$PUCSXDIR
 10
1.0
 20
0.0
 30
0.0
  9
$PUCSYDIR
 10
0.0
 20
1.0
 30
0.0
  9
$USERI1
 70
     0
  9
$USERI2
 70
     0
  9
$USERI3
 70
     0
  9
$USERI4
 70
     0
  9
$USERI5
 70
     0
  9
$USERR1
 40
0.0
  9
$USERR2
 40
0.0
  9
$USERR3
 40
0.0
  9
$USERR4
 40
0.0
  9
$USERR5
 40
0.0
  9
$WORLDVIEW
 70
     1
  9
$SHADEDGE
 70
     3
  9
$SHADEDIF
 70
    70
  9
$TILEMODE
 70
     1
  9
$MAXACTVP
 70
    64
  9
$PLIMCHECK
 70
     0
  9
$PEXTMIN
 10
1.0000000000000000E+20
 20
1.0000000000000000E+20
 30
1.0000000000000000E+20
  9
$PEXTMAX
 10
-1.0000000000000000E+20
 20
-1.0000000000000000E+20
 30
-1.0000000000000000E+20
  9
$PLIMMIN
 10
0.0
 20
0.0
  9
$PLIMMAX
 10
12.0
 20
9.0
  9
$UNITMODE
 70
     0
  9
$VISRETAIN
 70
     1
  9
$PLINEGEN
 70
     0
  9
$PSLTSCALE
 70
     1
  0
ENDSEC
  0
SECTION
  2
TABLES
  0
TABLE
  2
VPORT
 70
     1
  0
VPORT
  2
*ACTIVE
 70
     0
 10
0.0
 20
0.0
 11
1.0
 21
1.0
 12
0.0099480707789323
 22
0.0007417044553151
 13
0.0
 23
0.0
 14
1.0
 24
1.0
 15
0.0
 25
0.0
 16
0.0
 26
0.0
 36
36.9422516216012227
 17
342.8495554934542042
 27
29.2780054443318214
 37
0.0
 40
6.2236693976381288
 41
2.0416666666666661
 42
50.0
 43
0.0
 44
0.0
 50
0.0
 51
0.0
 71
     0
 72
   100
 73
     1
 74
     1
 75
     0
 76
     0
 77
     0
 78
     0
  0
ENDTAB
  0
TABLE
  2
LTYPE
 70
     2
  0
LTYPE
  2
CONTINUOUS
 70
     0
  3
Solid line
 72
    65
 73
     0
 40
0.0
  0
LTYPE
  2
PHANTOM2
 70
     0
  3
___ _ _ ___ _ _ ___ _ _ ___ _ _
 72
    65
 73
     6
 40
1.25
 49
0.625
 49
-0.125
 49
0.125
 49
-0.125
 49
0.125
 49
-0.125
  0
ENDTAB
  0
TABLE
  2
LAYER
 70
     2
  0
LAYER
  2
0
 70
     0
 62
   255
  6
CONTINUOUS
  0
LAYER
  2
DEFPOINTS
 70
     0
 62
     7
  6
CONTINUOUS
  0
ENDTAB
  0
TABLE
  2
STYLE
 70
     1
  0
STYLE
  2
STANDARD
 70
     0
 40
0.0
 41
0.8
 50
0.0
 71
     0
 42
0.2
  3
txt
  4

  0
ENDTAB
  0
TABLE
  2
VIEW
 70
     0
  0
ENDTAB
  0
TABLE
  2
UCS
 70
     0
  0
ENDTAB
  0
TABLE
  2
APPID
 70
     9
  0
APPID
  2
ACAD
 70
     0
  0
APPID
  2
ACAD_MLEADERVER
 70
     0
  0
APPID
  2
ACAD_EXEMPT_FROM_CAD_STANDARDS
 70
     0
  0
APPID
  2
ACAD_DSTYLE_DIMJAG
 70
     0
  0
APPID
  2
ACAD_DSTYLE_DIMTALN
 70
     0
  0
APPID
  2
ACAD_NAV_VCDISPLAY
 70
     0
  0
APPID
  2
ACAECLAYERSTANDARD
 70
     0
  0
APPID
  2
ACCMTRANSPARENCY
 70
     0
  0
APPID
  2
ACDBATTR
 70
     0
  0
ENDTAB
  0
TABLE
  2
DIMSTYLE
 70
     1
  0
DIMSTYLE
  2
STANDARD
 70
     0
  3

  4

  5

  6

  7

 40
1.0
 41
0.1875
 42
0.0625
 43
0.38
 44
0.125
 45
0.0
 46
0.0
 47
0.01
 48
0.01
140
0.15625
141
0.09
142
0.0
143
25.3999999999999986
144
1.0
145
0.0
146
1.0
147
0.09
 71
     1
 72
     0
 73
     1
 74
     1
 75
     0
 76
     0
 77
     0
 78
     4
170
     0
171
     2
172
     0
173
     0
174
     0
175
     0
176
     0
177
     0
178
     0
  0
ENDTAB
  0
ENDSEC
  0
SECTION
  2
BLOCKS
  0
BLOCK
  8
0
  2
$MODEL_SPACE
 70
     0
 10
0.0
 20
0.0
 30
0.0
  3
$MODEL_SPACE
  1

  0
ENDBLK
  5
21
  8
0
  0
BLOCK
 67
     1
  8
0
  2
$PAPER_SPACE
 70
     0
 10
0.0
 20
0.0
 30
0.0
  3
$PAPER_SPACE
  1

  0
ENDBLK
  5
1D
 67
     1
  8
0
  0
ENDSEC
  0
SECTION
  2
ENTITIES
  0
ATTDEF
  5
659
  8
DEFPOINTS
 10
342.8465838755500954
 20
32.3718230237591769
 30
0.0
 40
0.001
  1
K-78384T
  3

  2
MODELNUMBER
 70
     0
1001
ACDBATTR
1070
     0
1070
     1
  0
ATTDEF
  5
65A
  8
DEFPOINTS
 10
342.8465838755500954
 20
32.3701563570925117
 30
0.0
 40
0.001
  1
COMPONENTS
  3

  2
TRADENAME
 70
     0
1001
ACDBATTR
1070
     0
1070
     1
  0
ATTDEF
  5
65B
  8
DEFPOINTS
 10
342.8465838755500954
 20
32.3684896904258466
 30
0.0
 40
0.001
  1
TOILET TISSUE HOLDER
  3

  2
PRODUCT
 70
     0
1001
ACDBATTR
1070
     0
1070
     1
  0
LINE
  5
162C
  8
0
 10
337.0621539186541895
 20
26.3800382588044684
 30
0.0
 11
337.0621539186541895
 21
31.4863374713044699
 31
0.0
  0
LINE
  5
162D
  8
0
 10
348.4401066743541833
 20
26.1831878649044612
 30
0.0
 11
337.2590043122542056
 21
26.1831878649044612
 31
0.0
  0
LINE
  5
162E
  8
0
 10
342.5426515356592745
 20
31.9128162840150296
 30
0.0
 11
342.5426515335656177
 21
31.6831878649044683
 31
0.0
  0
LINE
  5
162F
  8
0
 10
343.1565023021046841
 20
31.6831878649044683
 30
0.0
 11
343.1565022877637148
 21
31.9128283316103598
 31
0.0
  0
LINE
  5
1630
  8
0
 10
337.2590043125542252
 20
31.6831878649044683
 30
0.0
 11
348.4401066745542153
 21
31.6831878649044683
 31
0.0
  0
LINE
  5
1631
  8
0
 10
348.6369570682542189
 20
31.4863374711044699
 30
0.0
 11
348.6369570682542189
 21
26.3800382586044684
 31
0.0
  0
ARC
  5
1632
  8
0
 10
348.4401066745542153
 20
31.4863374712044717
 30
0.0
 40
0.1968503937
 50
0.0
 51
89.9999999801004122
  0
ARC
  5
1633
  8
0
 10
337.2590043123543069
 20
31.4863374712044717
 30
0.0
 40
0.1968503937
 50
90.0
 51
179.999999979699794
  0
ARC
  5
1634
  8
0
 10
348.4401066745542153
 20
26.3800382586044684
 30
0.0
 40
0.1968503937
 50
270.0
 51
359.999999979699794
  0
ARC
  5
1635
  8
0
 10
337.2590043123543069
 20
26.3800382586044684
 30
0.0
 40
0.1968503937
 50
180.0
 51
269.9999999801004265
  0
LINE
  5
1636
  8
0
 10
341.6684531312042168
 20
32.3662593361544566
 30
0.0
 11
341.6684531312042168
 21
32.141343474454473
 31
0.0
  0
LINE
  5
1637
  8
0
 10
344.0306578540651117
 20
32.141343474454473
 30
0.0
 11
344.0306578557041917
 21
32.3662593361544566
 31
0.0
  0
LINE
  5
1638
  8
0
 10
342.5365921148041934
 20
31.9009742082544605
 30
0.0
 11
341.6986101683041852
 21
32.1030781379544621
 31
0.0
  0
LINE
  5
1639
  8
0
 10
344.0306578557041917
 20
32.3662593361544566
 30
0.0
 11
341.6684531312042168
 21
32.3662593361544566
 31
0.0
  0
LINE
  5
163A
  8
0
 10
343.1625760669043075
 20
31.9009893964544595
 30
0.0
 11
344.0005007875042224
 21
32.1030793413544728
 31
0.0
  0
ARC
  5
163B
  8
0
 10
342.7897422904130735
 20
31.7789121801888612
 30
0.0
 40
0.2810411893411508
 50
139.9367735418321956
 51
154.2579181840283979
  0
ARC
  5
163C
  8
0
 10
342.9071038756950998
 20
31.7774009100451806
 30
0.0
 40
0.2837959732873787
 50
25.8160688082588408
 51
39.9961519149526907
  0
ARC
  5
163D
  8
0
 10
342.7731612389766269
 20
44.3528472586864666
 30
0.0
 40
12.3980200519740702
 50
270.3512398742058735
 51
271.6239582257334746
  0
ARC
  5
163E
  8
0
 10
342.9268024306102802
 20
44.4047471336231823
 30
0.0
 40
12.4499290453710696
 50
268.3791521786317844
 51
269.6426992533698126
  0
ARC
  5
163F
  8
0
 10
341.7078720802310272
 20
32.1413935792324423
 30
0.0
 40
0.0394189808704524
 50
180.0728276840476099
 51
256.4106929348412791
  0
ARC
  5
1640
  8
0
 10
343.9912354965542818
 20
32.1413974776827729
 30
0.0
 40
0.0394223944993435
 50
283.593160264436392
 51
359.9215126815839767
  0
LINE
  5
1641
  8
0
 10
341.6684531312042168
 20
32.141343474454473
 30
0.0
 11
344.0306578540651117
 21
32.141343474454473
 31
0.0
  0
ENDSEC
  0
EOF
